  0
SECTION
  2
HEADER
  9
$ACADVER
  1
AC1012
  9
$DWGCODEPAGE
  3
ansi_1252
  9
$INSBASE
 10
0.0
 20
0.0
 30
0.0
  9
$EXTMIN
 10
0.0
 20
0.0
 30
0.0
  9
$EXTMAX
 10
210.0
 20
297.0
 30
0.0
  9
$LIMMIN
 10
0.0
 20
0.0
  9
$LIMMAX
 10
210.0
 20
297.0
  9
$ORTHOMODE
 70
     0
  9
$REGENMODE
 70
     1
  9
$FILLMODE
 70
     1
  9
$QTEXTMODE
 70
     0
  9
$MIRRTEXT
 70
     1
  9
$DRAGMODE
 70
     2
  9
$LTSCALE
 40
1.0
  9
$OSMODE
 70
    37
  9
$ATTMODE
 70
     1
  9
$TEXTSIZE
 40
0.2
  9
$TRACEWID
 40
0.05
  9
$TEXTSTYLE
  7
STANDARD
  9
$CLAYER
  8
0
  9
$CELTYPE
  6
BYLAYER
  9
$CECOLOR
 62
   256
  9
$CELTSCALE
 40
25.4
  9
$DELOBJ
 70
     1
  9
$DISPSILH
 70
     0
  9
$DIMSCALE
 40
1.0
  9
$DIMASZ
 40
0.18
  9
$DIMEXO
 40
0.0625
  9
$DIMDLI
 40
0.38
  9
$DIMRND
 40
0.0
  9
$DIMDLE
 40
0.0
  9
$DIMEXE
 40
0.18
  9
$DIMTP
 40
0.0
  9
$DIMTM
 40
0.0
  9
$DIMTXT
 40
0.18
  9
$DIMCEN
 40
0.09
  9
$DIMTSZ
 40
0.0
  9
$DIMTOL
 70
     0
  9
$DIMLIM
 70
     0
  9
$DIMTIH
 70
     1
  9
$DIMTOH
 70
     1
  9
$DIMSE1
 70
     0
  9
$DIMSE2
 70
     0
  9
$DIMTAD
 70
     0
  9
$DIMZIN
 70
     0
  9
$DIMBLK
  1

  9
$DIMASO
 70
     1
  9
$DIMSHO
 70
     1
  9
$DIMPOST
  1

  9
$DIMAPOST
  1

  9
$DIMALT
 70
     0
  9
$DIMALTD
 70
     2
  9
$DIMALTF
 40
25.4
  9
$DIMLFAC
 40
1.0
  9
$DIMTOFL
 70
     0
  9
$DIMTVP
 40
0.0
  9
$DIMTIX
 70
     0
  9
$DIMSOXD
 70
     0
  9
$DIMSAH
 70
     0
  9
$DIMBLK1
  1

  9
$DIMBLK2
  1

  9
$DIMSTYLE
  2
STANDARD
  9
$DIMCLRD
 70
     0
  9
$DIMCLRE
 70
     0
  9
$DIMCLRT
 70
     0
  9
$DIMTFAC
 40
1.0
  9
$DIMGAP
 40
0.09
  9
$DIMJUST
 70
     0
  9
$DIMSD1
 70
     0
  9
$DIMSD2
 70
     0
  9
$DIMTOLJ
 70
     1
  9
$DIMTZIN
 70
     0
  9
$DIMALTZ
 70
     0
  9
$DIMALTTZ
 70
     0
  9
$DIMFIT
 70
     3
  9
$DIMUPT
 70
     0
  9
$DIMUNIT
 70
     2
  9
$DIMDEC
 70
     4
  9
$DIMTDEC
 70
     4
  9
$DIMALTU
 70
     2
  9
$DIMALTTD
 70
     2
  9
$DIMTXSTY
  7
STANDARD
  9
$DIMAUNIT
 70
     0
  9
$LUNITS
 70
     2
  9
$LUPREC
 70
     4
  9
$SKETCHINC
 40
0.1
  9
$FILLETRAD
 40
0.5
  9
$AUNITS
 70
     0
  9
$AUPREC
 70
     0
  9
$MENU
  1
.
  9
$ELEVATION
 40
0.0
  9
$PELEVATION
 40
0.0
  9
$THICKNESS
 40
0.0
  9
$LIMCHECK
 70
     0
  9
$CHAMFERA
 40
0.5
  9
$CHAMFERB
 40
0.5
  9
$CHAMFERC
 40
1.0
  9
$CHAMFERD
 40
0.0
  9
$SKPOLY
 70
     0
  9
$TDCREATE
 40
2453762.543743229
  9
$TDUPDATE
 40
2453762.543743241
  9
$TDINDWG
 40
0.0000000116
  9
$TDUSRTIMER
 40
0.0000000116
  9
$USRTIMER
 70
     1
  9
$ANGBASE
 50
0.0
  9
$ANGDIR
 70
     0
  9
$PDMODE
 70
     0
  9
$PDSIZE
 40
0.0
  9
$PLINEWID
 40
0.0
  9
$COORDS
 70
     1
  9
$SPLFRAME
 70
     0
  9
$SPLINETYPE
 70
     6
  9
$SPLINESEGS
 70
     8
  9
$ATTDIA
 70
     0
  9
$ATTREQ
 70
     1
  9
$HANDLING
 70
     1
  9
$HANDSEED
  5
136
  9
$SURFTAB1
 70
     6
  9
$SURFTAB2
 70
     6
  9
$SURFTYPE
 70
     6
  9
$SURFU
 70
     6
  9
$SURFV
 70
     6
  9
$UCSNAME
  2

  9
$UCSORG
 10
0.0
 20
0.0
 30
0.0
  9
$UCSXDIR
 10
1.0
 20
0.0
 30
0.0
  9
$UCSYDIR
 10
0.0
 20
1.0
 30
0.0
  9
$PUCSNAME
  2

  9
$PUCSORG
 10
0.0
 20
0.0
 30
0.0
  9
$PUCSXDIR
 10
1.0
 20
0.0
 30
0.0
  9
$PUCSYDIR
 10
0.0
 20
1.0
 30
0.0
  9
$USERI1
 70
     0
  9
$USERI2
 70
     0
  9
$USERI3
 70
     0
  9
$USERI4
 70
     0
  9
$USERI5
 70
     0
  9
$USERR1
 40
0.0
  9
$USERR2
 40
0.0
  9
$USERR3
 40
0.0
  9
$USERR4
 40
0.0
  9
$USERR5
 40
0.0
  9
$WORLDVIEW
 70
     1
  9
$SHADEDGE
 70
     3
  9
$SHADEDIF
 70
    70
  9
$TILEMODE
 70
     1
  9
$MAXACTVP
 70
    64
  9
$PINSBASE
 10
0.0
 20
0.0
 30
0.0
  9
$PLIMCHECK
 70
     0
  9
$PEXTMIN
 10
0.0
 20
0.0
 30
0.0
  9
$PEXTMAX
 10
210.0
 20
297.0
 30
0.0
  9
$PLIMMIN
 10
0.0
 20
0.0
  9
$PLIMMAX
 10
12.0
 20
9.0
  9
$UNITMODE
 70
     0
  9
$VISRETAIN
 70
     1
  9
$PLINEGEN
 70
     0
  9
$PSLTSCALE
 70
     1
  9
$TREEDEPTH
 70
  3020
  9
$PICKSTYLE
 70
     1
  9
$CMLSTYLE
  2
STANDARD
  9
$CMLJUST
 70
     0
  9
$CMLSCALE
 40
1.0
  9
$SAVEIMAGES
 70
     1
  0
ENDSEC
  0
SECTION
  2
CLASSES
  0
CLASS
  1
ACDBDICTIONARYWDFLT
  2
AcDbDictionaryWithDefault
  3
ObjectDBX Classes
 90
        0
280
     0
281
     0
  0
CLASS
  1
TABLESTYLE
  2
AcDbTableStyle
  3
ObjectDBX Classes
 90
     2047
280
     0
281
     0
  0
CLASS
  1
DICTIONARYVAR
  2
AcDbDictionaryVar
  3
ObjectDBX Classes
 90
        0
280
     0
281
     0
  0
CLASS
  1
XRECORD
  2
AcDbXrecord
  3
AutoCAD 2000
 90
    32768
280
     0
281
     0
  0
CLASS
  1
LWPOLYLINE
  2
AcDbPolyline
  3
AutoCAD 2000
 90
    32768
280
     0
281
     1
  0
CLASS
  1
HATCH
  2
AcDbHatch
  3
AutoCAD 2000
 90
    32768
280
     0
281
     1
  0
CLASS
  1
ACDBPLACEHOLDER
  2
AcDbPlaceHolder
  3
ObjectDBX Classes
 90
        0
280
     0
281
     0
  0
CLASS
  1
LAYOUT
  2
AcDbLayout
  3
ObjectDBX Classes
 90
        0
280
     0
281
     0
  0
ENDSEC
  0
SECTION
  2
TABLES
  0
TABLE
  2
VPORT
  5
8
330
0
100
AcDbSymbolTable
 70
     2
  0
VPORT
  5
29
102
{ACAD_XDICTIONARY
360
134
102
}
330
8
100
AcDbSymbolTableRecord
100
AcDbViewportTableRecord
  2
*ACTIVE
 70
     0
 10
0.0
 20
0.0
 11
1.0
 21
1.0
 12
10.4299065421
 22
4.5
 13
0.0
 23
0.0
 14
0.5
 24
0.5
 15
0.5
 25
0.5
 16
0.0
 26
0.0
 36
1.0
 17
0.0
 27
0.0
 37
0.0
 40
9.0
 41
1.9729729729
 42
50.0
 43
0.0
 44
0.0
 50
0.0
 51
0.0
 71
     0
 72
   100
 73
     1
 74
     3
 75
     0
 76
     0
 77
     0
 78
     0
  0
ENDTAB
  0
TABLE
  2
LTYPE
  5
5
330
0
100
AcDbSymbolTable
 70
     2
  0
LTYPE
  5
14
330
5
100
AcDbSymbolTableRecord
100
AcDbLinetypeTableRecord
  2
BYBLOCK
 70
     0
  3

 72
    65
 73
     0
 40
0.0
  0
LTYPE
  5
15
330
5
100
AcDbSymbolTableRecord
100
AcDbLinetypeTableRecord
  2
BYLAYER
 70
     0
  3

 72
    65
 73
     0
 40
0.0
  0
LTYPE
  5
16
330
5
100
AcDbSymbolTableRecord
100
AcDbLinetypeTableRecord
  2
CONTINUOUS
 70
     0
  3
Solid line
 72
    65
 73
     0
 40
0.0
  0
LTYPE
  5
31
330
5
100
AcDbSymbolTableRecord
100
AcDbLinetypeTableRecord
  2
CENTER2
 70
     0
  3
___ _ ___ _ ___ _ ___ _ ___ _ ___ _ ___ _ ___ _
 72
    65
 73
     4
 40
1.125
 49
0.75
 74
     4
 75
     0
340
0
 46
0.0
 50
0.0
 44
0.0
 45
0.0
 49
-0.125
 74
     4
 75
     0
340
0
 46
0.0
 50
0.0
 44
0.0
 45
0.0
 49
0.125
 74
     4
 75
     0
340
0
 46
0.0
 50
0.0
 44
0.0
 45
0.0
 49
-0.125
 74
     4
 75
     0
340
0
 46
0.0
 50
0.0
 44
0.0
 45
0.0
  0
ENDTAB
  0
TABLE
  2
LAYER
  5
2
330
0
100
AcDbSymbolTable
 70
     4
  0
LAYER
  5
10
330
2
100
AcDbSymbolTableRecord
100
AcDbLayerTableRecord
  2
0
 70
     0
 62
     7
  6
CONTINUOUS
  0
LAYER
  5
30
330
2
100
AcDbSymbolTableRecord
100
AcDbLayerTableRecord
  2
DEFAULT
 70
     0
 62
     7
  6
CONTINUOUS
  0
LAYER
  5
44
330
2
100
AcDbSymbolTableRecord
100
AcDbLayerTableRecord
  2
MEGA_001854
 70
     0
 62
     7
  6
CONTINUOUS
  0
LAYER
  5
57
330
2
100
AcDbSymbolTableRecord
100
AcDbLayerTableRecord
  2
STANDARD
 70
     0
 62
     7
  6
CONTINUOUS
  0
ENDTAB
  0
TABLE
  2
STYLE
  5
3
330
0
100
AcDbSymbolTable
 70
     2
  0
STYLE
  5
11
330
3
100
AcDbSymbolTableRecord
100
AcDbTextStyleTableRecord
  2
STANDARD
 70
     0
 40
0.0
 41
1.0
 50
0.0
 71
     0
 42
0.2
  3
txt
  4

  0
STYLE
  5
77
330
3
100
AcDbSymbolTableRecord
100
AcDbTextStyleTableRecord
  2
SEACAD_SEISO_TTF
 70
     0
 40
0.2
 41
1.0
 50
0.0
 71
     0
 42
0.2
  3
seiso.ttf
  4

  0
ENDTAB
  0
TABLE
  2
VIEW
  5
6
330
0
100
AcDbSymbolTable
 70
     0
  0
ENDTAB
  0
TABLE
  2
UCS
  5
7
330
0
100
AcDbSymbolTable
 70
     0
  0
ENDTAB
  0
TABLE
  2
APPID
  5
9
330
0
100
AcDbSymbolTable
 70
     1
  0
APPID
  5
12
330
9
100
AcDbSymbolTableRecord
100
AcDbRegAppTableRecord
  2
ACAD
 70
     0
  0
ENDTAB
  0
TABLE
  2
DIMSTYLE
  5
A
330
0
100
AcDbSymbolTable
 70
     1
  0
DIMSTYLE
105
27
330
A
100
AcDbSymbolTableRecord
100
AcDbDimStyleTableRecord
  2
STANDARD
 70
     0
  3

  4

  5

  6

  7

 40
1.0
 41
0.18
 42
0.0625
 43
0.38
 44
0.18
 45
0.0
 46
0.0
 47
0.0
 48
0.0
140
0.18
141
0.09
142
0.0
143
25.4
144
1.0
145
0.0
146
1.0
147
0.09
 71
     0
 72
     0
 73
     1
 74
     1
 75
     0
 76
     0
 77
     0
 78
     0
170
     0
171
     2
172
     0
173
     0
174
     0
175
     0
176
     0
177
     0
178
     0
270
     2
271
     4
272
     4
273
     2
274
     2
340
11
275
     0
280
     0
281
     0
282
     0
283
     1
284
     0
285
     0
286
     0
287
     3
288
     0
  0
ENDTAB
  0
TABLE
  2
BLOCK_RECORD
  5
1
330
0
100
AcDbSymbolTable
 70
    16
  0
BLOCK_RECORD
  5
1F
330
1
100
AcDbSymbolTableRecord
100
AcDbBlockTableRecord
  2
*MODEL_SPACE
  0
BLOCK_RECORD
  5
1B
330
1
100
AcDbSymbolTableRecord
100
AcDbBlockTableRecord
  2
*PAPER_SPACE
  0
BLOCK_RECORD
  5
2E
330
1
100
AcDbSymbolTableRecord
100
AcDbBlockTableRecord
  2
SE
  0
BLOCK_RECORD
  5
36
330
1
100
AcDbSymbolTableRecord
100
AcDbBlockTableRecord
  2
SE1
  0
BLOCK_RECORD
  5
3C
330
1
100
AcDbSymbolTableRecord
100
AcDbBlockTableRecord
  2
SE2
  0
BLOCK_RECORD
  5
42
330
1
100
AcDbSymbolTableRecord
100
AcDbBlockTableRecord
  2
SE3
  0
BLOCK_RECORD
  5
5D
330
1
100
AcDbSymbolTableRecord
100
AcDbBlockTableRecord
  2
SE4
  0
BLOCK_RECORD
  5
71
330
1
100
AcDbSymbolTableRecord
100
AcDbBlockTableRecord
  2
SE5
  0
BLOCK_RECORD
  5
7B
330
1
100
AcDbSymbolTableRecord
100
AcDbBlockTableRecord
  2
SE6
  0
BLOCK_RECORD
  5
85
330
1
100
AcDbSymbolTableRecord
100
AcDbBlockTableRecord
  2
SE7
  0
BLOCK_RECORD
  5
8F
330
1
100
AcDbSymbolTableRecord
100
AcDbBlockTableRecord
  2
SE8
  0
BLOCK_RECORD
  5
99
330
1
100
AcDbSymbolTableRecord
100
AcDbBlockTableRecord
  2
SE9
  0
BLOCK_RECORD
  5
A3
330
1
100
AcDbSymbolTableRecord
100
AcDbBlockTableRecord
  2
SE10
  0
BLOCK_RECORD
  5
AD
330
1
100
AcDbSymbolTableRecord
100
AcDbBlockTableRecord
  2
SE11
  0
BLOCK_RECORD
  5
B7
330
1
100
AcDbSymbolTableRecord
100
AcDbBlockTableRecord
  2
SE12
  0
BLOCK_RECORD
  5
C1
330
1
100
AcDbSymbolTableRecord
100
AcDbBlockTableRecord
  2
SE13
  0
BLOCK_RECORD
  5
CB
330
1
100
AcDbSymbolTableRecord
100
AcDbBlockTableRecord
  2
SE14
  0
ENDTAB
  0
ENDSEC
  0
SECTION
  2
BLOCKS
  0
BLOCK
  5
20
330
1F
100
AcDbEntity
  8
0
100
AcDbBlockBegin
  2
*MODEL_SPACE
 70
     0
 71
     0
 10
0.0
 20
0.0
 30
0.0
  3
*MODEL_SPACE
  1

  0
ENDBLK
  5
21
330
1F
100
AcDbEntity
  8
0
100
AcDbBlockEnd
  0
BLOCK
  5
1C
330
1B
100
AcDbEntity
 67
     1
  8
0
100
AcDbBlockBegin
  2
*PAPER_SPACE
 70
     0
 71
     0
 10
0.0
 20
0.0
 30
0.0
  3
*PAPER_SPACE
  1

  0
ENDBLK
  5
1D
330
1B
100
AcDbEntity
 67
     1
  8
0
100
AcDbBlockEnd
  0
BLOCK
  5
34
330
2E
100
AcDbEntity
  8
0
100
AcDbBlockBegin
  2
SE
 70
     0
 71
     0
 10
0.0
 20
0.0
 30
0.0
  3
SE
  1

  0
LINE
  5
32
330
2E
100
AcDbEntity
  8
DEFAULT
  6
CENTER2
 62
     7
 48
25.4
100
AcDbLine
 10
77.9834207532
 20
247.707503371
 30
0.0
 11
65.9834206489
 21
247.707503371
 31
0.0
  0
LINE
  5
33
330
2E
100
AcDbEntity
  8
DEFAULT
  6
CENTER2
 62
     7
 48
25.4
100
AcDbLine
 10
71.983420701
 20
253.7075034231
 30
0.0
 11
71.983420701
 21
241.7075033188
 31
0.0
  0
ENDBLK
  5
35
330
2E
100
AcDbEntity
  8
0
100
AcDbBlockEnd
  0
BLOCK
  5
3A
330
36
100
AcDbEntity
  8
0
100
AcDbBlockBegin
  2
SE1
 70
     0
 71
     0
 10
0.0
 20
0.0
 30
0.0
  3
SE1
  1

  0
LINE
  5
38
330
36
100
AcDbEntity
  8
DEFAULT
  6
CENTER2
 62
     7
 48
25.4
100
AcDbLine
 10
77.9834207532
 20
29.707503371
 30
0.0
 11
65.9834206489
 21
29.707503371
 31
0.0
  0
LINE
  5
39
330
36
100
AcDbEntity
  8
DEFAULT
  6
CENTER2
 62
     7
 48
25.4
100
AcDbLine
 10
71.983420701
 20
35.7075034231
 30
0.0
 11
71.983420701
 21
23.7075033188
 31
0.0
  0
ENDBLK
  5
3B
330
36
100
AcDbEntity
  8
0
100
AcDbBlockEnd
  0
BLOCK
  5
40
330
3C
100
AcDbEntity
  8
0
100
AcDbBlockBegin
  2
SE2
 70
     0
 71
     0
 10
0.0
 20
0.0
 30
0.0
  3
SE2
  1

  0
LINE
  5
3E
330
3C
100
AcDbEntity
  8
DEFAULT
  6
CENTER2
 62
     7
 48
25.4
100
AcDbLine
 10
105.9834207532
 20
29.707503371
 30
0.0
 11
93.9834206489
 21
29.707503371
 31
0.0
  0
LINE
  5
3F
330
3C
100
AcDbEntity
  8
DEFAULT
  6
CENTER2
 62
     7
 48
25.4
100
AcDbLine
 10
99.983420701
 20
35.7075034231
 30
0.0
 11
99.983420701
 21
23.7075033188
 31
0.0
  0
ENDBLK
  5
41
330
3C
100
AcDbEntity
  8
0
100
AcDbBlockEnd
  0
BLOCK
  5
5B
330
42
100
AcDbEntity
  8
0
100
AcDbBlockBegin
  2
SE3
 70
     0
 71
     0
 10
0.0
 20
0.0
 30
0.0
  3
SE3
  1

  0
CIRCLE
  5
45
330
42
100
AcDbEntity
  8
MEGA_001854
  6
CONTINUOUS
 62
     7
 48
25.4
100
AcDbCircle
 10
85.983420701
 20
173.707503371
 30
0.0
 40
9.049999999999997
  0
ELLIPSE
  5
46
330
42
100
AcDbEntity
  8
MEGA_001854
  6
CONTINUOUS
 62
     7
 48
25.4
100
AcDbEllipse
 10
103.9371408654
 20
252.6612235353
 30
0.0
 11
-2.186280136929363
 21
-2.186280136929363
 31
0.0
210
0.0
220
0.0
230
1.0
 40
0.9702875252
 41
2.371273620688828
 42
3.911911686490754
  0
ELLIPSE
  5
47
330
42
100
AcDbEntity
  8
MEGA_001854
  6
CONTINUOUS
 62
     7
 48
25.4
100
AcDbEllipse
 10
103.9371408654
 20
24.7537832066
 30
0.0
 11
-2.186280136929363
 21
2.186280136929361
 31
0.0
210
0.0
220
0.0
230
1.0
 40
0.9702875252
 41
2.371273620688822
 42
3.911911686490752
  0
ELLIPSE
  5
48
330
42
100
AcDbEntity
  8
MEGA_001854
  6
CONTINUOUS
 62
     7
 48
25.4
100
AcDbEllipse
 10
68.0297005367
 20
252.6612235353
 30
0.0
 11
2.186280136929363
 21
-2.186280136929363
 31
0.0
210
0.0
220
0.0
230
1.0
 40
0.9702875252
 41
2.371273620688842
 42
3.911911686490777
  0
ELLIPSE
  5
49
330
42
100
AcDbEntity
  8
MEGA_001854
  6
CONTINUOUS
 62
     7
 48
25.4
100
AcDbEllipse
 10
68.0297005367
 20
24.7537832066
 30
0.0
 11
2.186280136929361
 21
2.186280136929365
 31
0.0
210
0.0
220
0.0
230
1.0
 40
0.9702875252
 41
2.371273620688815
 42
3.911911686490763
  0
CIRCLE
  5
4A
330
42
100
AcDbEntity
  8
MEGA_001854
  6
CONTINUOUS
 62
     7
 48
25.4
100
AcDbCircle
 10
71.983420701
 20
247.707503371
 30
0.0
 40
3.599999999999994
  0
CIRCLE
  5
4B
330
42
100
AcDbEntity
  8
MEGA_001854
  6
CONTINUOUS
 62
     7
 48
25.4
100
AcDbCircle
 10
85.983420701
 20
173.707503371
 30
0.0
 40
9.549999999999985
  0
CIRCLE
  5
4C
330
42
100
AcDbEntity
  8
MEGA_001854
  6
CONTINUOUS
 62
     7
 48
25.4
100
AcDbCircle
 10
99.983420701
 20
29.707503371
 30
0.0
 40
2.0
  0
CIRCLE
  5
4D
330
42
100
AcDbEntity
  8
MEGA_001854
  6
CONTINUOUS
 62
     7
 48
25.4
100
AcDbCircle
 10
71.983420701
 20
247.707503371
 30
0.0
 40
2.0
  0
CIRCLE
  5
4E
330
42
100
AcDbEntity
  8
MEGA_001854
  6
CONTINUOUS
 62
     7
 48
25.4
100
AcDbCircle
 10
71.983420701
 20
29.707503371
 30
0.0
 40
2.0
  0
CIRCLE
  5
4F
330
42
100
AcDbEntity
  8
MEGA_001854
  6
CONTINUOUS
 62
     7
 48
25.4
100
AcDbCircle
 10
99.983420701
 20
29.707503371
 30
0.0
 40
3.599999999999981
  0
CIRCLE
  5
50
330
42
100
AcDbEntity
  8
MEGA_001854
  6
CONTINUOUS
 62
     7
 48
25.4
100
AcDbCircle
 10
71.983420701
 20
29.707503371
 30
0.0
 40
3.599999999999981
  0
CIRCLE
  5
51
330
42
100
AcDbEntity
  8
MEGA_001854
  6
CONTINUOUS
 62
     7
 48
25.4
100
AcDbCircle
 10
99.983420701
 20
247.707503371
 30
0.0
 40
3.599999999999994
  0
LINE
  5
52
330
42
100
AcDbEntity
  8
MEGA_001854
  6
CONTINUOUS
 62
     7
 48
25.4
100
AcDbLine
 10
106.983420701
 20
252.753080112
 30
0.0
 11
106.983420701
 21
24.66192663
 31
0.0
  0
LINE
  5
53
330
42
100
AcDbEntity
  8
MEGA_001854
  6
CONTINUOUS
 62
     7
 48
25.4
100
AcDbLine
 10
67.93784396
 20
255.707503371
 30
0.0
 11
104.028997442
 21
255.707503371
 31
0.0
  0
LINE
  5
54
330
42
100
AcDbEntity
  8
MEGA_001854
  6
CONTINUOUS
 62
     7
 48
25.4
100
AcDbLine
 10
64.983420701
 20
24.66192663
 30
0.0
 11
64.983420701
 21
252.753080112
 31
0.0
  0
LINE
  5
55
330
42
100
AcDbEntity
  8
MEGA_001854
  6
CONTINUOUS
 62
     7
 48
25.4
100
AcDbLine
 10
104.028997442
 20
21.707503371
 30
0.0
 11
67.9378439601
 21
21.707503371
 31
0.0
  0
CIRCLE
  5
56
330
42
100
AcDbEntity
  8
MEGA_001854
  6
CONTINUOUS
 62
     7
 48
25.4
100
AcDbCircle
 10
99.983420701
 20
247.707503371
 30
0.0
 40
2.0
  0
LINE
  5
58
330
42
100
AcDbEntity
  8
STANDARD
  6
CENTER2
 62
     7
 48
25.4
100
AcDbLine
 10
85.983420701
 20
255.707503371
 30
0.0
 11
85.983420701
 21
21.707503371
 31
0.0
  0
LINE
  5
59
330
42
100
AcDbEntity
  8
STANDARD
  6
CENTER2
 62
     7
 48
25.4
100
AcDbLine
 10
85.983420701
 20
255.707503371
 30
0.0
 11
85.9969975255
 21
260.5324564857
 31
0.0
  0
LINE
  5
5A
330
42
100
AcDbEntity
  8
STANDARD
  6
CENTER2
 62
     7
 48
25.4
100
AcDbLine
 10
85.983420701
 20
21.707503371
 30
0.0
 11
85.983420701
 21
17.2374464374
 31
0.0
  0
ENDBLK
  5
5C
330
42
100
AcDbEntity
  8
0
100
AcDbBlockEnd
  0
BLOCK
  5
6F
330
5D
100
AcDbEntity
  8
0
100
AcDbBlockBegin
  2
SE4
 70
     0
 71
     0
 10
0.0
 20
0.0
 30
0.0
  3
SE4
  1

  0
ARC
  5
5F
330
5D
100
AcDbEntity
  8
MEGA_001854
  6
CONTINUOUS
 62
     7
 48
25.4
100
AcDbCircle
 10
148.3497704499
 20
163.1819856543
 30
0.0
 40
0.5
100
AcDbArc
 50
180.0
 51
267.0
  0
LINE
  5
60
330
5D
100
AcDbEntity
  8
MEGA_001854
  6
CONTINUOUS
 62
     7
 48
25.4
100
AcDbLine
 10
152.1497704499
 20
184.9328568219
 30
0.0
 11
148.3236024718
 21
184.732335855
 31
0.0
  0
LINE
  5
61
330
5D
100
AcDbEntity
  8
MEGA_001854
  6
CONTINUOUS
 62
     7
 48
25.4
100
AcDbLine
 10
152.1497704499
 20
255.707503371
 30
0.0
 11
156.316830672
 21
254.9727382236
 31
0.0
  0
LINE
  5
62
330
5D
100
AcDbEntity
  8
MEGA_001854
  6
CONTINUOUS
 62
     7
 48
25.4
100
AcDbLine
 10
152.1497704499
 20
252.753080112
 30
0.0
 11
152.1497704499
 21
255.707503371
 31
0.0
  0
LINE
  5
63
330
5D
100
AcDbEntity
  8
MEGA_001854
  6
CONTINUOUS
 62
     7
 48
25.4
100
AcDbLine
 10
152.1497704499
 20
21.707503371
 30
0.0
 11
152.1497704499
 21
24.66192663
 31
0.0
  0
LINE
  5
64
330
5D
100
AcDbEntity
  8
MEGA_001854
  6
CONTINUOUS
 62
     7
 48
25.4
100
AcDbLine
 10
156.316830672
 20
22.4422685184
 30
0.0
 11
152.1497704499
 21
21.707503371
 31
0.0
  0
LINE
  5
65
330
5D
100
AcDbEntity
  8
MEGA_001854
  6
CONTINUOUS
 62
     7
 48
25.4
100
AcDbLine
 10
147.8497704499
 20
184.2330210876
 30
0.0
 11
147.8497704499
 21
163.1819856543
 31
0.0
  0
LINE
  5
66
330
5D
100
AcDbEntity
  8
MEGA_001854
  6
CONTINUOUS
 62
     7
 48
25.4
100
AcDbLine
 10
157.3497704499
 20
253.7417285323
 30
0.0
 11
157.3497704499
 21
252.0183149646
 31
0.0
  0
LINE
  5
67
330
5D
100
AcDbEntity
  8
MEGA_001854
  6
CONTINUOUS
 62
     7
 48
25.4
100
AcDbLine
 10
157.3497704499
 20
25.3966917774
 30
0.0
 11
157.3497704499
 21
23.6732782096
 31
0.0
  0
LINE
  5
68
330
5D
100
AcDbEntity
  8
MEGA_001854
  6
CONTINUOUS
 62
     7
 48
25.4
100
AcDbLine
 10
157.3497704499
 20
252.0183149646
 30
0.0
 11
157.3497704499
 21
25.3966917774
 31
0.0
  0
ARC
  5
69
330
5D
100
AcDbEntity
  8
MEGA_001854
  6
CONTINUOUS
 62
     7
 48
25.4
100
AcDbCircle
 10
148.3497704499
 20
184.2330210876
 30
0.0
 40
0.5
100
AcDbArc
 50
93.0
 51
180.0
  0
LINE
  5
6A
330
5D
100
AcDbEntity
  8
MEGA_001854
  6
CONTINUOUS
 62
     7
 48
25.4
100
AcDbLine
 10
148.3236024718
 20
162.682670887
 30
0.0
 11
152.1497704499
 21
162.4821499201
 31
0.0
  0
ARC
  5
6B
330
5D
100
AcDbEntity
  8
MEGA_001854
  6
CONTINUOUS
 62
     7
 48
25.4
100
AcDbCircle
 10
156.0997704499
 20
23.6732782096
 30
0.0
 40
1.25
100
AcDbArc
 50
280.0
 51
360.0
  0
LINE
  5
6C
330
5D
100
AcDbEntity
  8
MEGA_001854
  6
CONTINUOUS
 62
     7
 48
25.4
100
AcDbLine
 10
152.1497704499
 20
24.66192663
 30
0.0
 11
152.1497704499
 21
252.753080112
 31
0.0
  0
ARC
  5
6D
330
5D
100
AcDbEntity
  8
MEGA_001854
  6
CONTINUOUS
 62
     7
 48
25.4
100
AcDbCircle
 10
156.0997704499
 20
253.7417285323
 30
0.0
 40
1.25
100
AcDbArc
 50
0.0
 51
80.0
  0
LINE
  5
6E
330
5D
100
AcDbEntity
  8
STANDARD
  6
CENTER2
 62
     7
 48
25.4
100
AcDbLine
 10
147.8497704499
 20
173.707503371
 30
0.0
 11
157.3497704499
 21
173.707503371
 31
0.0
  0
ENDBLK
  5
70
330
5D
100
AcDbEntity
  8
0
100
AcDbBlockEnd
  0
BLOCK
  5
79
330
71
100
AcDbEntity
  8
0
100
AcDbBlockBegin
  2
SE5
 70
     0
 71
     0
 10
0.0
 20
0.0
 30
0.0
  3
SE5
  1

  0
POLYLINE
  5
73
330
71
100
AcDbEntity
  8
DEFAULT
  6
CONTINUOUS
 62
     7
 48
25.4
100
AcDb2dPolyline
 66
     1
 10
0.0
 20
0.0
 30
0.0
 70
     1
  0
VERTEX
  5
D6
330
73
100
AcDbEntity
  8
DEFAULT
  6
CONTINUOUS
 62
     7
100
AcDbVertex
100
AcDb2dVertex
 10
32.4356072215
 20
24.7075033971
 30
0.0
  0
VERTEX
  5
D7
330
73
100
AcDbEntity
  8
DEFAULT
  6
CONTINUOUS
 62
     7
100
AcDbVertex
100
AcDb2dVertex
 10
32.9356072259
 20
21.707503371
 30
0.0
  0
VERTEX
  5
D8
330
73
100
AcDbEntity
  8
DEFAULT
  6
CONTINUOUS
 62
     7
100
AcDbVertex
100
AcDb2dVertex
 10
33.4356072302
 20
24.7075033971
 30
0.0
  0
VERTEX
  5
D9
330
73
100
AcDbEntity
  8
DEFAULT
  6
CONTINUOUS
 62
     7
100
AcDbVertex
100
AcDb2dVertex
 10
32.4356072215
 20
24.7075033971
 30
0.0
  0
SEQEND
  5
D5
330
73
100
AcDbEntity
  8
DEFAULT
  6
CONTINUOUS
 62
     7
 48
25.4
  0
LINE
  5
74
330
71
100
AcDbEntity
  8
DEFAULT
  6
CONTINUOUS
 62
     7
 48
25.4
100
AcDbLine
 10
85.983420701
 20
255.707503371
 30
0.0
 11
31.4356072128
 21
255.707503371
 31
0.0
  0
LINE
  5
75
330
71
100
AcDbEntity
  8
DEFAULT
  6
CONTINUOUS
 62
     7
 48
25.4
100
AcDbLine
 10
85.983420701
 20
21.707503371
 30
0.0
 11
31.4356072128
 21
21.707503371
 31
0.0
  0
LINE
  5
76
330
71
100
AcDbEntity
  8
DEFAULT
  6
CONTINUOUS
 62
     7
 48
25.4
100
AcDbLine
 10
32.9356072259
 20
255.707503371
 30
0.0
 11
32.9356072259
 21
21.7075059936
 31
0.0
  0
TEXT
  5
78
330
71
100
AcDbEntity
  8
DEFAULT
  6
CONTINUOUS
 62
     7
 48
25.4
100
AcDbText
 10
32.1856072259
 20
136.1165955914
 30
0.0
 40
3.0
  1
234
 50
90.0
  7
SEACAD_SEISO_TTF
 11
29.1856072259
 21
136.1165955914
 31
0.0
100
AcDbText
 73
     3
  0
ENDBLK
  5
7A
330
71
100
AcDbEntity
  8
0
100
AcDbBlockEnd
  0
BLOCK
  5
83
330
7B
100
AcDbEntity
  8
0
100
AcDbBlockBegin
  2
SE6
 70
     0
 71
     0
 10
0.0
 20
0.0
 30
0.0
  3
SE6
  1

  0
POLYLINE
  5
7D
330
7B
100
AcDbEntity
  8
DEFAULT
  6
CONTINUOUS
 62
     7
 48
25.4
100
AcDb2dPolyline
 66
     1
 10
0.0
 20
0.0
 30
0.0
 70
     1
  0
VERTEX
  5
DB
330
7D
100
AcDbEntity
  8
DEFAULT
  6
CONTINUOUS
 62
     7
100
AcDbVertex
100
AcDb2dVertex
 10
123.671578409
 20
167.6575050445
 30
0.0
  0
VERTEX
  5
DC
330
7D
100
AcDbEntity
  8
DEFAULT
  6
CONTINUOUS
 62
     7
100
AcDbVertex
100
AcDb2dVertex
 10
123.1715785358
 20
164.6575049965
 30
0.0
  0
VERTEX
  5
DD
330
7D
100
AcDbEntity
  8
DEFAULT
  6
CONTINUOUS
 62
     7
100
AcDbVertex
100
AcDb2dVertex
 10
122.6715784004
 20
167.6575050008
 30
0.0
  0
VERTEX
  5
DE
330
7D
100
AcDbEntity
  8
DEFAULT
  6
CONTINUOUS
 62
     7
100
AcDbVertex
100
AcDb2dVertex
 10
123.671578409
 20
167.6575050445
 30
0.0
  0
SEQEND
  5
DA
330
7D
100
AcDbEntity
  8
DEFAULT
  6
CONTINUOUS
 62
     7
 48
25.4
  0
POLYLINE
  5
7E
330
7B
100
AcDbEntity
  8
DEFAULT
  6
CONTINUOUS
 62
     7
 48
25.4
100
AcDb2dPolyline
 66
     1
 10
0.0
 20
0.0
 30
0.0
 70
     1
  0
VERTEX
  5
E0
330
7E
100
AcDbEntity
  8
DEFAULT
  6
CONTINUOUS
 62
     7
100
AcDbVertex
100
AcDb2dVertex
 10
123.6715778801
 20
179.7575049923
 30
0.0
  0
VERTEX
  5
E1
330
7E
100
AcDbEntity
  8
DEFAULT
  6
CONTINUOUS
 62
     7
100
AcDbVertex
100
AcDb2dVertex
 10
123.1715777447
 20
182.7575049965
 30
0.0
  0
VERTEX
  5
E2
330
7E
100
AcDbEntity
  8
DEFAULT
  6
CONTINUOUS
 62
     7
100
AcDbVertex
100
AcDb2dVertex
 10
122.6715778714
 20
179.7575049486
 30
0.0
  0
VERTEX
  5
E3
330
7E
100
AcDbEntity
  8
DEFAULT
  6
CONTINUOUS
 62
     7
100
AcDbVertex
100
AcDb2dVertex
 10
123.6715778801
 20
179.7575049923
 30
0.0
  0
SEQEND
  5
DF
330
7E
100
AcDbEntity
  8
DEFAULT
  6
CONTINUOUS
 62
     7
 48
25.4
  0
LINE
  5
7F
330
7B
100
AcDbEntity
  8
DEFAULT
  6
CONTINUOUS
 62
     7
 48
25.4
100
AcDbLine
 10
85.9834210966
 20
164.657503371
 30
0.0
 11
124.6715785489
 21
164.6575050621
 31
0.0
  0
LINE
  5
80
330
7B
100
AcDbEntity
  8
DEFAULT
  6
CONTINUOUS
 62
     7
 48
25.4
100
AcDbLine
 10
85.9834203054
 20
182.757503371
 30
0.0
 11
124.6715777577
 21
182.7575050621
 31
0.0
  0
LINE
  5
81
330
7B
100
AcDbEntity
  8
DEFAULT
  6
CONTINUOUS
 62
     7
 48
25.4
100
AcDbLine
 10
123.1715785358
 20
164.6575049965
 30
0.0
 11
123.1715777447
 21
182.7575059144
 31
0.0
  0
TEXT
  5
82
330
7B
100
AcDbEntity
  8
DEFAULT
  6
CONTINUOUS
 62
     7
 48
25.4
100
AcDbText
 10
122.4215781402
 20
169.9097781828
 30
0.0
 40
3.0
  1
16/18
 50
90.0
  7
SEACAD_SEISO_TTF
 11
119.4215781402
 21
169.9097781828
 31
0.0
100
AcDbText
 73
     3
  0
ENDBLK
  5
84
330
7B
100
AcDbEntity
  8
0
100
AcDbBlockEnd
  0
BLOCK
  5
8D
330
85
100
AcDbEntity
  8
0
100
AcDbBlockBegin
  2
SE7
 70
     0
 71
     0
 10
0.0
 20
0.0
 30
0.0
  3
SE7
  1

  0
POLYLINE
  5
87
330
85
100
AcDbEntity
  8
DEFAULT
  6
CONTINUOUS
 62
     7
 48
25.4
100
AcDb2dPolyline
 66
     1
 10
0.0
 20
0.0
 30
0.0
 70
     1
  0
VERTEX
  5
E5
330
87
100
AcDbEntity
  8
DEFAULT
  6
CONTINUOUS
 62
     7
100
AcDbVertex
100
AcDb2dVertex
 10
122.577808485
 20
24.7075043325
 30
0.0
  0
VERTEX
  5
E6
330
87
100
AcDbEntity
  8
DEFAULT
  6
CONTINUOUS
 62
     7
100
AcDbVertex
100
AcDb2dVertex
 10
122.0778083495
 20
27.7075043368
 30
0.0
  0
VERTEX
  5
E7
330
87
100
AcDbEntity
  8
DEFAULT
  6
CONTINUOUS
 62
     7
100
AcDbVertex
100
AcDb2dVertex
 10
121.5778084763
 20
24.7075042888
 30
0.0
  0
VERTEX
  5
E8
330
87
100
AcDbEntity
  8
DEFAULT
  6
CONTINUOUS
 62
     7
100
AcDbVertex
100
AcDb2dVertex
 10
122.577808485
 20
24.7075043325
 30
0.0
  0
SEQEND
  5
E4
330
87
100
AcDbEntity
  8
DEFAULT
  6
CONTINUOUS
 62
     7
 48
25.4
  0
POLYLINE
  5
88
330
85
100
AcDbEntity
  8
DEFAULT
  6
CONTINUOUS
 62
     7
 48
25.4
100
AcDb2dPolyline
 66
     1
 10
0.0
 20
0.0
 30
0.0
 70
     1
  0
VERTEX
  5
EA
330
88
100
AcDbEntity
  8
DEFAULT
  6
CONTINUOUS
 62
     7
100
AcDbVertex
100
AcDb2dVertex
 10
122.5778080479
 20
34.7075043847
 30
0.0
  0
VERTEX
  5
EB
330
88
100
AcDbEntity
  8
DEFAULT
  6
CONTINUOUS
 62
     7
100
AcDbVertex
100
AcDb2dVertex
 10
122.0778081747
 20
31.7075043368
 30
0.0
  0
VERTEX
  5
EC
330
88
100
AcDbEntity
  8
DEFAULT
  6
CONTINUOUS
 62
     7
100
AcDbVertex
100
AcDb2dVertex
 10
121.5778080392
 20
34.707504341
 30
0.0
  0
VERTEX
  5
ED
330
88
100
AcDbEntity
  8
DEFAULT
  6
CONTINUOUS
 62
     7
100
AcDbVertex
100
AcDb2dVertex
 10
122.5778080479
 20
34.7075043847
 30
0.0
  0
SEQEND
  5
E9
330
88
100
AcDbEntity
  8
DEFAULT
  6
CONTINUOUS
 62
     7
 48
25.4
  0
LINE
  5
89
330
85
100
AcDbEntity
  8
DEFAULT
  6
CONTINUOUS
 62
     7
 48
25.4
100
AcDbLine
 10
99.9834207884
 20
27.707503371
 30
0.0
 11
123.5778083626
 21
27.7075044023
 31
0.0
  0
LINE
  5
8A
330
85
100
AcDbEntity
  8
DEFAULT
  6
CONTINUOUS
 62
     7
 48
25.4
100
AcDbLine
 10
99.9834206136
 20
31.707503371
 30
0.0
 11
123.5778081877
 21
31.7075044023
 31
0.0
  0
LINE
  5
8B
330
85
100
AcDbEntity
  8
DEFAULT
  6
CONTINUOUS
 62
     7
 48
25.4
100
AcDbLine
 10
122.0778086118
 20
21.7075042846
 30
0.0
 11
122.0778079124
 21
37.7075041132
 31
0.0
  0
TEXT
  5
8C
330
85
100
AcDbEntity
  8
DEFAULT
  6
CONTINUOUS
 62
     7
 48
25.4
100
AcDbText
 10
121.3278082621
 20
28.8211407954
 30
0.0
 40
3.0
  1
4
 50
90.0
  7
SEACAD_SEISO_TTF
 11
118.3278082621
 21
28.8211407954
 31
0.0
100
AcDbText
 73
     3
  0
ENDBLK
  5
8E
330
85
100
AcDbEntity
  8
0
100
AcDbBlockEnd
  0
BLOCK
  5
97
330
8F
100
AcDbEntity
  8
0
100
AcDbBlockBegin
  2
SE8
 70
     0
 71
     0
 10
0.0
 20
0.0
 30
0.0
  3
SE8
  1

  0
POLYLINE
  5
91
330
8F
100
AcDbEntity
  8
DEFAULT
  6
CONTINUOUS
 62
     7
 48
25.4
100
AcDb2dPolyline
 66
     1
 10
0.0
 20
0.0
 30
0.0
 70
     1
  0
VERTEX
  5
EF
330
91
100
AcDbEntity
  8
DEFAULT
  6
CONTINUOUS
 62
     7
100
AcDbVertex
100
AcDb2dVertex
 10
41.7326465813
 20
176.7075033971
 30
0.0
  0
VERTEX
  5
F0
330
91
100
AcDbEntity
  8
DEFAULT
  6
CONTINUOUS
 62
     7
100
AcDbVertex
100
AcDb2dVertex
 10
42.2326465857
 20
173.707503371
 30
0.0
  0
VERTEX
  5
F1
330
91
100
AcDbEntity
  8
DEFAULT
  6
CONTINUOUS
 62
     7
100
AcDbVertex
100
AcDb2dVertex
 10
42.73264659
 20
176.7075033971
 30
0.0
  0
VERTEX
  5
F2
330
91
100
AcDbEntity
  8
DEFAULT
  6
CONTINUOUS
 62
     7
100
AcDbVertex
100
AcDb2dVertex
 10
41.7326465813
 20
176.7075033971
 30
0.0
  0
SEQEND
  5
EE
330
91
100
AcDbEntity
  8
DEFAULT
  6
CONTINUOUS
 62
     7
 48
25.4
  0
POLYLINE
  5
92
330
8F
100
AcDbEntity
  8
DEFAULT
  6
CONTINUOUS
 62
     7
 48
25.4
100
AcDb2dPolyline
 66
     1
 10
0.0
 20
0.0
 30
0.0
 70
     1
  0
VERTEX
  5
F4
330
92
100
AcDbEntity
  8
DEFAULT
  6
CONTINUOUS
 62
     7
100
AcDbVertex
100
AcDb2dVertex
 10
41.7326465813
 20
252.7075033449
 30
0.0
  0
VERTEX
  5
F5
330
92
100
AcDbEntity
  8
DEFAULT
  6
CONTINUOUS
 62
     7
100
AcDbVertex
100
AcDb2dVertex
 10
42.2326465857
 20
255.707503371
 30
0.0
  0
VERTEX
  5
F6
330
92
100
AcDbEntity
  8
DEFAULT
  6
CONTINUOUS
 62
     7
100
AcDbVertex
100
AcDb2dVertex
 10
42.73264659
 20
252.7075033449
 30
0.0
  0
VERTEX
  5
F7
330
92
100
AcDbEntity
  8
DEFAULT
  6
CONTINUOUS
 62
     7
100
AcDbVertex
100
AcDb2dVertex
 10
41.7326465813
 20
252.7075033449
 30
0.0
  0
SEQEND
  5
F3
330
92
100
AcDbEntity
  8
DEFAULT
  6
CONTINUOUS
 62
     7
 48
25.4
  0
LINE
  5
93
330
8F
100
AcDbEntity
  8
DEFAULT
  6
CONTINUOUS
 62
     7
 48
25.4
100
AcDbLine
 10
85.983420701
 20
173.707503371
 30
0.0
 11
40.7326465727
 21
173.707503371
 31
0.0
  0
LINE
  5
94
330
8F
100
AcDbEntity
  8
DEFAULT
  6
CONTINUOUS
 62
     7
 48
25.4
100
AcDbLine
 10
67.93784396
 20
255.707503371
 30
0.0
 11
40.7326465727
 21
255.707503371
 31
0.0
  0
LINE
  5
95
330
8F
100
AcDbEntity
  8
DEFAULT
  6
CONTINUOUS
 62
     7
 48
25.4
100
AcDbLine
 10
42.2326465857
 20
173.707503371
 30
0.0
 11
42.2326465857
 21
255.707505636
 31
0.0
  0
TEXT
  5
96
330
8F
100
AcDbEntity
  8
DEFAULT
  6
CONTINUOUS
 62
     7
 48
25.4
100
AcDbText
 10
41.4826465857
 20
212.8325045035
 30
0.0
 40
3.0
  1
82
 50
90.0
  7
SEACAD_SEISO_TTF
 11
38.4826465857
 21
212.8325045035
 31
0.0
100
AcDbText
 73
     3
  0
ENDBLK
  5
98
330
8F
100
AcDbEntity
  8
0
100
AcDbBlockEnd
  0
BLOCK
  5
A1
330
99
100
AcDbEntity
  8
0
100
AcDbBlockBegin
  2
SE9
 70
     0
 71
     0
 10
0.0
 20
0.0
 30
0.0
  3
SE9
  1

  0
POLYLINE
  5
9B
330
99
100
AcDbEntity
  8
DEFAULT
  6
CONTINUOUS
 62
     7
 48
25.4
100
AcDb2dPolyline
 66
     1
 10
0.0
 20
0.0
 30
0.0
 70
     1
  0
VERTEX
  5
F9
330
9B
100
AcDbEntity
  8
DEFAULT
  6
CONTINUOUS
 62
     7
100
AcDbVertex
100
AcDb2dVertex
 10
52.1234572498
 20
176.7075033971
 30
0.0
  0
VERTEX
  5
FA
330
9B
100
AcDbEntity
  8
DEFAULT
  6
CONTINUOUS
 62
     7
100
AcDbVertex
100
AcDb2dVertex
 10
52.6234572542
 20
173.707503371
 30
0.0
  0
VERTEX
  5
FB
330
9B
100
AcDbEntity
  8
DEFAULT
  6
CONTINUOUS
 62
     7
100
AcDbVertex
100
AcDb2dVertex
 10
53.1234572585
 20
176.7075033971
 30
0.0
  0
VERTEX
  5
FC
330
9B
100
AcDbEntity
  8
DEFAULT
  6
CONTINUOUS
 62
     7
100
AcDbVertex
100
AcDb2dVertex
 10
52.1234572498
 20
176.7075033971
 30
0.0
  0
SEQEND
  5
F8
330
9B
100
AcDbEntity
  8
DEFAULT
  6
CONTINUOUS
 62
     7
 48
25.4
  0
POLYLINE
  5
9C
330
99
100
AcDbEntity
  8
DEFAULT
  6
CONTINUOUS
 62
     7
 48
25.4
100
AcDb2dPolyline
 66
     1
 10
0.0
 20
0.0
 30
0.0
 70
     1
  0
VERTEX
  5
FE
330
9C
100
AcDbEntity
  8
DEFAULT
  6
CONTINUOUS
 62
     7
100
AcDbVertex
100
AcDb2dVertex
 10
52.1234572498
 20
244.7075033449
 30
0.0
  0
VERTEX
  5
FF
330
9C
100
AcDbEntity
  8
DEFAULT
  6
CONTINUOUS
 62
     7
100
AcDbVertex
100
AcDb2dVertex
 10
52.6234572542
 20
247.707503371
 30
0.0
  0
VERTEX
  5
100
330
9C
100
AcDbEntity
  8
DEFAULT
  6
CONTINUOUS
 62
     7
100
AcDbVertex
100
AcDb2dVertex
 10
53.1234572585
 20
244.7075033449
 30
0.0
  0
VERTEX
  5
101
330
9C
100
AcDbEntity
  8
DEFAULT
  6
CONTINUOUS
 62
     7
100
AcDbVertex
100
AcDb2dVertex
 10
52.1234572498
 20
244.7075033449
 30
0.0
  0
SEQEND
  5
FD
330
9C
100
AcDbEntity
  8
DEFAULT
  6
CONTINUOUS
 62
     7
 48
25.4
  0
LINE
  5
9D
330
99
100
AcDbEntity
  8
DEFAULT
  6
CONTINUOUS
 62
     7
 48
25.4
100
AcDbLine
 10
85.983420701
 20
173.707503371
 30
0.0
 11
51.1234572411
 21
173.707503371
 31
0.0
  0
LINE
  5
9E
330
99
100
AcDbEntity
  8
DEFAULT
  6
CONTINUOUS
 62
     7
 48
25.4
100
AcDbLine
 10
71.983420701
 20
247.707503371
 30
0.0
 11
51.1234572411
 21
247.707503371
 31
0.0
  0
LINE
  5
9F
330
99
100
AcDbEntity
  8
DEFAULT
  6
CONTINUOUS
 62
     7
 48
25.4
100
AcDbLine
 10
52.6234572542
 20
173.707503371
 30
0.0
 11
52.6234572542
 21
247.7075043247
 31
0.0
  0
TEXT
  5
A0
330
99
100
AcDbEntity
  8
DEFAULT
  6
CONTINUOUS
 62
     7
 48
25.4
100
AcDbText
 10
51.8734572542
 20
208.8665947569
 30
0.0
 40
3.0
  1
74
 50
90.0
  7
SEACAD_SEISO_TTF
 11
48.8734572542
 21
208.8665947569
 31
0.0
100
AcDbText
 73
     3
  0
ENDBLK
  5
A2
330
99
100
AcDbEntity
  8
0
100
AcDbBlockEnd
  0
BLOCK
  5
AB
330
A3
100
AcDbEntity
  8
0
100
AcDbBlockBegin
  2
SE10
 70
     0
 71
     0
 10
0.0
 20
0.0
 30
0.0
  3
SE10
  1

  0
POLYLINE
  5
A5
330
A3
100
AcDbEntity
  8
DEFAULT
  6
CONTINUOUS
 62
     7
 48
25.4
100
AcDb2dPolyline
 66
     1
 10
0.0
 20
0.0
 30
0.0
 70
     1
  0
VERTEX
  5
103
330
A5
100
AcDbEntity
  8
DEFAULT
  6
CONTINUOUS
 62
     7
100
AcDbVertex
100
AcDb2dVertex
 10
52.1234572498
 20
170.7075033449
 30
0.0
  0
VERTEX
  5
104
330
A5
100
AcDbEntity
  8
DEFAULT
  6
CONTINUOUS
 62
     7
100
AcDbVertex
100
AcDb2dVertex
 10
52.6234572542
 20
173.707503371
 30
0.0
  0
VERTEX
  5
105
330
A5
100
AcDbEntity
  8
DEFAULT
  6
CONTINUOUS
 62
     7
100
AcDbVertex
100
AcDb2dVertex
 10
53.1234572585
 20
170.7075033449
 30
0.0
  0
VERTEX
  5
106
330
A5
100
AcDbEntity
  8
DEFAULT
  6
CONTINUOUS
 62
     7
100
AcDbVertex
100
AcDb2dVertex
 10
52.1234572498
 20
170.7075033449
 30
0.0
  0
SEQEND
  5
102
330
A5
100
AcDbEntity
  8
DEFAULT
  6
CONTINUOUS
 62
     7
 48
25.4
  0
POLYLINE
  5
A6
330
A3
100
AcDbEntity
  8
DEFAULT
  6
CONTINUOUS
 62
     7
 48
25.4
100
AcDb2dPolyline
 66
     1
 10
0.0
 20
0.0
 30
0.0
 70
     1
  0
VERTEX
  5
108
330
A6
100
AcDbEntity
  8
DEFAULT
  6
CONTINUOUS
 62
     7
100
AcDbVertex
100
AcDb2dVertex
 10
52.1234572498
 20
32.7075033971
 30
0.0
  0
VERTEX
  5
109
330
A6
100
AcDbEntity
  8
DEFAULT
  6
CONTINUOUS
 62
     7
100
AcDbVertex
100
AcDb2dVertex
 10
52.6234572542
 20
29.707503371
 30
0.0
  0
VERTEX
  5
10A
330
A6
100
AcDbEntity
  8
DEFAULT
  6
CONTINUOUS
 62
     7
100
AcDbVertex
100
AcDb2dVertex
 10
53.1234572585
 20
32.7075033971
 30
0.0
  0
VERTEX
  5
10B
330
A6
100
AcDbEntity
  8
DEFAULT
  6
CONTINUOUS
 62
     7
100
AcDbVertex
100
AcDb2dVertex
 10
52.1234572498
 20
32.7075033971
 30
0.0
  0
SEQEND
  5
107
330
A6
100
AcDbEntity
  8
DEFAULT
  6
CONTINUOUS
 62
     7
 48
25.4
  0
LINE
  5
A7
330
A3
100
AcDbEntity
  8
DEFAULT
  6
CONTINUOUS
 62
     7
 48
25.4
100
AcDbLine
 10
85.983420701
 20
173.707503371
 30
0.0
 11
51.1234572411
 21
173.707503371
 31
0.0
  0
LINE
  5
A8
330
A3
100
AcDbEntity
  8
DEFAULT
  6
CONTINUOUS
 62
     7
 48
25.4
100
AcDbLine
 10
71.983420701
 20
29.707503371
 30
0.0
 11
51.1234572411
 21
29.707503371
 31
0.0
  0
LINE
  5
A9
330
A3
100
AcDbEntity
  8
DEFAULT
  6
CONTINUOUS
 62
     7
 48
25.4
100
AcDbLine
 10
52.6234572542
 20
173.707503371
 30
0.0
 11
52.6234572542
 21
29.7075095699
 31
0.0
  0
TEXT
  5
AA
330
A3
100
AcDbEntity
  8
DEFAULT
  6
CONTINUOUS
 62
     7
 48
25.4
100
AcDbText
 10
51.8734572542
 20
99.3211428341
 30
0.0
 40
3.0
  1
144
 50
90.0
  7
SEACAD_SEISO_TTF
 11
48.8734572542
 21
99.3211428341
 31
0.0
100
AcDbText
 73
     3
  0
ENDBLK
  5
AC
330
A3
100
AcDbEntity
  8
0
100
AcDbBlockEnd
  0
BLOCK
  5
B5
330
AD
100
AcDbEntity
  8
0
100
AcDbBlockBegin
  2
SE11
 70
     0
 71
     0
 10
0.0
 20
0.0
 30
0.0
  3
SE11
  1

  0
POLYLINE
  5
AF
330
AD
100
AcDbEntity
  8
DEFAULT
  6
CONTINUOUS
 62
     7
 48
25.4
100
AcDb2dPolyline
 66
     1
 10
0.0
 20
0.0
 30
0.0
 70
     1
  0
VERTEX
  5
10D
330
AF
100
AcDbEntity
  8
DEFAULT
  6
CONTINUOUS
 62
     7
100
AcDbVertex
100
AcDb2dVertex
 10
67.9834207271
 20
281.9444017277
 30
0.0
  0
VERTEX
  5
10E
330
AF
100
AcDbEntity
  8
DEFAULT
  6
CONTINUOUS
 62
     7
100
AcDbVertex
100
AcDb2dVertex
 10
64.983420701
 20
281.4444017234
 30
0.0
  0
VERTEX
  5
10F
330
AF
100
AcDbEntity
  8
DEFAULT
  6
CONTINUOUS
 62
     7
100
AcDbVertex
100
AcDb2dVertex
 10
67.9834207271
 20
280.944401719
 30
0.0
  0
VERTEX
  5
110
330
AF
100
AcDbEntity
  8
DEFAULT
  6
CONTINUOUS
 62
     7
100
AcDbVertex
100
AcDb2dVertex
 10
67.9834207271
 20
281.9444017277
 30
0.0
  0
SEQEND
  5
10C
330
AF
100
AcDbEntity
  8
DEFAULT
  6
CONTINUOUS
 62
     7
 48
25.4
  0
POLYLINE
  5
B0
330
AD
100
AcDbEntity
  8
DEFAULT
  6
CONTINUOUS
 62
     7
 48
25.4
100
AcDb2dPolyline
 66
     1
 10
0.0
 20
0.0
 30
0.0
 70
     1
  0
VERTEX
  5
112
330
B0
100
AcDbEntity
  8
DEFAULT
  6
CONTINUOUS
 62
     7
100
AcDbVertex
100
AcDb2dVertex
 10
103.9834206749
 20
281.9444017277
 30
0.0
  0
VERTEX
  5
113
330
B0
100
AcDbEntity
  8
DEFAULT
  6
CONTINUOUS
 62
     7
100
AcDbVertex
100
AcDb2dVertex
 10
106.983420701
 20
281.4444017234
 30
0.0
  0
VERTEX
  5
114
330
B0
100
AcDbEntity
  8
DEFAULT
  6
CONTINUOUS
 62
     7
100
AcDbVertex
100
AcDb2dVertex
 10
103.9834206749
 20
280.944401719
 30
0.0
  0
VERTEX
  5
115
330
B0
100
AcDbEntity
  8
DEFAULT
  6
CONTINUOUS
 62
     7
100
AcDbVertex
100
AcDb2dVertex
 10
103.9834206749
 20
281.9444017277
 30
0.0
  0
SEQEND
  5
111
330
B0
100
AcDbEntity
  8
DEFAULT
  6
CONTINUOUS
 62
     7
 48
25.4
  0
LINE
  5
B1
330
AD
100
AcDbEntity
  8
DEFAULT
  6
CONTINUOUS
 62
     7
 48
25.4
100
AcDbLine
 10
64.983420701
 20
252.753080112
 30
0.0
 11
64.983420701
 21
282.9444017364
 31
0.0
  0
LINE
  5
B2
330
AD
100
AcDbEntity
  8
DEFAULT
  6
CONTINUOUS
 62
     7
 48
25.4
100
AcDbLine
 10
106.983420701
 20
252.753080112
 30
0.0
 11
106.983420701
 21
282.9444017364
 31
0.0
  0
LINE
  5
B3
330
AD
100
AcDbEntity
  8
DEFAULT
  6
CONTINUOUS
 62
     7
 48
25.4
100
AcDbLine
 10
64.983420701
 20
281.4444017234
 30
0.0
 11
106.9834201348
 21
281.4444017234
 31
0.0
  0
TEXT
  5
B4
330
AD
100
AcDbEntity
  8
DEFAULT
  6
CONTINUOUS
 62
     7
 48
25.4
100
AcDbText
 10
84.1766022361
 20
282.1944017234
 30
0.0
 40
3.0
  1
42
  7
SEACAD_SEISO_TTF
 11
84.1766022361
 21
285.1944017234
 31
0.0
100
AcDbText
 73
     3
  0
ENDBLK
  5
B6
330
AD
100
AcDbEntity
  8
0
100
AcDbBlockEnd
  0
BLOCK
  5
BF
330
B7
100
AcDbEntity
  8
0
100
AcDbBlockBegin
  2
SE12
 70
     0
 71
     0
 10
0.0
 20
0.0
 30
0.0
  3
SE12
  1

  0
POLYLINE
  5
B9
330
B7
100
AcDbEntity
  8
DEFAULT
  6
CONTINUOUS
 62
     7
 48
25.4
100
AcDb2dPolyline
 66
     1
 10
0.0
 20
0.0
 30
0.0
 70
     1
  0
VERTEX
  5
117
330
B9
100
AcDbEntity
  8
DEFAULT
  6
CONTINUOUS
 62
     7
100
AcDbVertex
100
AcDb2dVertex
 10
74.9834207271
 20
273.741131094
 30
0.0
  0
VERTEX
  5
118
330
B9
100
AcDbEntity
  8
DEFAULT
  6
CONTINUOUS
 62
     7
100
AcDbVertex
100
AcDb2dVertex
 10
71.983420701
 20
273.2411310897
 30
0.0
  0
VERTEX
  5
119
330
B9
100
AcDbEntity
  8
DEFAULT
  6
CONTINUOUS
 62
     7
100
AcDbVertex
100
AcDb2dVertex
 10
74.9834207271
 20
272.7411310853
 30
0.0
  0
VERTEX
  5
11A
330
B9
100
AcDbEntity
  8
DEFAULT
  6
CONTINUOUS
 62
     7
100
AcDbVertex
100
AcDb2dVertex
 10
74.9834207271
 20
273.741131094
 30
0.0
  0
SEQEND
  5
116
330
B9
100
AcDbEntity
  8
DEFAULT
  6
CONTINUOUS
 62
     7
 48
25.4
  0
POLYLINE
  5
BA
330
B7
100
AcDbEntity
  8
DEFAULT
  6
CONTINUOUS
 62
     7
 48
25.4
100
AcDb2dPolyline
 66
     1
 10
0.0
 20
0.0
 30
0.0
 70
     1
  0
VERTEX
  5
11C
330
BA
100
AcDbEntity
  8
DEFAULT
  6
CONTINUOUS
 62
     7
100
AcDbVertex
100
AcDb2dVertex
 10
96.9834206749
 20
273.741131094
 30
0.0
  0
VERTEX
  5
11D
330
BA
100
AcDbEntity
  8
DEFAULT
  6
CONTINUOUS
 62
     7
100
AcDbVertex
100
AcDb2dVertex
 10
99.983420701
 20
273.2411310897
 30
0.0
  0
VERTEX
  5
11E
330
BA
100
AcDbEntity
  8
DEFAULT
  6
CONTINUOUS
 62
     7
100
AcDbVertex
100
AcDb2dVertex
 10
96.9834206749
 20
272.7411310853
 30
0.0
  0
VERTEX
  5
11F
330
BA
100
AcDbEntity
  8
DEFAULT
  6
CONTINUOUS
 62
     7
100
AcDbVertex
100
AcDb2dVertex
 10
96.9834206749
 20
273.741131094
 30
0.0
  0
SEQEND
  5
11B
330
BA
100
AcDbEntity
  8
DEFAULT
  6
CONTINUOUS
 62
     7
 48
25.4
  0
LINE
  5
BB
330
B7
100
AcDbEntity
  8
DEFAULT
  6
CONTINUOUS
 62
     7
 48
25.4
100
AcDbLine
 10
71.983420701
 20
247.707503371
 30
0.0
 11
71.983420701
 21
274.7411311027
 31
0.0
  0
LINE
  5
BC
330
B7
100
AcDbEntity
  8
DEFAULT
  6
CONTINUOUS
 62
     7
 48
25.4
100
AcDbLine
 10
99.983420701
 20
247.707503371
 30
0.0
 11
99.983420701
 21
274.7411311027
 31
0.0
  0
LINE
  5
BD
330
B7
100
AcDbEntity
  8
DEFAULT
  6
CONTINUOUS
 62
     7
 48
25.4
100
AcDbLine
 10
71.983420701
 20
273.2411310897
 30
0.0
 11
99.9834215653
 21
273.2411310897
 31
0.0
  0
TEXT
  5
BE
330
B7
100
AcDbEntity
  8
DEFAULT
  6
CONTINUOUS
 62
     7
 48
25.4
100
AcDbText
 10
84.1084211331
 20
273.9911310897
 30
0.0
 40
3.0
  1
28
  7
SEACAD_SEISO_TTF
 11
84.1084211331
 21
276.9911310897
 31
0.0
100
AcDbText
 73
     3
  0
ENDBLK
  5
C0
330
B7
100
AcDbEntity
  8
0
100
AcDbBlockEnd
  0
BLOCK
  5
C9
330
C1
100
AcDbEntity
  8
0
100
AcDbBlockBegin
  2
SE13
 70
     0
 71
     0
 10
0.0
 20
0.0
 30
0.0
  3
SE13
  1

  0
POLYLINE
  5
C3
330
C1
100
AcDbEntity
  8
DEFAULT
  6
CONTINUOUS
 62
     7
 48
25.4
100
AcDb2dPolyline
 66
     1
 10
0.0
 20
0.0
 30
0.0
 70
     1
  0
VERTEX
  5
121
330
C3
100
AcDbEntity
  8
DEFAULT
  6
CONTINUOUS
 62
     7
100
AcDbVertex
100
AcDb2dVertex
 10
150.849770476
 20
280.8506293412
 30
0.0
  0
VERTEX
  5
122
330
C3
100
AcDbEntity
  8
DEFAULT
  6
CONTINUOUS
 62
     7
100
AcDbVertex
100
AcDb2dVertex
 10
147.8497704499
 20
280.3506293368
 30
0.0
  0
VERTEX
  5
123
330
C3
100
AcDbEntity
  8
DEFAULT
  6
CONTINUOUS
 62
     7
100
AcDbVertex
100
AcDb2dVertex
 10
150.849770476
 20
279.8506293325
 30
0.0
  0
VERTEX
  5
124
330
C3
100
AcDbEntity
  8
DEFAULT
  6
CONTINUOUS
 62
     7
100
AcDbVertex
100
AcDb2dVertex
 10
150.849770476
 20
280.8506293412
 30
0.0
  0
SEQEND
  5
120
330
C3
100
AcDbEntity
  8
DEFAULT
  6
CONTINUOUS
 62
     7
 48
25.4
  0
POLYLINE
  5
C4
330
C1
100
AcDbEntity
  8
DEFAULT
  6
CONTINUOUS
 62
     7
 48
25.4
100
AcDb2dPolyline
 66
     1
 10
0.0
 20
0.0
 30
0.0
 70
     1
  0
VERTEX
  5
126
330
C4
100
AcDbEntity
  8
DEFAULT
  6
CONTINUOUS
 62
     7
100
AcDbVertex
100
AcDb2dVertex
 10
154.3497704239
 20
280.8506293412
 30
0.0
  0
VERTEX
  5
127
330
C4
100
AcDbEntity
  8
DEFAULT
  6
CONTINUOUS
 62
     7
100
AcDbVertex
100
AcDb2dVertex
 10
157.3497704499
 20
280.3506293368
 30
0.0
  0
VERTEX
  5
128
330
C4
100
AcDbEntity
  8
DEFAULT
  6
CONTINUOUS
 62
     7
100
AcDbVertex
100
AcDb2dVertex
 10
154.3497704239
 20
279.8506293325
 30
0.0
  0
VERTEX
  5
129
330
C4
100
AcDbEntity
  8
DEFAULT
  6
CONTINUOUS
 62
     7
100
AcDbVertex
100
AcDb2dVertex
 10
154.3497704239
 20
280.8506293412
 30
0.0
  0
SEQEND
  5
125
330
C4
100
AcDbEntity
  8
DEFAULT
  6
CONTINUOUS
 62
     7
 48
25.4
  0
LINE
  5
C5
330
C1
100
AcDbEntity
  8
DEFAULT
  6
CONTINUOUS
 62
     7
 48
25.4
100
AcDbLine
 10
147.8497704499
 20
184.2330210876
 30
0.0
 11
147.8497704499
 21
281.8506293499
 31
0.0
  0
LINE
  5
C6
330
C1
100
AcDbEntity
  8
DEFAULT
  6
CONTINUOUS
 62
     7
 48
25.4
100
AcDbLine
 10
157.3497704499
 20
252.0183149646
 30
0.0
 11
157.3497704499
 21
281.8506293499
 31
0.0
  0
LINE
  5
C7
330
C1
100
AcDbEntity
  8
DEFAULT
  6
CONTINUOUS
 62
     7
 48
25.4
100
AcDbLine
 10
147.8497704499
 20
280.3506293368
 30
0.0
 11
157.3497701445
 21
280.3506293368
 31
0.0
  0
TEXT
  5
C8
330
C1
100
AcDbEntity
  8
DEFAULT
  6
CONTINUOUS
 62
     7
 48
25.4
100
AcDbText
 10
150.5543157517
 20
281.1006293368
 30
0.0
 40
3.0
  1
9,5
  7
SEACAD_SEISO_TTF
 11
150.5543157517
 21
284.1006293368
 31
0.0
100
AcDbText
 73
     3
  0
ENDBLK
  5
CA
330
C1
100
AcDbEntity
  8
0
100
AcDbBlockEnd
  0
BLOCK
  5
D3
330
CB
100
AcDbEntity
  8
0
100
AcDbBlockBegin
  2
SE14
 70
     0
 71
     0
 10
0.0
 20
0.0
 30
0.0
  3
SE14
  1

  0
POLYLINE
  5
CD
330
CB
100
AcDbEntity
  8
DEFAULT
  6
CONTINUOUS
 62
     7
 48
25.4
100
AcDb2dPolyline
 66
     1
 10
0.0
 20
0.0
 30
0.0
 70
     1
  0
VERTEX
  5
12B
330
CD
100
AcDbEntity
  8
DEFAULT
  6
CONTINUOUS
 62
     7
100
AcDbVertex
100
AcDb2dVertex
 10
160.349770476
 20
270.4598234111
 30
0.0
  0
VERTEX
  5
12C
330
CD
100
AcDbEntity
  8
DEFAULT
  6
CONTINUOUS
 62
     7
100
AcDbVertex
100
AcDb2dVertex
 10
157.3497704499
 20
269.9598234067
 30
0.0
  0
VERTEX
  5
12D
330
CD
100
AcDbEntity
  8
DEFAULT
  6
CONTINUOUS
 62
     7
100
AcDbVertex
100
AcDb2dVertex
 10
160.349770476
 20
269.4598234024
 30
0.0
  0
VERTEX
  5
12E
330
CD
100
AcDbEntity
  8
DEFAULT
  6
CONTINUOUS
 62
     7
100
AcDbVertex
100
AcDb2dVertex
 10
160.349770476
 20
270.4598234111
 30
0.0
  0
SEQEND
  5
12A
330
CD
100
AcDbEntity
  8
DEFAULT
  6
CONTINUOUS
 62
     7
 48
25.4
  0
POLYLINE
  5
CE
330
CB
100
AcDbEntity
  8
DEFAULT
  6
CONTINUOUS
 62
     7
 48
25.4
100
AcDb2dPolyline
 66
     1
 10
0.0
 20
0.0
 30
0.0
 70
     1
  0
VERTEX
  5
130
330
CE
100
AcDbEntity
  8
DEFAULT
  6
CONTINUOUS
 62
     7
100
AcDbVertex
100
AcDb2dVertex
 10
149.1497704239
 20
270.4598234111
 30
0.0
  0
VERTEX
  5
131
330
CE
100
AcDbEntity
  8
DEFAULT
  6
CONTINUOUS
 62
     7
100
AcDbVertex
100
AcDb2dVertex
 10
152.1497704499
 20
269.9598234067
 30
0.0
  0
VERTEX
  5
132
330
CE
100
AcDbEntity
  8
DEFAULT
  6
CONTINUOUS
 62
     7
100
AcDbVertex
100
AcDb2dVertex
 10
149.1497704239
 20
269.4598234024
 30
0.0
  0
VERTEX
  5
133
330
CE
100
AcDbEntity
  8
DEFAULT
  6
CONTINUOUS
 62
     7
100
AcDbVertex
100
AcDb2dVertex
 10
149.1497704239
 20
270.4598234111
 30
0.0
  0
SEQEND
  5
12F
330
CE
100
AcDbEntity
  8
DEFAULT
  6
CONTINUOUS
 62
     7
 48
25.4
  0
LINE
  5
CF
330
CB
100
AcDbEntity
  8
DEFAULT
  6
CONTINUOUS
 62
     7
 48
25.4
100
AcDbLine
 10
157.3497704499
 20
252.0183149646
 30
0.0
 11
157.3497704499
 21
271.4598234198
 31
0.0
  0
LINE
  5
D0
330
CB
100
AcDbEntity
  8
DEFAULT
  6
CONTINUOUS
 62
     7
 48
25.4
100
AcDbLine
 10
152.1497704499
 20
252.753080112
 30
0.0
 11
152.1497704499
 21
271.4598234198
 31
0.0
  0
LINE
  5
D1
330
CB
100
AcDbEntity
  8
DEFAULT
  6
CONTINUOUS
 62
     7
 48
25.4
100
AcDbLine
 10
163.3497705021
 20
269.9598234067
 30
0.0
 11
146.1497708493
 21
269.9598234067
 31
0.0
  0
TEXT
  5
D2
330
CB
100
AcDbEntity
  8
DEFAULT
  6
CONTINUOUS
 62
     7
 48
25.4
100
AcDbText
 10
152.7043158974
 20
270.7098234067
 30
0.0
 40
3.0
  1
5,2
  7
SEACAD_SEISO_TTF
 11
152.7043158974
 21
273.7098234067
 31
0.0
100
AcDbText
 73
     3
  0
ENDBLK
  5
D4
330
CB
100
AcDbEntity
  8
0
100
AcDbBlockEnd
  0
ENDSEC
  0
SECTION
  2
ENTITIES
  0
INSERT
  5
2F
330
1F
100
AcDbEntity
  8
0
100
AcDbBlockReference
  2
SE
 10
0.0
 20
0.0
 30
0.0
  0
INSERT
  5
37
330
1F
100
AcDbEntity
  8
0
100
AcDbBlockReference
  2
SE1
 10
0.0
 20
0.0
 30
0.0
  0
INSERT
  5
3D
330
1F
100
AcDbEntity
  8
0
100
AcDbBlockReference
  2
SE2
 10
0.0
 20
0.0
 30
0.0
  0
INSERT
  5
43
330
1F
100
AcDbEntity
  8
0
100
AcDbBlockReference
  2
SE3
 10
0.0
 20
0.0
 30
0.0
  0
INSERT
  5
5E
330
1F
100
AcDbEntity
  8
0
100
AcDbBlockReference
  2
SE4
 10
0.0
 20
0.0
 30
0.0
  0
INSERT
  5
72
330
1F
100
AcDbEntity
  8
0
100
AcDbBlockReference
  2
SE5
 10
0.0
 20
0.0
 30
0.0
  0
INSERT
  5
7C
330
1F
100
AcDbEntity
  8
0
100
AcDbBlockReference
  2
SE6
 10
0.0
 20
0.0
 30
0.0
  0
INSERT
  5
86
330
1F
100
AcDbEntity
  8
0
100
AcDbBlockReference
  2
SE7
 10
0.0
 20
0.0
 30
0.0
  0
INSERT
  5
90
330
1F
100
AcDbEntity
  8
0
100
AcDbBlockReference
  2
SE8
 10
0.0
 20
0.0
 30
0.0
  0
INSERT
  5
9A
330
1F
100
AcDbEntity
  8
0
100
AcDbBlockReference
  2
SE9
 10
0.0
 20
0.0
 30
0.0
  0
INSERT
  5
A4
330
1F
100
AcDbEntity
  8
0
100
AcDbBlockReference
  2
SE10
 10
0.0
 20
0.0
 30
0.0
  0
INSERT
  5
AE
330
1F
100
AcDbEntity
  8
0
100
AcDbBlockReference
  2
SE11
 10
0.0
 20
0.0
 30
0.0
  0
INSERT
  5
B8
330
1F
100
AcDbEntity
  8
0
100
AcDbBlockReference
  2
SE12
 10
0.0
 20
0.0
 30
0.0
  0
INSERT
  5
C2
330
1F
100
AcDbEntity
  8
0
100
AcDbBlockReference
  2
SE13
 10
0.0
 20
0.0
 30
0.0
  0
INSERT
  5
CC
330
1F
100
AcDbEntity
  8
0
100
AcDbBlockReference
  2
SE14
 10
0.0
 20
0.0
 30
0.0
  0
ENDSEC
  0
SECTION
  2
OBJECTS
  0
DICTIONARY
  5
C
330
0
100
AcDbDictionary
  3
ACAD_GROUP
350
D
  3
ACAD_LAYOUT
350
1A
  3
ACAD_MLINESTYLE
350
17
  3
ACAD_PLOTSETTINGS
350
19
  3
ACAD_TABLESTYLE
350
2A
  3
ACDBVARIABLEDICTIONARY
350
2C
1001
ACAD
1000
TREAT_AS_HARD
1070
     0
  0
DICTIONARY
  5
134
330
29
100
AcDbDictionary
  3
ACAD_XREC_ROUNDTRIP
360
135
  0
DICTIONARY
  5
D
102
{ACAD_REACTORS
330
C
102
}
330
C
100
AcDbDictionary
1001
ACAD
1000
TREAT_AS_HARD
1070
     0
  0
DICTIONARY
  5
1A
102
{ACAD_REACTORS
330
C
102
}
330
C
100
AcDbDictionary
1001
ACAD
1000
TREAT_AS_HARD
1070
     0
  0
DICTIONARY
  5
17
102
{ACAD_REACTORS
330
C
102
}
330
C
100
AcDbDictionary
  3
STANDARD
350
18
1001
ACAD
1000
TREAT_AS_HARD
1070
     0
  0
DICTIONARY
  5
19
102
{ACAD_REACTORS
330
C
102
}
330
C
100
AcDbDictionary
1001
ACAD
1000
TREAT_AS_HARD
1070
     0
  0
DICTIONARY
  5
2A
102
{ACAD_REACTORS
330
C
102
}
330
C
100
AcDbDictionary
  3
STANDARD
350
2B
1001
ACAD
1000
TREAT_AS_HARD
1070
     0
  0
DICTIONARY
  5
2C
102
{ACAD_REACTORS
330
C
102
}
330
C
100
AcDbDictionary
  3
CTABLESTYLE
350
2D
1001
ACAD
1000
TREAT_AS_HARD
1070
     0
  0
XRECORD
  5
135
102
{ACAD_REACTORS
330
134
102
}
330
134
100
AcDbXrecord
102
UCS
 74
     0
 71
     1
 10
0.0
 20
0.0
 30
0.0
 10
1.0
 20
0.0
 30
0.0
 10
0.0
 20
1.0
 30
0.0
146
0.0
 79
     0
102
VIEW
281
     0
  0
MLINESTYLE
  5
18
102
{ACAD_REACTORS
330
17
102
}
330
17
100
AcDbMlineStyle
  2
Standard
 70
     0
  3

 62
   256
 51
90.0
 52
90.0
 71
     2
 49
0.5
 62
   256
  6
BYLAYER
 49
-0.5
 62
   256
  6
BYLAYER
  0
TABLESTYLE
  5
2B
102
{ACAD_REACTORS
330
2A
102
}
330
2A
100
AcDbTableStyle
  3
Standard
 70
     0
 71
     0
 40
0.06
 41
0.06
280
     0
281
     0
  7
STANDARD
140
0.18
170
     2
 62
     0
 63
     7
283
     0
274
    -2
284
     1
 64
     0
275
    -2
285
     1
 65
     0
276
    -2
286
     1
 66
     0
277
    -2
287
     1
 67
     0
278
    -2
288
     1
 68
     0
279
    -2
289
     1
 69
     0
  7
STANDARD
140
0.25
170
     5
 62
     0
 63
     7
283
     0
274
    -2
284
     1
 64
     0
275
    -2
285
     1
 65
     0
276
    -2
286
     1
 66
     0
277
    -2
287
     1
 67
     0
278
    -2
288
     1
 68
     0
279
    -2
289
     1
 69
     0
  7
STANDARD
140
0.18
170
     5
 62
     0
 63
     7
283
     0
274
    -2
284
     1
 64
     0
275
    -2
285
     1
 65
     0
276
    -2
286
     1
 66
     0
277
    -2
287
     1
 67
     0
278
    -2
288
     1
 68
     0
279
    -2
289
     1
 69
     0
  0
DICTIONARYVAR
  5
2D
102
{ACAD_REACTORS
330
2C
102
}
330
2C
100
DictionaryVariables
280
     0
  1
Standard
  0
ENDSEC
  0
EOF
