  0
SECTION
  2
HEADER
  9
$ACADVER
  1
AC1012
  9
$DWGCODEPAGE
  3
ansi_1252
  9
$INSBASE
 10
0.0
 20
0.0
 30
0.0
  9
$EXTMIN
 10
0.0
 20
0.0
 30
0.0
  9
$EXTMAX
 10
210.0
 20
297.0
 30
0.0
  9
$LIMMIN
 10
0.0
 20
0.0
  9
$LIMMAX
 10
210.0
 20
297.0
  9
$ORTHOMODE
 70
     0
  9
$REGENMODE
 70
     1
  9
$FILLMODE
 70
     1
  9
$QTEXTMODE
 70
     0
  9
$MIRRTEXT
 70
     1
  9
$DRAGMODE
 70
     2
  9
$LTSCALE
 40
1.0
  9
$OSMODE
 70
    37
  9
$ATTMODE
 70
     1
  9
$TEXTSIZE
 40
0.2
  9
$TRACEWID
 40
0.05
  9
$TEXTSTYLE
  7
STANDARD
  9
$CLAYER
  8
0
  9
$CELTYPE
  6
BYLAYER
  9
$CECOLOR
 62
   256
  9
$CELTSCALE
 40
25.4
  9
$DELOBJ
 70
     1
  9
$DISPSILH
 70
     0
  9
$DIMSCALE
 40
1.0
  9
$DIMASZ
 40
0.18
  9
$DIMEXO
 40
0.0625
  9
$DIMDLI
 40
0.38
  9
$DIMRND
 40
0.0
  9
$DIMDLE
 40
0.0
  9
$DIMEXE
 40
0.18
  9
$DIMTP
 40
0.0
  9
$DIMTM
 40
0.0
  9
$DIMTXT
 40
0.18
  9
$DIMCEN
 40
0.09
  9
$DIMTSZ
 40
0.0
  9
$DIMTOL
 70
     0
  9
$DIMLIM
 70
     0
  9
$DIMTIH
 70
     1
  9
$DIMTOH
 70
     1
  9
$DIMSE1
 70
     0
  9
$DIMSE2
 70
     0
  9
$DIMTAD
 70
     0
  9
$DIMZIN
 70
     0
  9
$DIMBLK
  1

  9
$DIMASO
 70
     1
  9
$DIMSHO
 70
     1
  9
$DIMPOST
  1

  9
$DIMAPOST
  1

  9
$DIMALT
 70
     0
  9
$DIMALTD
 70
     2
  9
$DIMALTF
 40
25.4
  9
$DIMLFAC
 40
1.0
  9
$DIMTOFL
 70
     0
  9
$DIMTVP
 40
0.0
  9
$DIMTIX
 70
     0
  9
$DIMSOXD
 70
     0
  9
$DIMSAH
 70
     0
  9
$DIMBLK1
  1

  9
$DIMBLK2
  1

  9
$DIMSTYLE
  2
STANDARD
  9
$DIMCLRD
 70
     0
  9
$DIMCLRE
 70
     0
  9
$DIMCLRT
 70
     0
  9
$DIMTFAC
 40
1.0
  9
$DIMGAP
 40
0.09
  9
$DIMJUST
 70
     0
  9
$DIMSD1
 70
     0
  9
$DIMSD2
 70
     0
  9
$DIMTOLJ
 70
     1
  9
$DIMTZIN
 70
     0
  9
$DIMALTZ
 70
     0
  9
$DIMALTTZ
 70
     0
  9
$DIMFIT
 70
     3
  9
$DIMUPT
 70
     0
  9
$DIMUNIT
 70
     2
  9
$DIMDEC
 70
     4
  9
$DIMTDEC
 70
     4
  9
$DIMALTU
 70
     2
  9
$DIMALTTD
 70
     2
  9
$DIMTXSTY
  7
STANDARD
  9
$DIMAUNIT
 70
     0
  9
$LUNITS
 70
     2
  9
$LUPREC
 70
     4
  9
$SKETCHINC
 40
0.1
  9
$FILLETRAD
 40
0.5
  9
$AUNITS
 70
     0
  9
$AUPREC
 70
     0
  9
$MENU
  1
.
  9
$ELEVATION
 40
0.0
  9
$PELEVATION
 40
0.0
  9
$THICKNESS
 40
0.0
  9
$LIMCHECK
 70
     0
  9
$CHAMFERA
 40
0.5
  9
$CHAMFERB
 40
0.5
  9
$CHAMFERC
 40
1.0
  9
$CHAMFERD
 40
0.0
  9
$SKPOLY
 70
     0
  9
$TDCREATE
 40
2453762.536727361
  9
$TDUPDATE
 40
2453762.536727373
  9
$TDINDWG
 40
0.0000000116
  9
$TDUSRTIMER
 40
0.0000000116
  9
$USRTIMER
 70
     1
  9
$ANGBASE
 50
0.0
  9
$ANGDIR
 70
     0
  9
$PDMODE
 70
     0
  9
$PDSIZE
 40
0.0
  9
$PLINEWID
 40
0.0
  9
$COORDS
 70
     1
  9
$SPLFRAME
 70
     0
  9
$SPLINETYPE
 70
     6
  9
$SPLINESEGS
 70
     8
  9
$ATTDIA
 70
     0
  9
$ATTREQ
 70
     1
  9
$HANDLING
 70
     1
  9
$HANDSEED
  5
2A8
  9
$SURFTAB1
 70
     6
  9
$SURFTAB2
 70
     6
  9
$SURFTYPE
 70
     6
  9
$SURFU
 70
     6
  9
$SURFV
 70
     6
  9
$UCSNAME
  2

  9
$UCSORG
 10
0.0
 20
0.0
 30
0.0
  9
$UCSXDIR
 10
1.0
 20
0.0
 30
0.0
  9
$UCSYDIR
 10
0.0
 20
1.0
 30
0.0
  9
$PUCSNAME
  2

  9
$PUCSORG
 10
0.0
 20
0.0
 30
0.0
  9
$PUCSXDIR
 10
1.0
 20
0.0
 30
0.0
  9
$PUCSYDIR
 10
0.0
 20
1.0
 30
0.0
  9
$USERI1
 70
     0
  9
$USERI2
 70
     0
  9
$USERI3
 70
     0
  9
$USERI4
 70
     0
  9
$USERI5
 70
     0
  9
$USERR1
 40
0.0
  9
$USERR2
 40
0.0
  9
$USERR3
 40
0.0
  9
$USERR4
 40
0.0
  9
$USERR5
 40
0.0
  9
$WORLDVIEW
 70
     1
  9
$SHADEDGE
 70
     3
  9
$SHADEDIF
 70
    70
  9
$TILEMODE
 70
     1
  9
$MAXACTVP
 70
    64
  9
$PINSBASE
 10
0.0
 20
0.0
 30
0.0
  9
$PLIMCHECK
 70
     0
  9
$PEXTMIN
 10
0.0
 20
0.0
 30
0.0
  9
$PEXTMAX
 10
210.0
 20
297.0
 30
0.0
  9
$PLIMMIN
 10
0.0
 20
0.0
  9
$PLIMMAX
 10
12.0
 20
9.0
  9
$UNITMODE
 70
     0
  9
$VISRETAIN
 70
     1
  9
$PLINEGEN
 70
     0
  9
$PSLTSCALE
 70
     1
  9
$TREEDEPTH
 70
  3020
  9
$PICKSTYLE
 70
     1
  9
$CMLSTYLE
  2
STANDARD
  9
$CMLJUST
 70
     0
  9
$CMLSCALE
 40
1.0
  9
$SAVEIMAGES
 70
     1
  0
ENDSEC
  0
SECTION
  2
CLASSES
  0
CLASS
  1
ACDBDICTIONARYWDFLT
  2
AcDbDictionaryWithDefault
  3
ObjectDBX Classes
 90
        0
280
     0
281
     0
  0
CLASS
  1
TABLESTYLE
  2
AcDbTableStyle
  3
ObjectDBX Classes
 90
     2047
280
     0
281
     0
  0
CLASS
  1
DICTIONARYVAR
  2
AcDbDictionaryVar
  3
ObjectDBX Classes
 90
        0
280
     0
281
     0
  0
CLASS
  1
XRECORD
  2
AcDbXrecord
  3
AutoCAD 2000
 90
    32768
280
     0
281
     0
  0
CLASS
  1
LWPOLYLINE
  2
AcDbPolyline
  3
AutoCAD 2000
 90
    32768
280
     0
281
     1
  0
CLASS
  1
HATCH
  2
AcDbHatch
  3
AutoCAD 2000
 90
    32768
280
     0
281
     1
  0
CLASS
  1
ACDBPLACEHOLDER
  2
AcDbPlaceHolder
  3
ObjectDBX Classes
 90
        0
280
     0
281
     0
  0
CLASS
  1
LAYOUT
  2
AcDbLayout
  3
ObjectDBX Classes
 90
        0
280
     0
281
     0
  0
ENDSEC
  0
SECTION
  2
TABLES
  0
TABLE
  2
VPORT
  5
8
330
0
100
AcDbSymbolTable
 70
     2
  0
VPORT
  5
29
102
{ACAD_XDICTIONARY
360
2A6
102
}
330
8
100
AcDbSymbolTableRecord
100
AcDbViewportTableRecord
  2
*ACTIVE
 70
     0
 10
0.0
 20
0.0
 11
1.0
 21
1.0
 12
10.4299065421
 22
4.5
 13
0.0
 23
0.0
 14
0.5
 24
0.5
 15
0.5
 25
0.5
 16
0.0
 26
0.0
 36
1.0
 17
0.0
 27
0.0
 37
0.0
 40
9.0
 41
1.9729729729
 42
50.0
 43
0.0
 44
0.0
 50
0.0
 51
0.0
 71
     0
 72
   100
 73
     1
 74
     3
 75
     0
 76
     0
 77
     0
 78
     0
  0
ENDTAB
  0
TABLE
  2
LTYPE
  5
5
330
0
100
AcDbSymbolTable
 70
     3
  0
LTYPE
  5
14
330
5
100
AcDbSymbolTableRecord
100
AcDbLinetypeTableRecord
  2
BYBLOCK
 70
     0
  3

 72
    65
 73
     0
 40
0.0
  0
LTYPE
  5
15
330
5
100
AcDbSymbolTableRecord
100
AcDbLinetypeTableRecord
  2
BYLAYER
 70
     0
  3

 72
    65
 73
     0
 40
0.0
  0
LTYPE
  5
16
330
5
100
AcDbSymbolTableRecord
100
AcDbLinetypeTableRecord
  2
CONTINUOUS
 70
     0
  3
Solid line
 72
    65
 73
     0
 40
0.0
  0
LTYPE
  5
31
330
5
100
AcDbSymbolTableRecord
100
AcDbLinetypeTableRecord
  2
CENTER2
 70
     0
  3
___ _ ___ _ ___ _ ___ _ ___ _ ___ _ ___ _ ___ _
 72
    65
 73
     4
 40
1.125
 49
0.75
 74
     4
 75
     0
340
0
 46
0.0
 50
0.0
 44
0.0
 45
0.0
 49
-0.125
 74
     4
 75
     0
340
0
 46
0.0
 50
0.0
 44
0.0
 45
0.0
 49
0.125
 74
     4
 75
     0
340
0
 46
0.0
 50
0.0
 44
0.0
 45
0.0
 49
-0.125
 74
     4
 75
     0
340
0
 46
0.0
 50
0.0
 44
0.0
 45
0.0
  0
LTYPE
  5
44
330
5
100
AcDbSymbolTableRecord
100
AcDbLinetypeTableRecord
  2
HIDDEN2
 70
     0
  3
_ _ _ _ _ _ _ _ _ _ _ _ _ _ _ _ _ _ _ _ _ _ _ _
 72
    65
 73
     2
 40
0.1875
 49
0.125
 74
     4
 75
     0
340
0
 46
0.0
 50
0.0
 44
0.0
 45
0.0
 49
-0.0625
 74
     4
 75
     0
340
0
 46
0.0
 50
0.0
 44
0.0
 45
0.0
  0
ENDTAB
  0
TABLE
  2
LAYER
  5
2
330
0
100
AcDbSymbolTable
 70
     3
  0
LAYER
  5
10
330
2
100
AcDbSymbolTableRecord
100
AcDbLayerTableRecord
  2
0
 70
     0
 62
     7
  6
CONTINUOUS
  0
LAYER
  5
30
330
2
100
AcDbSymbolTableRecord
100
AcDbLayerTableRecord
  2
STANDARD
 70
     0
 62
     7
  6
CONTINUOUS
  0
LAYER
  5
41
330
2
100
AcDbSymbolTableRecord
100
AcDbLayerTableRecord
  2
MEGA_002895
 70
     0
 62
     7
  6
CONTINUOUS
  0
ENDTAB
  0
TABLE
  2
STYLE
  5
3
330
0
100
AcDbSymbolTable
 70
     3
  0
STYLE
  5
11
330
3
100
AcDbSymbolTableRecord
100
AcDbTextStyleTableRecord
  2
STANDARD
 70
     0
 40
0.0
 41
1.0
 50
0.0
 71
     0
 42
0.2
  3
txt
  4

  0
STYLE
  5
160
330
3
100
AcDbSymbolTableRecord
100
AcDbTextStyleTableRecord
  2
SEACAD_SEISO_TTF
 70
     0
 40
0.2
 41
1.0
 50
0.0
 71
     0
 42
0.2
  3
seiso.ttf
  4

  0
STYLE
  5
162
330
3
100
AcDbSymbolTableRecord
100
AcDbTextStyleTableRecord
  2
SEACAD_SEMECI1_TTF
 70
     0
 40
0.2
 41
1.0
 50
0.0
 71
     0
 42
0.2
  3
semeci1.ttf
  4

  0
ENDTAB
  0
TABLE
  2
VIEW
  5
6
330
0
100
AcDbSymbolTable
 70
     0
  0
ENDTAB
  0
TABLE
  2
UCS
  5
7
330
0
100
AcDbSymbolTable
 70
     0
  0
ENDTAB
  0
TABLE
  2
APPID
  5
9
330
0
100
AcDbSymbolTable
 70
     1
  0
APPID
  5
12
330
9
100
AcDbSymbolTableRecord
100
AcDbRegAppTableRecord
  2
ACAD
 70
     0
  0
ENDTAB
  0
TABLE
  2
DIMSTYLE
  5
A
330
0
100
AcDbSymbolTable
 70
     1
  0
DIMSTYLE
105
27
330
A
100
AcDbSymbolTableRecord
100
AcDbDimStyleTableRecord
  2
STANDARD
 70
     0
  3

  4

  5

  6

  7

 40
1.0
 41
0.18
 42
0.0625
 43
0.38
 44
0.18
 45
0.0
 46
0.0
 47
0.0
 48
0.0
140
0.18
141
0.09
142
0.0
143
25.4
144
1.0
145
0.0
146
1.0
147
0.09
 71
     0
 72
     0
 73
     1
 74
     1
 75
     0
 76
     0
 77
     0
 78
     0
170
     0
171
     2
172
     0
173
     0
174
     0
175
     0
176
     0
177
     0
178
     0
270
     2
271
     4
272
     4
273
     2
274
     2
340
11
275
     0
280
     0
281
     0
282
     0
283
     1
284
     0
285
     0
286
     0
287
     3
288
     0
  0
ENDTAB
  0
TABLE
  2
BLOCK_RECORD
  5
1
330
0
100
AcDbSymbolTable
 70
    22
  0
BLOCK_RECORD
  5
1F
330
1
100
AcDbSymbolTableRecord
100
AcDbBlockTableRecord
  2
*MODEL_SPACE
  0
BLOCK_RECORD
  5
1B
330
1
100
AcDbSymbolTableRecord
100
AcDbBlockTableRecord
  2
*PAPER_SPACE
  0
BLOCK_RECORD
  5
2E
330
1
100
AcDbSymbolTableRecord
100
AcDbBlockTableRecord
  2
SE
  0
BLOCK_RECORD
  5
35
330
1
100
AcDbSymbolTableRecord
100
AcDbBlockTableRecord
  2
SE1
  0
BLOCK_RECORD
  5
3A
330
1
100
AcDbSymbolTableRecord
100
AcDbBlockTableRecord
  2
SE2
  0
BLOCK_RECORD
  5
3F
330
1
100
AcDbSymbolTableRecord
100
AcDbBlockTableRecord
  2
SE3
  0
BLOCK_RECORD
  5
11B
330
1
100
AcDbSymbolTableRecord
100
AcDbBlockTableRecord
  2
SE4
  0
BLOCK_RECORD
  5
15A
330
1
100
AcDbSymbolTableRecord
100
AcDbBlockTableRecord
  2
SE5
  0
BLOCK_RECORD
  5
166
330
1
100
AcDbSymbolTableRecord
100
AcDbBlockTableRecord
  2
SE6
  0
BLOCK_RECORD
  5
170
330
1
100
AcDbSymbolTableRecord
100
AcDbBlockTableRecord
  2
SE7
  0
BLOCK_RECORD
  5
17A
330
1
100
AcDbSymbolTableRecord
100
AcDbBlockTableRecord
  2
SE8
  0
BLOCK_RECORD
  5
184
330
1
100
AcDbSymbolTableRecord
100
AcDbBlockTableRecord
  2
SE9
  0
BLOCK_RECORD
  5
18E
330
1
100
AcDbSymbolTableRecord
100
AcDbBlockTableRecord
  2
SE10
  0
BLOCK_RECORD
  5
198
330
1
100
AcDbSymbolTableRecord
100
AcDbBlockTableRecord
  2
SE11
  0
BLOCK_RECORD
  5
1A2
330
1
100
AcDbSymbolTableRecord
100
AcDbBlockTableRecord
  2
SE12
  0
BLOCK_RECORD
  5
1B0
330
1
100
AcDbSymbolTableRecord
100
AcDbBlockTableRecord
  2
SE13
  0
BLOCK_RECORD
  5
1BB
330
1
100
AcDbSymbolTableRecord
100
AcDbBlockTableRecord
  2
SE14
  0
BLOCK_RECORD
  5
1C5
330
1
100
AcDbSymbolTableRecord
100
AcDbBlockTableRecord
  2
SE15
  0
BLOCK_RECORD
  5
1CF
330
1
100
AcDbSymbolTableRecord
100
AcDbBlockTableRecord
  2
SE16
  0
BLOCK_RECORD
  5
1DE
330
1
100
AcDbSymbolTableRecord
100
AcDbBlockTableRecord
  2
SE17
  0
BLOCK_RECORD
  5
1ED
330
1
100
AcDbSymbolTableRecord
100
AcDbBlockTableRecord
  2
SE18
  0
BLOCK_RECORD
  5
1F7
330
1
100
AcDbSymbolTableRecord
100
AcDbBlockTableRecord
  2
SE19
  0
BLOCK_RECORD
  5
201
330
1
100
AcDbSymbolTableRecord
100
AcDbBlockTableRecord
  2
SE20
  0
ENDTAB
  0
ENDSEC
  0
SECTION
  2
BLOCKS
  0
BLOCK
  5
20
330
1F
100
AcDbEntity
  8
0
100
AcDbBlockBegin
  2
*MODEL_SPACE
 70
     0
 71
     0
 10
0.0
 20
0.0
 30
0.0
  3
*MODEL_SPACE
  1

  0
ENDBLK
  5
21
330
1F
100
AcDbEntity
  8
0
100
AcDbBlockEnd
  0
BLOCK
  5
1C
330
1B
100
AcDbEntity
 67
     1
  8
0
100
AcDbBlockBegin
  2
*PAPER_SPACE
 70
     0
 71
     0
 10
0.0
 20
0.0
 30
0.0
  3
*PAPER_SPACE
  1

  0
ENDBLK
  5
1D
330
1B
100
AcDbEntity
 67
     1
  8
0
100
AcDbBlockEnd
  0
BLOCK
  5
33
330
2E
100
AcDbEntity
  8
0
100
AcDbBlockBegin
  2
SE
 70
     0
 71
     0
 10
0.0
 20
0.0
 30
0.0
  3
SE
  1

  0
LINE
  5
32
330
2E
100
AcDbEntity
  8
STANDARD
  6
CENTER2
 62
     7
 48
25.4
100
AcDbLine
 10
94.8271589643
 20
58.4628469624
 30
0.0
 11
94.8271589643
 21
226.9723105397
 31
0.0
  0
ENDBLK
  5
34
330
2E
100
AcDbEntity
  8
0
100
AcDbBlockEnd
  0
BLOCK
  5
38
330
35
100
AcDbEntity
  8
0
100
AcDbBlockBegin
  2
SE1
 70
     0
 71
     0
 10
0.0
 20
0.0
 30
0.0
  3
SE1
  1

  0
LINE
  5
37
330
35
100
AcDbEntity
  8
STANDARD
  6
CENTER2
 62
     7
 48
25.4
100
AcDbLine
 10
55.3921616867
 20
262.4879254252
 30
0.0
 11
134.2457268486
 21
262.4879254252
 31
0.0
  0
ENDBLK
  5
39
330
35
100
AcDbEntity
  8
0
100
AcDbBlockEnd
  0
BLOCK
  5
3D
330
3A
100
AcDbEntity
  8
0
100
AcDbBlockBegin
  2
SE2
 70
     0
 71
     0
 10
0.0
 20
0.0
 30
0.0
  3
SE2
  1

  0
LINE
  5
3C
330
3A
100
AcDbEntity
  8
STANDARD
  6
CENTER2
 62
     7
 48
25.4
100
AcDbLine
 10
135.5928940921
 20
185.1993198536
 30
0.0
 11
54.3853530559
 21
185.1993198536
 31
0.0
  0
ENDBLK
  5
3E
330
3A
100
AcDbEntity
  8
0
100
AcDbBlockEnd
  0
BLOCK
  5
119
330
3F
100
AcDbEntity
  8
0
100
AcDbBlockBegin
  2
SE3
 70
     0
 71
     0
 10
0.0
 20
0.0
 30
0.0
  3
SE3
  1

  0
LINE
  5
42
330
3F
100
AcDbEntity
  8
MEGA_002895
  6
CONTINUOUS
 62
     7
 48
25.4
100
AcDbLine
 10
107.5407178326
 20
124.4493198536
 30
0.0
 11
109.5433868824
 21
124.4493198536
 31
0.0
  0
LINE
  5
43
330
3F
100
AcDbEntity
  8
MEGA_002895
  6
CONTINUOUS
 62
     7
 48
25.4
100
AcDbLine
 10
105.8271589643
 20
170.1993198536
 30
0.0
 11
102.8271589643
 21
170.1993198536
 31
0.0
  0
LINE
  5
45
330
3F
100
AcDbEntity
  8
MEGA_002895
  6
HIDDEN2
 62
     7
 48
25.4
100
AcDbLine
 10
128.3296047464
 20
188.3468362206
 30
0.0
 11
119.8221673434
 21
188.304369789
 31
0.0
  0
LINE
  5
46
330
3F
100
AcDbEntity
  8
MEGA_002895
  6
HIDDEN2
 62
     7
 48
25.4
100
AcDbLine
 10
90.6796423476
 20
214.7018156641
 30
0.0
 11
90.722109029
 21
206.1943282327
 31
0.0
  0
LINE
  5
47
330
3F
100
AcDbEntity
  8
MEGA_002895
  6
HIDDEN2
 62
     7
 48
25.4
100
AcDbLine
 10
98.9322088997
 20
206.1943282327
 30
0.0
 11
98.9746755811
 21
214.7018156641
 31
0.0
  0
LINE
  5
48
330
3F
100
AcDbEntity
  8
MEGA_002895
  6
HIDDEN2
 62
     7
 48
25.4
100
AcDbLine
 10
61.3692043444
 20
181.5520255724
 30
0.0
 11
69.8321505852
 21
181.5942699183
 31
0.0
  0
LINE
  5
49
330
3F
100
AcDbEntity
  8
MEGA_002895
  6
CONTINUOUS
 62
     7
 48
25.4
100
AcDbLine
 10
102.3771589643
 20
110.1993198536
 30
0.0
 11
87.2771589643
 21
110.1993198536
 31
0.0
  0
LINE
  5
4A
330
3F
100
AcDbEntity
  8
MEGA_002895
  6
CONTINUOUS
 62
     7
 48
25.4
100
AcDbLine
 10
87.7002476944
 20
130.1993198536
 30
0.0
 11
101.9540702342
 21
130.1993198536
 31
0.0
  0
LINE
  5
4B
330
3F
100
AcDbEntity
  8
MEGA_002895
  6
HIDDEN2
 62
     7
 48
25.4
100
AcDbLine
 10
69.8321505852
 20
188.804369789
 30
0.0
 11
61.3692043444
 21
188.8466141348
 31
0.0
  0
LINE
  5
4C
330
3F
100
AcDbEntity
  8
MEGA_002895
  6
HIDDEN2
 62
     7
 48
25.4
100
AcDbLine
 10
119.8221673434
 20
182.0942699183
 30
0.0
 11
128.3296047464
 21
182.0518034866
 31
0.0
  0
LINE
  5
4D
330
3F
100
AcDbEntity
  8
MEGA_002895
  6
CONTINUOUS
 62
     7
 48
25.4
100
AcDbLine
 10
96.3271589643
 20
70.1993198536
 30
0.0
 11
96.3271589643
 21
78.1993198536
 31
0.0
  0
LINE
  5
4E
330
3F
100
AcDbEntity
  8
MEGA_002895
  6
CONTINUOUS
 62
     7
 48
25.4
100
AcDbLine
 10
94.8271589643
 20
70.1993198536
 30
0.0
 11
94.8271589643
 21
78.1993198536
 31
0.0
  0
LINE
  5
4F
330
3F
100
AcDbEntity
  8
MEGA_002895
  6
CONTINUOUS
 62
     7
 48
25.4
100
AcDbLine
 10
102.8271589643
 20
170.5378820258
 30
0.0
 11
102.8271589643
 21
130.1993198536
 31
0.0
  0
LINE
  5
50
330
3F
100
AcDbEntity
  8
MEGA_002895
  6
CONTINUOUS
 62
     7
 48
25.4
100
AcDbLine
 10
107.5407178326
 20
115.9493198536
 30
0.0
 11
109.5433868824
 21
115.9493198536
 31
0.0
  0
LINE
  5
51
330
3F
100
AcDbEntity
  8
MEGA_002895
  6
CONTINUOUS
 62
     7
 48
25.4
100
AcDbLine
 10
86.4771589643
 20
129.3993198536
 30
0.0
 11
86.4771589643
 21
110.9993198536
 31
0.0
  0
LINE
  5
52
330
3F
100
AcDbEntity
  8
MEGA_002895
  6
CONTINUOUS
 62
     7
 48
25.4
100
AcDbLine
 10
86.8271589643
 20
130.1993198536
 30
0.0
 11
86.8271589643
 21
170.5378820258
 31
0.0
  0
LINE
  5
53
330
3F
100
AcDbEntity
  8
MEGA_002895
  6
CONTINUOUS
 62
     7
 48
25.4
100
AcDbLine
 10
109.6771589643
 20
115.9493198536
 30
0.0
 11
109.6771589643
 21
124.4493198536
 31
0.0
  0
LINE
  5
54
330
3F
100
AcDbEntity
  8
MEGA_002895
  6
CONTINUOUS
 62
     7
 48
25.4
100
AcDbLine
 10
91.0158649751
 20
215.1993198536
 30
0.0
 11
98.6384529535
 21
215.1993198536
 31
0.0
  0
LINE
  5
55
330
3F
100
AcDbEntity
  8
MEGA_002895
  6
CONTINUOUS
 62
     7
 48
25.4
100
AcDbLine
 10
103.1771589643
 20
110.9993198536
 30
0.0
 11
103.1771589643
 21
115.9493198536
 31
0.0
  0
LINE
  5
56
330
3F
100
AcDbEntity
  8
MEGA_002895
  6
CONTINUOUS
 62
     7
 48
25.4
100
AcDbLine
 10
83.8271589643
 20
200.1993198536
 30
0.0
 11
86.3603118534
 21
200.1993198536
 31
0.0
  0
LINE
  5
57
330
3F
100
AcDbEntity
  8
MEGA_002895
  6
CONTINUOUS
 62
     7
 48
25.4
100
AcDbLine
 10
94.8271589643
 20
70.1993198536
 30
0.0
 11
93.3271589643
 21
70.1993198536
 31
0.0
  0
LINE
  5
58
330
3F
100
AcDbEntity
  8
MEGA_002895
  6
CONTINUOUS
 62
     7
 48
25.4
100
AcDbLine
 10
96.3271589643
 20
70.1993198536
 30
0.0
 11
94.8271589643
 21
70.1993198536
 31
0.0
  0
LINE
  5
59
330
3F
100
AcDbEntity
  8
MEGA_002895
  6
CONTINUOUS
 62
     7
 48
25.4
100
AcDbLine
 10
93.3271589643
 20
70.1993198536
 30
0.0
 11
93.3271589643
 21
78.1993198536
 31
0.0
  0
LINE
  5
5A
330
3F
100
AcDbEntity
  8
MEGA_002895
  6
CONTINUOUS
 62
     7
 48
25.4
100
AcDbLine
 10
117.1526653354
 20
179.6993198536
 30
0.0
 11
127.8271589643
 21
179.6993198536
 31
0.0
  0
LINE
  5
5B
330
3F
100
AcDbEntity
  8
MEGA_002895
  6
CONTINUOUS
 62
     7
 48
25.4
100
AcDbLine
 10
97.3271589643
 20
165.1993198536
 30
0.0
 11
92.3271589643
 21
165.1993198536
 31
0.0
  0
ARC
  5
5C
330
3F
100
AcDbEntity
  8
MEGA_002895
  6
CONTINUOUS
 62
     7
 48
25.4
100
AcDbCircle
 10
92.3271589643
 20
162.1993198536
 30
0.0
 40
3.0
100
AcDbArc
 50
90.0
 51
180.0
  0
LINE
  5
5D
330
3F
100
AcDbEntity
  8
MEGA_002895
  6
CONTINUOUS
 62
     7
 48
25.4
100
AcDbLine
 10
92.3271589643
 20
135.1993198536
 30
0.0
 11
97.3271589643
 21
135.1993198536
 31
0.0
  0
ARC
  5
5E
330
3F
100
AcDbEntity
  8
MEGA_002895
  6
CONTINUOUS
 62
     7
 48
25.4
100
AcDbCircle
 10
92.3271589643
 20
138.1993198536
 30
0.0
 40
3.0
100
AcDbArc
 50
180.0
 51
270.0
  0
LINE
  5
5F
330
3F
100
AcDbEntity
  8
MEGA_002895
  6
CONTINUOUS
 62
     7
 48
25.4
100
AcDbLine
 10
89.3271589643
 20
162.1993198536
 30
0.0
 11
89.3271589643
 21
138.1993198536
 31
0.0
  0
ARC
  5
60
330
3F
100
AcDbEntity
  8
MEGA_002895
  6
CONTINUOUS
 62
     7
 48
25.4
100
AcDbCircle
 10
97.3271589643
 20
162.1993198536
 30
0.0
 40
3.0
100
AcDbArc
 50
0.0
 51
90.0
  0
LINE
  5
61
330
3F
100
AcDbEntity
  8
MEGA_002895
  6
CONTINUOUS
 62
     7
 48
25.4
100
AcDbLine
 10
100.3271589643
 20
138.1993198536
 30
0.0
 11
100.3271589643
 21
162.1993198536
 31
0.0
  0
ARC
  5
62
330
3F
100
AcDbEntity
  8
MEGA_002895
  6
CONTINUOUS
 62
     7
 48
25.4
100
AcDbCircle
 10
97.3271589643
 20
138.1993198536
 30
0.0
 40
3.0
100
AcDbArc
 50
270.0
 51
360.0
  0
LINE
  5
63
330
3F
100
AcDbEntity
  8
MEGA_002895
  6
CONTINUOUS
 62
     7
 48
25.4
100
AcDbLine
 10
101.8271589643
 20
201.6993198536
 30
0.0
 11
101.8271589643
 21
214.1993198536
 31
0.0
  0
ARC
  5
64
330
3F
100
AcDbEntity
  8
MEGA_002895
  6
HIDDEN2
 62
     7
 48
25.4
100
AcDbCircle
 10
71.6821883101
 20
177.4855769522
 30
0.0
 40
2.444477581700028
100
AcDbArc
 50
12.8623154341
 51
14.5679209933
  0
ARC
  5
65
330
3F
100
AcDbEntity
  8
MEGA_002895
  6
CONTINUOUS
 62
     7
 48
25.4
100
AcDbCircle
 10
100.2946924836
 20
109.6993198536
 30
0.0
 40
0.5
100
AcDbArc
 50
90.0
 51
176.1562166858
  0
ARC
  5
66
330
3F
100
AcDbEntity
  8
MEGA_002895
  6
CONTINUOUS
 62
     7
 48
25.4
100
AcDbCircle
 10
100.8271589643
 20
214.1993198536
 30
0.0
 40
1.0
100
AcDbArc
 50
0.0
 51
90.0
  0
ARC
  5
67
330
3F
100
AcDbEntity
  8
MEGA_002895
  6
CONTINUOUS
 62
     7
 48
25.4
100
AcDbCircle
 10
72.6037865775
 20
192.6981084851
 30
0.0
 40
1.497943307599996
100
AcDbArc
 50
269.8432324516
 51
344.5384706332
  0
LINE
  5
68
330
3F
100
AcDbEntity
  8
MEGA_002895
  6
CONTINUOUS
 62
     7
 48
25.4
100
AcDbLine
 10
72.5985937626
 20
191.1993198536
 30
0.0
 11
61.8271589643
 21
191.1993198536
 31
0.0
  0
LINE
  5
69
330
3F
100
AcDbEntity
  8
MEGA_002895
  6
HIDDEN2
 62
     7
 48
25.4
100
AcDbLine
 10
119.0271589643
 20
184.6513744018
 30
0.0
 11
118.8271589643
 21
184.6513744018
 31
0.0
  0
LINE
  5
6A
330
3F
100
AcDbEntity
  8
MEGA_002895
  6
HIDDEN2
 62
     7
 48
25.4
100
AcDbLine
 10
119.0271589643
 20
184.7954666208
 30
0.0
 11
118.8271589643
 21
184.7954666208
 31
0.0
  0
LINE
  5
6B
330
3F
100
AcDbEntity
  8
MEGA_002895
  6
HIDDEN2
 62
     7
 48
25.4
100
AcDbLine
 10
61.3692043444
 20
188.8466141348
 30
0.0
 11
61.3246631539
 21
188.8468364703
 31
0.0
  0
LINE
  5
6C
330
3F
100
AcDbEntity
  8
MEGA_002895
  6
CONTINUOUS
 62
     7
 48
25.4
100
AcDbLine
 10
128.8271589643
 20
187.8347833749
 30
0.0
 11
128.8270589076
 21
187.8509971764
 31
0.0
  0
LINE
  5
6D
330
3F
100
AcDbEntity
  8
MEGA_002895
  6
CONTINUOUS
 62
     7
 48
25.4
100
AcDbLine
 10
128.8271589643
 20
187.8347833749
 30
0.0
 11
128.8271589643
 21
182.5638563323
 31
0.0
  0
LINE
  5
6E
330
3F
100
AcDbEntity
  8
MEGA_002895
  6
CONTINUOUS
 62
     7
 48
25.4
100
AcDbLine
 10
128.8271589643
 20
188.8468302412
 30
0.0
 11
128.8271589643
 21
189.6993198536
 31
0.0
  0
LINE
  5
6F
330
3F
100
AcDbEntity
  8
MEGA_002895
  6
CONTINUOUS
 62
     7
 48
25.4
100
AcDbLine
 10
128.8271589643
 20
181.551809466
 30
0.0
 11
128.8271589643
 21
180.6993198536
 31
0.0
  0
LINE
  5
70
330
3F
100
AcDbEntity
  8
MEGA_002895
  6
CONTINUOUS
 62
     7
 48
25.4
100
AcDbLine
 10
86.4771589643
 20
110.9993198536
 30
0.0
 11
87.2771589643
 21
110.1993198536
 31
0.0
  0
ARC
  5
71
330
3F
100
AcDbEntity
  8
MEGA_002895
  6
HIDDEN2
 62
     7
 48
25.4
100
AcDbCircle
 10
128.3271589643
 20
188.8468302412
 30
0.0
 40
0.5
100
AcDbArc
 50
270.286
 51
360.0
  0
ELLIPSE
  5
72
330
3F
100
AcDbEntity
  8
MEGA_002895
  6
HIDDEN2
 62
     7
 48
25.4
100
AcDbEllipse
 10
128.3271089359
 20
188.8468299915
 30
0.0
 11
0.0024958103861383
 21
-0.499993770891702
 31
0.0
210
0.0
220
0.0
230
1.0
 40
0.9999654745
 41
0.0000000000001102
 42
0.4070484005359428
  0
ELLIPSE
  5
73
330
3F
100
AcDbEntity
  8
MEGA_002895
  6
HIDDEN2
 62
     7
 48
25.4
100
AcDbEllipse
 10
128.3271089359
 20
181.5518097157
 30
0.0
 11
-0.0024958103929454
 21
-0.4999937708909595
 31
0.0
210
0.0
220
0.0
230
1.0
 40
0.9999654745
 41
2.74905381595395
 42
3.141592653589769
  0
LINE
  5
74
330
3F
100
AcDbEntity
  8
MEGA_002895
  6
HIDDEN2
 62
     7
 48
25.4
100
AcDbLine
 10
94.4233740655
 20
205.4243198536
 30
0.0
 11
94.4233740655
 21
205.1743198536
 31
0.0
  0
LINE
  5
75
330
3F
100
AcDbEntity
  8
MEGA_002895
  6
HIDDEN2
 62
     7
 48
25.4
100
AcDbLine
 10
95.2935595149
 20
205.1743198536
 30
0.0
 11
95.2935595149
 21
205.4243198536
 31
0.0
  0
ARC
  5
76
330
3F
100
AcDbEntity
  8
MEGA_002895
  6
CONTINUOUS
 62
     7
 48
25.4
100
AcDbCircle
 10
128.3271589643
 20
181.551809466
 30
0.0
 40
0.5
100
AcDbArc
 50
0.0
 51
89.714
  0
LINE
  5
77
330
3F
100
AcDbEntity
  8
MEGA_002895
  6
HIDDEN2
 62
     7
 48
25.4
100
AcDbLine
 10
94.496840542
 20
205.3993198536
 30
0.0
 11
94.496840542
 21
205.1993198536
 31
0.0
  0
ARC
  5
78
330
3F
100
AcDbEntity
  8
MEGA_002895
  6
HIDDEN2
 62
     7
 48
25.4
100
AcDbCircle
 10
61.3271589643
 20
181.051809466
 30
0.0
 40
0.5
100
AcDbArc
 50
90.286
 51
180.0
  0
ARC
  5
79
330
3F
100
AcDbEntity
  8
MEGA_002895
  6
CONTINUOUS
 62
     7
 48
25.4
100
AcDbCircle
 10
61.3271589643
 20
189.3468302412
 30
0.0
 40
0.5
100
AcDbArc
 50
180.0
 51
269.714
  0
ARC
  5
7A
330
3F
100
AcDbEntity
  8
MEGA_002895
  6
CONTINUOUS
 62
     7
 48
25.4
100
AcDbCircle
 10
105.3198293182
 20
180.8353709776
 30
0.0
 40
3.986809733200005
100
AcDbArc
 50
229.1559642537
 51
243.9633449239
  0
ARC
  5
7B
330
3F
100
AcDbEntity
  8
MEGA_002895
  6
CONTINUOUS
 62
     7
 48
25.4
100
AcDbCircle
 10
84.3344960012
 20
180.8353597859
 30
0.0
 40
3.986796433099983
100
AcDbArc
 50
296.0366302388
 51
310.8440605836
  0
ARC
  5
7C
330
3F
100
AcDbEntity
  8
MEGA_002895
  6
CONTINUOUS
 62
     7
 48
25.4
100
AcDbCircle
 10
83.3271589643
 20
190.1993198536
 30
0.0
 40
3.0
100
AcDbArc
 50
90.0
 51
180.0
  0
ARC
  5
7D
330
3F
100
AcDbEntity
  8
MEGA_002895
  6
CONTINUOUS
 62
     7
 48
25.4
100
AcDbCircle
 10
37.5897517417
 20
186.7655422932
 30
0.0
 40
48.07071859029998
100
AcDbArc
 50
346.8716201507
 51
347.4870730705
  0
SPLINE
  5
7E
330
3F
100
AcDbEntity
  8
MEGA_002895
  6
CONTINUOUS
 62
     7
 48
25.4
100
AcDbSpline
210
0.0
220
0.0
230
1.0
 70
     8
 71
     3
 72
    17
 73
    13
 74
     0
 42
0.0000000001
 43
0.0000000001
 40
0.0
 40
0.0
 40
0.0
 40
0.0
 40
0.4999999999999978
 40
0.4999999999999978
 40
0.4999999999999978
 40
0.7499999999999957
 40
0.7499999999999957
 40
0.7499999999999957
 40
0.8749999999999979
 40
0.8749999999999979
 40
0.8749999999999979
 40
1.0
 40
1.0
 40
1.0
 40
1.0
 10
86.08448304313332
 20
177.253168954586
 30
0.0
 10
85.80758949934614
 20
177.117752608536
 30
0.0
 10
85.52585680500924
 20
176.9907938045517
 30
0.0
 10
85.24615639944771
 20
176.8619681909567
 30
0.0
 10
85.10630619666692
 20
176.7975553841592
 30
0.0
 10
84.96672613415323
 20
176.7330414599623
 30
0.0
 10
84.83497818378605
 20
176.6581838293235
 30
0.0
 10
84.76910420860246
 20
176.620755014004
 30
0.0
 10
84.70508029759589
 20
176.580885013134
 30
0.0
 10
84.64735371026421
 20
176.532549404596
 30
0.0
 10
84.58962712293256
 20
176.484213796058
 30
0.0
 10
84.53524483255725
 20
176.4253643878635
 30
0.0
 10
84.51865375000133
 20
176.3505462741339
 30
0.0
  0
ARC
  5
7F
330
3F
100
AcDbEntity
  8
MEGA_002895
  6
CONTINUOUS
 62
     7
 48
25.4
100
AcDbCircle
 10
152.064566183
 20
186.7655422923
 30
0.0
 40
48.07071858620003
100
AcDbArc
 50
192.5129269295
 51
193.1283798494
  0
ARC
  5
80
330
3F
100
AcDbEntity
  8
MEGA_002895
  6
CONTINUOUS
 62
     7
 48
25.4
100
AcDbCircle
 10
84.3271589643
 20
180.8464699553
 30
0.0
 40
4.0
100
AcDbArc
 50
180.0
 51
296.061205355
  0
ARC
  5
81
330
3F
100
AcDbEntity
  8
MEGA_002895
  6
CONTINUOUS
 62
     7
 48
25.4
100
AcDbCircle
 10
127.8271589643
 20
189.6993198536
 30
0.0
 40
1.0
100
AcDbArc
 50
0.0
 51
90.0
  0
ARC
  5
82
330
3F
100
AcDbEntity
  8
MEGA_002895
  6
CONTINUOUS
 62
     7
 48
25.4
100
AcDbCircle
 10
61.8271589643
 20
190.1993198536
 30
0.0
 40
1.0
100
AcDbArc
 50
90.0
 51
180.0
  0
ARC
  5
83
330
3F
100
AcDbEntity
  8
MEGA_002895
  6
CONTINUOUS
 62
     7
 48
25.4
100
AcDbCircle
 10
62.3991600485
 20
188.0451623504
 30
0.0
 40
1.569142473099987
100
AcDbArc
 50
163.9824200897
 51
181.9512158472
  0
SPLINE
  5
84
330
3F
100
AcDbEntity
  8
MEGA_002895
  6
HIDDEN2
 62
     7
 48
25.4
100
AcDbSpline
210
0.0
220
0.0
230
1.0
 70
     8
 71
     3
 72
    32
 73
    28
 74
     0
 42
0.0000000001
 43
0.0000000001
 40
0.0
 40
0.0
 40
0.0
 40
0.0
 40
0.1183734987160598
 40
0.1183734987160598
 40
0.1183734987160598
 40
0.2403068777753881
 40
0.2403068777753881
 40
0.2403068777753881
 40
0.3679048142239393
 40
0.3679048142239393
 40
0.3679048142239393
 40
0.5079391612585081
 40
0.5079391612585081
 40
0.5079391612585081
 40
0.6802472430714041
 40
0.6802472430714041
 40
0.6802472430714041
 40
0.8549019626182423
 40
0.8549019626182423
 40
0.8549019626182423
 40
0.9471902609198764
 40
0.9471902609198764
 40
0.9471902609198764
 40
0.9924692319108275
 40
0.9924692319108275
 40
0.9924692319108275
 40
1.0
 40
1.0
 40
1.0
 40
1.0
 10
61.36947116913915
 20
188.8472261267943
 30
0.0
 10
61.33743845182183
 20
188.8491211861929
 30
0.0
 10
61.31058483761387
 20
188.8506985627662
 30
0.0
 10
61.28616314312879
 20
188.855415617225
 30
0.0
 10
61.26100700798693
 20
188.860274529022
 30
0.0
 10
61.23843126364809
 20
188.8684647991135
 30
0.0
 10
61.22121197959768
 20
188.8759309368552
 30
0.0
 10
61.20319275361613
 20
188.8837439227366
 30
0.0
 10
61.19103922932867
 20
188.8907639326372
 30
0.0
 10
61.18158974385624
 20
188.8971187270664
 30
0.0
 10
61.17121925852737
 20
188.904092895405
 30
0.0
 10
61.16410560073188
 20
188.9102658577658
 30
0.0
 10
61.15786870784429
 20
188.9162673043102
 30
0.0
 10
61.15019439741487
 20
188.9236519050461
 30
0.0
 10
61.14384755881397
 20
188.930776821102
 30
0.0
 10
61.13501713443098
 20
188.9464208263067
 30
0.0
 10
61.12606644983237
 20
188.9622778848547
 30
0.0
 10
61.11456407165439
 20
188.9868876529892
 30
0.0
 10
61.11017520837903
 20
189.0194119216468
 30
0.0
 10
61.10785611431613
 20
189.0365978838453
 30
0.0
 10
61.10752319232365
 20
189.0559936621623
 30
0.0
 10
61.10828878321223
 20
189.0672224756021
 30
0.0
 10
61.10866440144635
 20
189.0727316151936
 30
0.0
 10
61.10930444617918
 20
189.0762748589226
 30
0.0
 10
61.10956518313188
 20
189.0774991203826
 30
0.0
 10
61.10960854872699
 20
189.0777027387275
 30
0.0
 10
61.10964142186504
 20
189.0778422091083
 30
0.0
 10
61.10965502381338
 20
189.0778941073722
 30
0.0
  0
SPLINE
  5
85
330
3F
100
AcDbEntity
  8
MEGA_002895
  6
CONTINUOUS
 62
     7
 48
25.4
100
AcDbSpline
210
0.0
220
0.0
230
1.0
 70
     8
 71
     3
 72
    26
 73
    22
 74
     0
 42
0.0000000001
 43
0.0000000001
 40
0.0
 40
0.0
 40
0.0
 40
0.0
 40
0.0230115417490583
 40
0.0230115417490583
 40
0.0230115417490583
 40
0.0559758847885313
 40
0.0559758847885313
 40
0.0559758847885313
 40
0.1184798015451805
 40
0.1184798015451805
 40
0.1184798015451805
 40
0.2141054011761782
 40
0.2141054011761782
 40
0.2141054011761782
 40
0.3933063236237007
 40
0.3933063236237007
 40
0.3933063236237007
 40
0.6513260770391541
 40
0.6513260770391541
 40
0.6513260770391541
 40
1.0
 40
1.0
 40
1.0
 40
1.0
 10
61.10965502381338
 20
189.0778941073722
 30
0.0
 10
61.10968810439865
 20
189.0780203264187
 30
0.0
 10
61.10960719868369
 20
189.0776285690578
 30
0.0
 10
61.10928602275833
 20
189.0763818739418
 30
0.0
 10
61.1088259339258
 20
189.0745959664212
 30
0.0
 10
61.10787278784857
 20
189.0710556455944
 30
0.0
 10
61.10670471942608
 20
189.0670978952272
 30
0.0
 10
61.10448993688489
 20
189.0595935776318
 30
0.0
 10
61.10150246097174
 20
189.0505885085036
 30
0.0
 10
61.09791646639678
 20
189.0405675238902
 30
0.0
 10
61.09243020410649
 20
189.0252362820692
 30
0.0
 10
61.08554302750058
 20
189.0075271519083
 30
0.0
 10
61.07815231867686
 20
188.9891997861778
 30
0.0
 10
61.06430224250619
 20
188.9548545809439
 30
0.0
 10
61.04868385226625
 20
188.9183382442168
 30
0.0
 10
61.03287665791562
 20
188.8806917691506
 30
0.0
 10
61.01011690683384
 20
188.8264870581432
 30
0.0
 10
60.98696574128304
 20
188.7699394294097
 30
0.0
 10
60.96661923507018
 20
188.7143065088026
 30
0.0
 10
60.93912406834012
 20
188.6391271924244
 30
0.0
 10
60.91675058988949
 20
188.565618257125
 30
0.0
 10
60.89033451831954
 20
188.4784340894796
 30
0.0
  0
ARC
  5
86
330
3F
100
AcDbEntity
  8
MEGA_002895
  6
CONTINUOUS
 62
     7
 48
25.4
100
AcDbCircle
 10
94.8271589643
 20
196.1993198536
 30
0.0
 40
20.0
100
AcDbArc
 50
246.7798956454
 51
293.2201043546
  0
ARC
  5
87
330
3F
100
AcDbEntity
  8
MEGA_002895
  6
CONTINUOUS
 62
     7
 48
25.4
100
AcDbCircle
 10
62.220291878
 20
182.3444458659
 30
0.0
 40
1.392151109700023
100
AcDbArc
 50
177.540653444
 51
197.6894435755
  0
LINE
  5
88
330
3F
100
AcDbEntity
  8
MEGA_002895
  6
CONTINUOUS
 62
     7
 48
25.4
100
AcDbLine
 10
60.8271589643
 20
181.051809466
 30
0.0
 11
60.8271589643
 21
180.1993198536
 31
0.0
  0
LINE
  5
89
330
3F
100
AcDbEntity
  8
MEGA_002895
  6
CONTINUOUS
 62
     7
 48
25.4
100
AcDbLine
 10
60.8271589643
 20
182.4068017096
 30
0.0
 11
60.8271589643
 21
187.9918379976
 31
0.0
  0
LINE
  5
8A
330
3F
100
AcDbEntity
  8
MEGA_002895
  6
CONTINUOUS
 62
     7
 48
25.4
100
AcDbLine
 10
100.8271589643
 20
215.1993198536
 30
0.0
 11
99.4611678257
 21
215.1993198536
 31
0.0
  0
LINE
  5
8B
330
3F
100
AcDbEntity
  8
MEGA_002895
  6
CONTINUOUS
 62
     7
 48
25.4
100
AcDbLine
 10
88.8271589643
 20
215.1993198536
 30
0.0
 11
90.1931501029
 21
215.1993198536
 31
0.0
  0
LINE
  5
8C
330
3F
100
AcDbEntity
  8
MEGA_002895
  6
HIDDEN2
 62
     7
 48
25.4
100
AcDbLine
 10
61.3246631539
 20
181.5518032369
 30
0.0
 11
61.3692043444
 21
181.5520255724
 31
0.0
  0
SPLINE
  5
8D
330
3F
100
AcDbEntity
  8
MEGA_002895
  6
CONTINUOUS
 62
     7
 48
25.4
100
AcDbSpline
210
0.0
220
0.0
230
1.0
 70
     8
 71
     3
 72
    26
 73
    22
 74
     0
 42
0.0000000001
 43
0.0000000001
 40
0.0
 40
0.0
 40
0.0
 40
0.0
 40
0.2801353605397078
 40
0.2801353605397078
 40
0.2801353605397078
 40
0.6037847100475534
 40
0.6037847100475534
 40
0.6037847100475534
 40
0.78566306366802
 40
0.78566306366802
 40
0.78566306366802
 40
0.8864185117785884
 40
0.8864185117785884
 40
0.8864185117785884
 40
0.9469530004482967
 40
0.9469530004482967
 40
0.9469530004482967
 40
0.9910201727131632
 40
0.9910201727131632
 40
0.9910201727131632
 40
1.0
 40
1.0
 40
1.0
 40
1.0
 10
60.89066715244229
 20
181.9203775683044
 30
0.0
 10
60.91141836107622
 20
181.8495567889476
 30
0.0
 10
60.92895234284407
 20
181.7896641285691
 30
0.0
 10
60.95038856013502
 20
181.7284372933523
 30
0.0
 10
60.97515450817076
 20
181.6576999706803
 30
0.0
 10
61.00512912918404
 20
181.5851818020328
 30
0.0
 10
61.03356935206239
 20
181.5169039138043
 30
0.0
 10
61.04955165179998
 20
181.478534394698
 30
0.0
 10
61.0650493881314
 20
181.4415039574612
 30
0.0
 10
61.07915496820343
 20
181.4061566014946
 30
0.0
 10
61.08696905939532
 20
181.3865751690753
 30
0.0
 10
61.09435591931572
 20
181.3675102483236
 30
0.0
 10
61.09987799359379
 20
181.351709345576
 30
0.0
 10
61.10319568955058
 20
181.3422160666884
 30
0.0
 10
61.10584025760135
 20
181.3339009937858
 30
0.0
 10
61.10749527573395
 20
181.3280825744225
 30
0.0
 10
61.1087000760181
 20
181.32384695116
 30
0.0
 10
61.10938047674408
 20
181.3209343981023
 30
0.0
 10
61.10955900632376
 20
181.3201064988813
 30
0.0
 10
61.10959538634781
 20
181.31993779298
 30
0.0
 10
61.10961092636652
 20
181.3198556515239
 30
0.0
 10
61.10960923045011
 20
181.3198591191867
 30
0.0
  0
SPLINE
  5
8E
330
3F
100
AcDbEntity
  8
MEGA_002895
  6
HIDDEN2
 62
     7
 48
25.4
100
AcDbSpline
210
0.0
220
0.0
230
1.0
 70
     8
 71
     3
 72
    32
 73
    28
 74
     0
 42
0.0000000001
 43
0.0000000001
 40
0.0
 40
0.0
 40
0.0
 40
0.0
 40
0.0262592910773341
 40
0.0262592910773341
 40
0.0262592910773341
 40
0.0672466632032942
 40
0.0672466632032942
 40
0.0672466632032942
 40
0.1219615993885569
 40
0.1219615993885569
 40
0.1219615993885569
 40
0.2904565783285856
 40
0.2904565783285856
 40
0.2904565783285856
 40
0.45644824555939
 40
0.45644824555939
 40
0.45644824555939
 40
0.6581493630379315
 40
0.6581493630379315
 40
0.6581493630379315
 40
0.7938474797380115
 40
0.7938474797380115
 40
0.7938474797380115
 40
0.930319212832929
 40
0.930319212832929
 40
0.930319212832929
 40
1.0
 40
1.0
 40
1.0
 40
1.0
 10
61.10960923045011
 20
181.3198591191867
 30
0.0
 10
61.10960308378854
 20
181.3198716873472
 30
0.0
 10
61.10937052244619
 20
181.3210088339666
 30
0.0
 10
61.10908313875174
 20
181.3232250752799
 30
0.0
 10
61.10863456980925
 20
181.3266843425983
 30
0.0
 10
61.10805243612749
 20
181.3327726288394
 30
0.0
 10
61.10783058815161
 20
181.3394901909726
 30
0.0
 10
61.10753443845446
 20
181.3484576110431
 30
0.0
 10
61.107880323717
 20
181.3585464109391
 30
0.0
 10
61.10888395004349
 20
181.3682793298924
 30
0.0
 10
61.11197462342322
 20
181.3982519130368
 30
0.0
 10
61.12130289060536
 20
181.4248495498919
 30
0.0
 10
61.13063494139603
 20
181.4435634620965
 30
0.0
 10
61.13982834691573
 20
181.461999343728
 30
0.0
 10
61.14902542445388
 20
181.4727840158481
 30
0.0
 10
61.15607273581081
 20
181.4805973402658
 30
0.0
 10
61.16463612094719
 20
181.490091529297
 30
0.0
 10
61.17002529896626
 20
181.4951984165334
 30
0.0
 10
61.18694011065723
 20
181.505011703782
 30
0.0
 10
61.19831985966157
 20
181.5116137723026
 30
0.0
 10
61.21491630844616
 20
181.5203460383124
 30
0.0
 10
61.23712188616087
 20
181.529064034053
 30
0.0
 10
61.2594540581084
 20
181.5378317311792
 30
0.0
 10
61.28745949669773
 20
181.5465849948625
 30
0.0
 10
61.31867713045835
 20
181.5487170658987
 30
0.0
 10
61.33461647001681
 20
181.5498056751273
 30
0.0
 10
61.35139322818445
 20
181.549168140818
 30
0.0
 10
61.37111943160228
 20
181.5484066073066
 30
0.0
  0
LINE
  5
8F
330
3F
100
AcDbEntity
  8
MEGA_002895
  6
CONTINUOUS
 62
     7
 48
25.4
100
AcDbLine
 10
60.8271589643
 20
189.3468302412
 30
0.0
 11
60.8271589643
 21
190.1993198536
 31
0.0
  0
SPLINE
  5
90
330
3F
100
AcDbEntity
  8
MEGA_002895
  6
HIDDEN2
 62
     7
 48
25.4
100
AcDbSpline
210
0.0
220
0.0
230
1.0
 70
     8
 71
     3
 72
    35
 73
    31
 74
     0
 42
0.0000000001
 43
0.0000000001
 40
0.0
 40
0.0
 40
0.0
 40
0.0
 40
0.055350893000966
 40
0.055350893000966
 40
0.055350893000966
 40
0.1839815355144273
 40
0.1839815355144273
 40
0.1839815355144273
 40
0.2911468608087189
 40
0.2911468608087189
 40
0.2911468608087189
 40
0.3748138001866717
 40
0.3748138001866717
 40
0.3748138001866717
 40
0.4303309193049558
 40
0.4303309193049558
 40
0.4303309193049558
 40
0.4874908335836001
 40
0.4874908335836001
 40
0.4874908335836001
 40
0.5794824733448596
 40
0.5794824733448596
 40
0.5794824733448596
 40
0.7585655365116444
 40
0.7585655365116444
 40
0.7585655365116444
 40
0.9663481845540971
 40
0.9663481845540971
 40
0.9663481845540971
 40
1.0
 40
1.0
 40
1.0
 40
1.0
 10
128.5195942611817
 20
182.0110303739789
 30
0.0
 10
128.5318275361148
 20
182.0066260599823
 30
0.0
 10
128.5422493737602
 20
182.0028155615669
 30
0.0
 10
128.5526195172751
 20
181.9981338688739
 30
0.0
 10
128.5767188253613
 20
181.9872540238251
 30
0.0
 10
128.6005389556678
 20
181.9716692329396
 30
0.0
 10
128.6227236206921
 20
181.9551088753009
 30
0.0
 10
128.6412062061585
 20
181.9413120374817
 30
0.0
 10
128.658553621313
 20
181.9268380624418
 30
0.0
 10
128.6746082548661
 20
181.9113119327496
 30
0.0
 10
128.6871425522104
 20
181.8991902530162
 30
0.0
 10
128.6988888529355
 20
181.8864272473946
 30
0.0
 10
128.7087763965156
 20
181.8746875362988
 30
0.0
 10
128.7153372667806
 20
181.8668976620168
 30
0.0
 10
128.7210797311868
 20
181.8595583416102
 30
0.0
 10
128.7259392912109
 20
181.8530567047218
 30
0.0
 10
128.730942649433
 20
181.8463626792911
 30
0.0
 10
128.7350100785208
 20
181.8405566462931
 30
0.0
 10
128.7385813905534
 20
181.8352390670683
 30
0.0
 10
128.7443289647779
 20
181.8266810970534
 30
0.0
 10
128.7487915549435
 20
181.819388262566
 30
0.0
 10
128.7523847933658
 20
181.8132021394313
 30
0.0
 10
128.759379865364
 20
181.8011594159516
 30
0.0
 10
128.7630802983452
 20
181.7933108686859
 30
0.0
 10
128.7654217128633
 20
181.7880009219477
 30
0.0
 10
128.7681383589834
 20
181.7818400110568
 30
0.0
 10
128.7690254947065
 20
181.7790965637139
 30
0.0
 10
128.769210351746
 20
181.7783620920189
 30
0.0
 10
128.7692402906029
 20
181.7782431393241
 30
0.0
 10
128.7692518086835
 20
181.778176882079
 30
0.0
 10
128.7692459711512
 20
181.7781748995095
 30
0.0
  0
SPLINE
  5
91
330
3F
100
AcDbEntity
  8
MEGA_002895
  6
CONTINUOUS
 62
     7
 48
25.4
100
AcDbSpline
210
0.0
220
0.0
230
1.0
 70
     8
 71
     3
 72
    26
 73
    22
 74
     0
 42
0.0000000001
 43
0.0000000001
 40
0.0
 40
0.0
 40
0.0
 40
0.0
 40
0.1272410657368068
 40
0.1272410657368068
 40
0.1272410657368068
 40
0.2715861927638545
 40
0.2715861927638545
 40
0.2715861927638545
 40
0.3867632315749321
 40
0.3867632315749321
 40
0.3867632315749321
 40
0.5143010731528643
 40
0.5143010731528643
 40
0.5143010731528643
 40
0.6789963935287156
 40
0.6789963935287156
 40
0.6789963935287156
 40
0.8740646322610105
 40
0.8740646322610105
 40
0.8740646322610105
 40
1.0
 40
1.0
 40
1.0
 40
1.0
 10
128.7692459711512
 20
181.7781748995095
 30
0.0
 10
128.7692079652463
 20
181.7781619917691
 30
0.0
 10
128.7684342885447
 20
181.7808735629678
 30
0.0
 10
128.7672188965655
 20
181.7895051575476
 30
0.0
 10
128.7658401285662
 20
181.7992970325909
 30
0.0
 10
128.7638929108187
 20
181.8167074709303
 30
0.0
 10
128.763752050956
 20
181.8424435645684
 30
0.0
 10
128.7636396549077
 20
181.862979117911
 30
0.0
 10
128.7646773476284
 20
181.8888155270438
 30
0.0
 10
128.7670204409964
 20
181.9188011113493
 30
0.0
 10
128.7696149952051
 20
181.9520047493336
 30
0.0
 10
128.7738101763898
 20
181.9902959301531
 30
0.0
 10
128.778702962272
 20
182.0308582959497
 30
0.0
 10
128.7850212355658
 20
182.0832382935051
 30
0.0
 10
128.7925028143811
 20
182.1394056537808
 30
0.0
 10
128.8001005285631
 20
182.1978492446459
 30
0.0
 10
128.8090994043082
 20
182.2670709341827
 30
0.0
 10
128.8182612003163
 20
182.3394858291715
 30
0.0
 10
128.8214820788751
 20
182.4087000700939
 30
0.0
 10
128.823561466726
 20
182.4533845402053
 30
0.0
 10
128.8231647110094
 20
182.4967349943089
 30
0.0
 10
128.8226989709783
 20
182.5476771358693
 30
0.0
  0
ARC
  5
92
330
3F
100
AcDbEntity
  8
MEGA_002895
  6
HIDDEN2
 62
     7
 48
25.4
100
AcDbCircle
 10
69.8271589643
 20
182.5942574601
 30
0.0
 40
1.0
100
AcDbArc
 50
270.286
 51
360.0
  0
ARC
  5
93
330
3F
100
AcDbEntity
  8
MEGA_002895
  6
HIDDEN2
 62
     7
 48
25.4
100
AcDbCircle
 10
69.8271589643
 20
187.8043822472
 30
0.0
 40
1.0
100
AcDbArc
 50
0.0
 51
89.714
  0
SPLINE
  5
94
330
3F
100
AcDbEntity
  8
MEGA_002895
  6
CONTINUOUS
 62
     7
 48
25.4
100
AcDbSpline
210
0.0
220
0.0
230
1.0
 70
     8
 71
     3
 72
    17
 73
    13
 74
     0
 42
0.0000000001
 43
0.0000000001
 40
0.0
 40
0.0
 40
0.0
 40
0.0
 40
0.1249999999999988
 40
0.1249999999999988
 40
0.1249999999999988
 40
0.2499999999999977
 40
0.2499999999999977
 40
0.2499999999999977
 40
0.4999999999999998
 40
0.4999999999999998
 40
0.4999999999999998
 40
1.0
 40
1.0
 40
1.0
 40
1.0
 10
105.13566417855
 20
176.3505462741339
 30
0.0
 10
105.1193173778102
 20
176.4242627897779
 30
0.0
 10
105.0673484587704
 20
176.4813984880199
 30
0.0
 10
105.0102070506592
 20
176.5298179413545
 30
0.0
 10
104.9530656425481
 20
176.5782373946891
 30
0.0
 10
104.8880418566762
 20
176.6190335493196
 30
0.0
 10
104.8218682212801
 20
176.6567450367405
 30
0.0
 10
104.6895209504879
 20
176.7321680115822
 30
0.0
 10
104.5496655439996
 20
176.7967814324141
 30
0.0
 10
104.4095724928986
 20
176.8613182620197
 30
0.0
 10
104.1293863906966
 20
176.9903919212308
 30
0.0
 10
103.8471827068707
 20
177.1175304414869
 30
0.0
 10
103.5698348854181
 20
177.253168954586
 30
0.0
  0
LINE
  5
95
330
3F
100
AcDbEntity
  8
MEGA_002895
  6
CONTINUOUS
 62
     7
 48
25.4
100
AcDbLine
 10
106.3271589643
 20
193.1993198536
 30
0.0
 11
83.3271589643
 21
193.1993198536
 31
0.0
  0
ARC
  5
96
330
3F
100
AcDbEntity
  8
MEGA_002895
  6
CONTINUOUS
 62
     7
 48
25.4
100
AcDbCircle
 10
106.3271589643
 20
190.1993198536
 30
0.0
 40
3.0
100
AcDbArc
 50
0.0
 51
90.0
  0
LINE
  5
97
330
3F
100
AcDbEntity
  8
MEGA_002895
  6
CONTINUOUS
 62
     7
 48
25.4
100
AcDbLine
 10
109.3271589643
 20
180.8464699553
 30
0.0
 11
109.3271589643
 21
190.1993198536
 31
0.0
  0
ARC
  5
98
330
3F
100
AcDbEntity
  8
MEGA_002895
  6
HIDDEN2
 62
     7
 48
25.4
100
AcDbCircle
 10
91.7220965708
 20
206.1993198536
 30
0.0
 40
1.0
100
AcDbArc
 50
180.286
 51
270.0
  0
ARC
  5
99
330
3F
100
AcDbEntity
  8
MEGA_002895
  6
HIDDEN2
 62
     7
 48
25.4
100
AcDbCircle
 10
97.9322213579
 20
206.1993198536
 30
0.0
 40
1.0
100
AcDbArc
 50
270.0
 51
359.714
  0
LINE
  5
9A
330
3F
100
AcDbEntity
  8
MEGA_002895
  6
CONTINUOUS
 62
     7
 48
25.4
100
AcDbLine
 10
103.1771589643
 20
129.3993198536
 30
0.0
 11
102.3771589643
 21
130.1993198536
 31
0.0
  0
ARC
  5
9B
330
3F
100
AcDbEntity
  8
MEGA_002895
  6
CONTINUOUS
 62
     7
 48
25.4
100
AcDbCircle
 10
124.1233652377
 20
171.8917468045
 30
0.0
 40
21.33919753589998
100
AcDbArc
 50
181.8594938816
 51
183.63757225
  0
LINE
  5
9C
330
3F
100
AcDbEntity
  8
MEGA_002895
  6
CONTINUOUS
 62
     7
 48
25.4
100
AcDbLine
 10
87.7002476944
 20
130.1993198536
 30
0.0
 11
86.8271589643
 21
130.1993198536
 31
0.0
  0
LINE
  5
9D
330
3F
100
AcDbEntity
  8
MEGA_002895
  6
CONTINUOUS
 62
     7
 48
25.4
100
AcDbLine
 10
86.8589131278
 20
171.1993198536
 30
0.0
 11
86.8589131278
 21
170.6993198536
 31
0.0
  0
LINE
  5
9E
330
3F
100
AcDbEntity
  8
MEGA_002895
  6
CONTINUOUS
 62
     7
 48
25.4
100
AcDbLine
 10
102.3771589643
 20
110.1993198536
 30
0.0
 11
103.1771589643
 21
110.9993198536
 31
0.0
  0
SPLINE
  5
9F
330
3F
100
AcDbEntity
  8
MEGA_002895
  6
CONTINUOUS
 62
     7
 48
25.4
100
AcDbSpline
210
0.0
220
0.0
230
1.0
 70
     8
 71
     3
 72
    17
 73
    13
 74
     0
 42
0.0000000001
 43
0.0000000001
 40
0.0
 40
0.0
 40
0.0
 40
0.0
 40
0.2499999999999994
 40
0.2499999999999994
 40
0.2499999999999994
 40
0.4999999999999989
 40
0.4999999999999989
 40
0.4999999999999989
 40
0.7499999999999994
 40
0.7499999999999994
 40
0.7499999999999994
 40
1.0
 40
1.0
 40
1.0
 40
1.0
 10
102.4885967920418
 20
170.1993198536276
 30
0.0
 10
102.5434795188971
 20
170.1993198536276
 30
0.0
 10
102.592038697802
 20
170.2061453731429
 30
0.0
 10
102.6338159774161
 20
170.2252678396868
 30
0.0
 10
102.6755932570301
 20
170.2443903062306
 30
0.0
 10
102.7087724583627
 20
170.2759233767594
 30
0.0
 10
102.7329691270962
 20
170.3204825174827
 30
0.0
 10
102.7571657958298
 20
170.365041658206
 30
0.0
 10
102.7726797111511
 20
170.4230272077219
 30
0.0
 10
102.7821153481834
 20
170.488225113879
 30
0.0
 10
102.7915509852156
 20
170.5534230200362
 30
0.0
 10
102.7954048008275
 20
170.6258440108165
 30
0.0
 10
102.7954048008276
 20
170.6993198536276
 30
0.0
  0
LINE
  5
A0
330
3F
100
AcDbEntity
  8
MEGA_002895
  6
CONTINUOUS
 62
     7
 48
25.4
100
AcDbLine
 10
86.8271589643
 20
170.1993198536
 30
0.0
 11
83.8271589643
 21
170.1993198536
 31
0.0
  0
ARC
  5
A1
330
3F
100
AcDbEntity
  8
MEGA_002895
  6
CONTINUOUS
 62
     7
 48
25.4
100
AcDbCircle
 10
127.8271589643
 20
180.6993198536
 30
0.0
 40
1.0
100
AcDbArc
 50
270.0
 51
360.0
  0
ARC
  5
A2
330
3F
100
AcDbEntity
  8
MEGA_002895
  6
CONTINUOUS
 62
     7
 48
25.4
100
AcDbCircle
 10
61.8271589643
 20
180.1993198536
 30
0.0
 40
1.0
100
AcDbArc
 50
180.0
 51
270.0
  0
ARC
  5
A3
330
3F
100
AcDbEntity
  8
MEGA_002895
  6
HIDDEN2
 62
     7
 48
25.4
100
AcDbCircle
 10
119.8271589643
 20
183.0942574601
 30
0.0
 40
1.0
100
AcDbArc
 50
180.0
 51
269.714
  0
ARC
  5
A4
330
3F
100
AcDbEntity
  8
MEGA_002895
  6
HIDDEN2
 62
     7
 48
25.4
100
AcDbCircle
 10
119.8271589643
 20
187.3043822472
 30
0.0
 40
1.0
100
AcDbArc
 50
90.286
 51
180.0
  0
LINE
  5
A5
330
3F
100
AcDbEntity
  8
MEGA_002895
  6
CONTINUOUS
 62
     7
 48
25.4
100
AcDbLine
 10
80.3271589643
 20
190.1993198536
 30
0.0
 11
80.3271589643
 21
180.8464699553
 31
0.0
  0
ARC
  5
A6
330
3F
100
AcDbEntity
  8
MEGA_002895
  6
CONTINUOUS
 62
     7
 48
25.4
100
AcDbCircle
 10
105.3271589643
 20
180.8464699553
 30
0.0
 40
4.0
100
AcDbArc
 50
243.938794645
 51
360.0
  0
LINE
  5
A7
330
3F
100
AcDbEntity
  8
MEGA_002895
  6
HIDDEN2
 62
     7
 48
25.4
100
AcDbLine
 10
70.6271589643
 20
185.4719375279
 30
0.0
 11
70.8271589643
 21
185.4719375279
 31
0.0
  0
LINE
  5
A8
330
3F
100
AcDbEntity
  8
MEGA_002895
  6
HIDDEN2
 62
     7
 48
25.4
100
AcDbLine
 10
70.6271589643
 20
185.7696271014
 30
0.0
 11
70.8271589643
 21
185.7696271014
 31
0.0
  0
LINE
  5
A9
330
3F
100
AcDbEntity
  8
MEGA_002895
  6
HIDDEN2
 62
     7
 48
25.4
100
AcDbLine
 10
70.6271589643
 20
184.792879471
 30
0.0
 11
70.8271589643
 21
184.792879471
 31
0.0
  0
LINE
  5
AA
330
3F
100
AcDbEntity
  8
MEGA_002895
  6
HIDDEN2
 62
     7
 48
25.4
100
AcDbLine
 10
70.6271589643
 20
185.9643842104
 30
0.0
 11
70.8271589643
 21
185.9643842104
 31
0.0
  0
LINE
  5
AB
330
3F
100
AcDbEntity
  8
MEGA_002895
  6
HIDDEN2
 62
     7
 48
25.4
100
AcDbLine
 10
70.6271589643
 20
184.4811199924
 30
0.0
 11
70.8271589643
 21
184.4811199924
 31
0.0
  0
LINE
  5
AC
330
3F
100
AcDbEntity
  8
MEGA_002895
  6
HIDDEN2
 62
     7
 48
25.4
100
AcDbLine
 10
95.4447720684
 20
205.3993198536
 30
0.0
 11
95.4447720684
 21
205.1993198536
 31
0.0
  0
LINE
  5
AD
330
3F
100
AcDbEntity
  8
MEGA_002895
  6
HIDDEN2
 62
     7
 48
25.4
100
AcDbLine
 10
70.6271589643
 20
185.9643842104
 30
0.0
 11
70.6271589643
 21
184.4811199924
 31
0.0
  0
LINE
  5
AE
330
3F
100
AcDbEntity
  8
MEGA_002895
  6
HIDDEN2
 62
     7
 48
25.4
100
AcDbLine
 10
94.5175252781
 20
205.3993198536
 30
0.0
 11
94.5175252781
 21
205.1993198536
 31
0.0
  0
LINE
  5
AF
330
3F
100
AcDbEntity
  8
MEGA_002895
  6
HIDDEN2
 62
     7
 48
25.4
100
AcDbLine
 10
95.1302214264
 20
205.3993198536
 30
0.0
 11
95.1302214264
 21
205.1993198536
 31
0.0
  0
LINE
  5
B0
330
3F
100
AcDbEntity
  8
MEGA_002895
  6
HIDDEN2
 62
     7
 48
25.4
100
AcDbLine
 10
95.0046864763
 20
205.3993198536
 30
0.0
 11
95.0046864763
 21
205.1993198536
 31
0.0
  0
LINE
  5
B1
330
3F
100
AcDbEntity
  8
MEGA_002895
  6
HIDDEN2
 62
     7
 48
25.4
100
AcDbLine
 10
95.1480530955
 20
205.3993198536
 30
0.0
 11
95.1480530955
 21
205.1993198536
 31
0.0
  0
LINE
  5
B2
330
3F
100
AcDbEntity
  8
MEGA_002895
  6
HIDDEN2
 62
     7
 48
25.4
100
AcDbLine
 10
95.2521900427
 20
205.3993198536
 30
0.0
 11
95.2521900427
 21
205.1993198536
 31
0.0
  0
LINE
  5
B3
330
3F
100
AcDbEntity
  8
MEGA_002895
  6
HIDDEN2
 62
     7
 48
25.4
100
AcDbLine
 10
95.4497649357
 20
205.3993198536
 30
0.0
 11
95.4497649357
 21
205.1993198536
 31
0.0
  0
LINE
  5
B4
330
3F
100
AcDbEntity
  8
MEGA_002895
  6
HIDDEN2
 62
     7
 48
25.4
100
AcDbLine
 10
95.3855709271
 20
205.3993198536
 30
0.0
 11
95.3855709271
 21
205.1993198536
 31
0.0
  0
LINE
  5
B5
330
3F
100
AcDbEntity
  8
MEGA_002895
  6
HIDDEN2
 62
     7
 48
25.4
100
AcDbLine
 10
94.4055423965
 20
205.3993198536
 30
0.0
 11
94.4055423965
 21
205.1993198536
 31
0.0
  0
LINE
  5
B6
330
3F
100
AcDbEntity
  8
MEGA_002895
  6
HIDDEN2
 62
     7
 48
25.4
100
AcDbLine
 10
94.8178105848
 20
205.3993198536
 30
0.0
 11
94.8178105848
 21
205.1993198536
 31
0.0
  0
LINE
  5
B7
330
3F
100
AcDbEntity
  8
MEGA_002895
  6
HIDDEN2
 62
     7
 48
25.4
100
AcDbLine
 10
94.6922756347
 20
205.3993198536
 30
0.0
 11
94.6922756347
 21
205.1993198536
 31
0.0
  0
LINE
  5
B8
330
3F
100
AcDbEntity
  8
MEGA_002895
  6
HIDDEN2
 62
     7
 48
25.4
100
AcDbLine
 10
94.5959846218
 20
205.3993198536
 30
0.0
 11
94.5959846218
 21
205.1993198536
 31
0.0
  0
LINE
  5
B9
330
3F
100
AcDbEntity
  8
MEGA_002895
  6
HIDDEN2
 62
     7
 48
25.4
100
AcDbLine
 10
95.1780102995
 20
205.3993198536
 30
0.0
 11
95.1780102995
 21
205.1993198536
 31
0.0
  0
LINE
  5
BA
330
3F
100
AcDbEntity
  8
MEGA_002895
  6
HIDDEN2
 62
     7
 48
25.4
100
AcDbLine
 10
94.6145295577
 20
205.3993198536
 30
0.0
 11
94.6145295577
 21
205.1993198536
 31
0.0
  0
LINE
  5
BB
330
3F
100
AcDbEntity
  8
MEGA_002895
  6
HIDDEN2
 62
     7
 48
25.4
100
AcDbLine
 10
94.5239446789
 20
205.3993198536
 30
0.0
 11
94.5239446789
 21
205.1993198536
 31
0.0
  0
LINE
  5
BC
330
3F
100
AcDbEntity
  8
MEGA_002895
  6
HIDDEN2
 62
     7
 48
25.4
100
AcDbLine
 10
94.8998362624
 20
205.3993198536
 30
0.0
 11
94.8998362624
 21
205.1993198536
 31
0.0
  0
LINE
  5
BD
330
3F
100
AcDbEntity
  8
MEGA_002895
  6
CONTINUOUS
 62
     7
 48
25.4
100
AcDbLine
 10
87.2771589643
 20
130.1993198536
 30
0.0
 11
86.4771589643
 21
129.3993198536
 31
0.0
  0
LINE
  5
BE
330
3F
100
AcDbEntity
  8
MEGA_002895
  6
CONTINUOUS
 62
     7
 48
25.4
100
AcDbLine
 10
103.1771589643
 20
124.4493198536
 30
0.0
 11
103.1771589643
 21
129.3993198536
 31
0.0
  0
LINE
  5
BF
330
3F
100
AcDbEntity
  8
MEGA_002895
  6
HIDDEN2
 62
     7
 48
25.4
100
AcDbLine
 10
94.6501928957
 20
205.3993198536
 30
0.0
 11
94.6501928957
 21
205.1993198536
 31
0.0
  0
LINE
  5
C0
330
3F
100
AcDbEntity
  8
MEGA_002895
  6
HIDDEN2
 62
     7
 48
25.4
100
AcDbLine
 10
94.2685951782
 20
205.3993198536
 30
0.0
 11
94.2685951782
 21
205.1993198536
 31
0.0
  0
LINE
  5
C1
330
3F
100
AcDbEntity
  8
MEGA_002895
  6
HIDDEN2
 62
     7
 48
25.4
100
AcDbLine
 10
94.2101073037
 20
205.3993198536
 30
0.0
 11
94.4055423965
 21
205.3993198536
 31
0.0
  0
ARC
  5
C2
330
3F
100
AcDbEntity
  8
MEGA_002895
  6
CONTINUOUS
 62
     7
 48
25.4
100
AcDbCircle
 10
89.359625445
 20
109.6993198536
 30
0.0
 40
0.5
100
AcDbArc
 50
3.8437833142
 51
90.0
  0
LINE
  5
C3
330
3F
100
AcDbEntity
  8
MEGA_002895
  6
HIDDEN2
 62
     7
 48
25.4
100
AcDbLine
 10
94.1330744935
 20
205.3993198536
 30
0.0
 11
94.2685951782
 21
205.3993198536
 31
0.0
  0
LINE
  5
C4
330
3F
100
AcDbEntity
  8
MEGA_002895
  6
HIDDEN2
 62
     7
 48
25.4
100
AcDbLine
 10
95.3855709271
 20
205.3993198536
 30
0.0
 11
94.4055423965
 21
205.3993198536
 31
0.0
  0
LINE
  5
C5
330
3F
100
AcDbEntity
  8
MEGA_002895
  6
HIDDEN2
 62
     7
 48
25.4
100
AcDbLine
 10
95.5703070184
 20
205.3993198536
 30
0.0
 11
95.3855709271
 21
205.3993198536
 31
0.0
  0
LINE
  5
C6
330
3F
100
AcDbEntity
  8
MEGA_002895
  6
HIDDEN2
 62
     7
 48
25.4
100
AcDbLine
 10
95.5203783451
 20
205.3993198536
 30
0.0
 11
95.6608918972
 21
205.3993198536
 31
0.0
  0
LINE
  5
C7
330
3F
100
AcDbEntity
  8
MEGA_002895
  6
HIDDEN2
 62
     7
 48
25.4
100
AcDbLine
 10
119.0271589643
 20
185.6412879465
 30
0.0
 11
119.0271589643
 21
185.8444579753
 31
0.0
  0
LINE
  5
C8
330
3F
100
AcDbEntity
  8
MEGA_002895
  6
HIDDEN2
 62
     7
 48
25.4
100
AcDbLine
 10
119.0271589643
 20
184.3458988975
 30
0.0
 11
119.0271589643
 21
184.5793282923
 31
0.0
  0
LINE
  5
C9
330
3F
100
AcDbEntity
  8
MEGA_002895
  6
HIDDEN2
 62
     7
 48
25.4
100
AcDbLine
 10
119.0271589643
 20
184.5793282923
 30
0.0
 11
119.0271589643
 21
185.7090112894
 31
0.0
  0
LINE
  5
CA
330
3F
100
AcDbEntity
  8
MEGA_002895
  6
HIDDEN2
 62
     7
 48
25.4
100
AcDbLine
 10
119.0271589643
 20
184.796907543
 30
0.0
 11
118.8271589643
 21
184.796907543
 31
0.0
  0
LINE
  5
CB
330
3F
100
AcDbEntity
  8
MEGA_002895
  6
HIDDEN2
 62
     7
 48
25.4
100
AcDbLine
 10
119.0271589643
 20
184.6427288687
 30
0.0
 11
118.8271589643
 21
184.6427288687
 31
0.0
  0
LINE
  5
CC
330
3F
100
AcDbEntity
  8
MEGA_002895
  6
HIDDEN2
 62
     7
 48
25.4
100
AcDbLine
 10
119.0271589643
 20
185.6643427015
 30
0.0
 11
118.8271589643
 21
185.6643427015
 31
0.0
  0
LINE
  5
CD
330
3F
100
AcDbEntity
  8
MEGA_002895
  6
HIDDEN2
 62
     7
 48
25.4
100
AcDbLine
 10
119.0271589643
 20
185.7090112894
 30
0.0
 11
118.8271589643
 21
185.7090112894
 31
0.0
  0
LINE
  5
CE
330
3F
100
AcDbEntity
  8
MEGA_002895
  6
HIDDEN2
 62
     7
 48
25.4
100
AcDbLine
 10
119.0271589643
 20
185.448204373
 30
0.0
 11
118.8271589643
 21
185.448204373
 31
0.0
  0
LINE
  5
CF
330
3F
100
AcDbEntity
  8
MEGA_002895
  6
HIDDEN2
 62
     7
 48
25.4
100
AcDbLine
 10
119.0271589643
 20
185.6412879465
 30
0.0
 11
118.8271589643
 21
185.6412879465
 31
0.0
  0
LINE
  5
D0
330
3F
100
AcDbEntity
  8
MEGA_002895
  6
HIDDEN2
 62
     7
 48
25.4
100
AcDbLine
 10
119.0271589643
 20
184.5706827592
 30
0.0
 11
118.8271589643
 21
184.5706827592
 31
0.0
  0
LINE
  5
D1
330
3F
100
AcDbEntity
  8
MEGA_002895
  6
HIDDEN2
 62
     7
 48
25.4
100
AcDbLine
 10
119.0271589643
 20
184.5793282923
 30
0.0
 11
118.8271589643
 21
184.5793282923
 31
0.0
  0
ARC
  5
D2
330
3F
100
AcDbEntity
  8
MEGA_002895
  6
CONTINUOUS
 62
     7
 48
25.4
100
AcDbCircle
 10
117.2063980311
 20
192.1668789356
 30
0.0
 40
1.548089506700023
100
AcDbArc
 50
189.7987922514
 51
213.4127862561
  0
LINE
  5
D3
330
3F
100
AcDbEntity
  8
MEGA_002895
  6
CONTINUOUS
 62
     7
 48
25.4
100
AcDbLine
 10
97.209625445
 20
78.1993198536
 30
0.0
 11
92.4446924836
 21
78.1993198536
 31
0.0
  0
LINE
  5
D4
330
3F
100
AcDbEntity
  8
MEGA_002895
  6
CONTINUOUS
 62
     7
 48
25.4
100
AcDbLine
 10
91.9458172172
 20
78.6658016716
 30
0.0
 11
89.8585007115
 21
109.7328380356
 31
0.0
  0
LINE
  5
D5
330
3F
100
AcDbEntity
  8
MEGA_002895
  6
CONTINUOUS
 62
     7
 48
25.4
100
AcDbLine
 10
99.7958172172
 20
109.7328380356
 30
0.0
 11
97.7085007115
 21
78.6658016716
 31
0.0
  0
ELLIPSE
  5
D6
330
3F
100
AcDbEntity
  8
MEGA_002895
  6
HIDDEN2
 62
     7
 48
25.4
100
AcDbEllipse
 10
128.3271089359
 20
188.8468299915
 30
0.0
 11
0.002495810488806201
 21
-0.4999937708919033
 31
0.0
210
0.0
220
0.0
230
1.0
 40
0.9999654745
 41
0.0
 42
0.6085618386301755
  0
ARC
  5
D7
330
3F
100
AcDbEntity
  8
MEGA_002895
  6
HIDDEN2
 62
     7
 48
25.4
100
AcDbCircle
 10
90.1796485767
 20
214.6993198536
 30
0.0
 40
0.5
100
AcDbArc
 50
0.286
 51
90.0
  0
ARC
  5
D8
330
3F
100
AcDbEntity
  8
MEGA_002895
  6
HIDDEN2
 62
     7
 48
25.4
100
AcDbCircle
 10
99.4746693519
 20
214.6993198536
 30
0.0
 40
0.5
100
AcDbArc
 50
90.0
 51
179.714
  0
ARC
  5
D9
330
3F
100
AcDbEntity
  8
MEGA_002895
  6
CONTINUOUS
 62
     7
 48
25.4
100
AcDbCircle
 10
92.4446924836
 20
78.6993198536
 30
0.0
 40
0.5
100
AcDbArc
 50
183.8437833142
 51
270.0
  0
ARC
  5
DA
330
3F
100
AcDbEntity
  8
MEGA_002895
  6
CONTINUOUS
 62
     7
 48
25.4
100
AcDbCircle
 10
97.209625445
 20
78.6993198536
 30
0.0
 40
0.5
100
AcDbArc
 50
270.0
 51
356.1562166858
  0
LINE
  5
DB
330
3F
100
AcDbEntity
  8
MEGA_002895
  6
CONTINUOUS
 62
     7
 48
25.4
100
AcDbLine
 10
103.2940060753
 20
200.1993198536
 30
0.0
 11
105.8271589643
 21
200.1993198536
 31
0.0
  0
ARC
  5
DC
330
3F
100
AcDbEntity
  8
MEGA_002895
  6
CONTINUOUS
 62
     7
 48
25.4
100
AcDbCircle
 10
105.8271589643
 20
190.1993198536
 30
0.0
 40
10.0
100
AcDbArc
 50
9.8116099019
 51
90.0
  0
LINE
  5
DD
330
3F
100
AcDbEntity
  8
MEGA_002895
  6
HIDDEN2
 62
     7
 48
25.4
100
AcDbLine
 10
94.2101073037
 20
205.4243198536
 30
0.0
 11
94.2101073037
 21
205.1743198536
 31
0.0
  0
LINE
  5
DE
330
3F
100
AcDbEntity
  8
MEGA_002895
  6
CONTINUOUS
 62
     7
 48
25.4
100
AcDbLine
 10
74.0661410869
 20
178.0259321016
 30
0.0
 11
74.0590902419
 21
178.0580974377
 31
0.0
  0
LINE
  5
DF
330
3F
100
AcDbEntity
  8
MEGA_002895
  6
CONTINUOUS
 62
     7
 48
25.4
100
AcDbLine
 10
74.0662744061
 20
192.3733157959
 30
0.0
 11
74.0590902419
 21
192.3405422695
 31
0.0
  0
ARC
  5
E0
330
3F
100
AcDbEntity
  8
MEGA_002895
  6
CONTINUOUS
 62
     7
 48
25.4
100
AcDbCircle
 10
79.9349927125
 20
181.2409786402
 30
0.0
 40
7.61172865330002
100
AcDbArc
 50
192.679288656
 51
195.5586826816
  0
LINE
  5
E1
330
3F
100
AcDbEntity
  8
MEGA_002895
  6
HIDDEN2
 62
     7
 48
25.4
100
AcDbLine
 10
94.1330744935
 20
205.4243198536
 30
0.0
 11
94.1330744935
 21
205.1743198536
 31
0.0
  0
LINE
  5
E2
330
3F
100
AcDbEntity
  8
MEGA_002895
  6
HIDDEN2
 62
     7
 48
25.4
100
AcDbLine
 10
95.5703070184
 20
205.1993198536
 30
0.0
 11
95.5703070184
 21
205.3993198536
 31
0.0
  0
LINE
  5
E3
330
3F
100
AcDbEntity
  8
MEGA_002895
  6
HIDDEN2
 62
     7
 48
25.4
100
AcDbLine
 10
95.3670259913
 20
205.1743198536
 30
0.0
 11
95.3670259913
 21
205.4243198536
 31
0.0
  0
LINE
  5
E4
330
3F
100
AcDbEntity
  8
MEGA_002895
  6
CONTINUOUS
 62
     7
 48
25.4
100
AcDbLine
 10
92.9772043102
 20
130.6993198536
 30
0.0
 11
92.9772043102
 21
133.5357909438
 31
0.0
  0
LINE
  5
E5
330
3F
100
AcDbEntity
  8
MEGA_002895
  6
CONTINUOUS
 62
     7
 48
25.4
100
AcDbLine
 10
93.4481823154
 20
134.1993198536
 30
0.0
 11
96.2061356133
 21
134.1993198536
 31
0.0
  0
LINE
  5
E6
330
3F
100
AcDbEntity
  8
MEGA_002895
  6
HIDDEN2
 62
     7
 48
25.4
100
AcDbLine
 10
95.6608918972
 20
205.1743198536
 30
0.0
 11
95.6608918972
 21
205.4243198536
 31
0.0
  0
LINE
  5
E7
330
3F
100
AcDbEntity
  8
MEGA_002895
  6
CONTINUOUS
 62
     7
 48
25.4
100
AcDbLine
 10
109.5433868824
 20
124.4493198536
 30
0.0
 11
109.6771589643
 21
124.4493198536
 31
0.0
  0
LINE
  5
E8
330
3F
100
AcDbEntity
  8
MEGA_002895
  6
CONTINUOUS
 62
     7
 48
25.4
100
AcDbLine
 10
102.600933129
 20
124.4493198536
 30
0.0
 11
105.3419080026
 21
124.4493198536
 31
0.0
  0
LINE
  5
E9
330
3F
100
AcDbEntity
  8
MEGA_002895
  6
CONTINUOUS
 62
     7
 48
25.4
100
AcDbLine
 10
105.3419080026
 20
124.4493198536
 30
0.0
 11
107.5407178326
 21
124.4493198536
 31
0.0
  0
LINE
  5
EA
330
3F
100
AcDbEntity
  8
MEGA_002895
  6
CONTINUOUS
 62
     7
 48
25.4
100
AcDbLine
 10
109.5433868824
 20
115.9493198536
 30
0.0
 11
109.6771589643
 21
115.9493198536
 31
0.0
  0
LINE
  5
EB
330
3F
100
AcDbEntity
  8
MEGA_002895
  6
CONTINUOUS
 62
     7
 48
25.4
100
AcDbLine
 10
102.600933129
 20
115.9493198536
 30
0.0
 11
105.3419080026
 21
115.9493198536
 31
0.0
  0
LINE
  5
EC
330
3F
100
AcDbEntity
  8
MEGA_002895
  6
CONTINUOUS
 62
     7
 48
25.4
100
AcDbLine
 10
105.3419080026
 20
115.9493198536
 30
0.0
 11
107.5407178326
 21
115.9493198536
 31
0.0
  0
LINE
  5
ED
330
3F
100
AcDbEntity
  8
MEGA_002895
  6
HIDDEN2
 62
     7
 48
25.4
100
AcDbLine
 10
119.0271589643
 20
185.8444579753
 30
0.0
 11
118.8271589643
 21
185.8444579753
 31
0.0
  0
LINE
  5
EE
330
3F
100
AcDbEntity
  8
MEGA_002895
  6
CONTINUOUS
 62
     7
 48
25.4
100
AcDbLine
 10
103.1771589643
 20
129.3993198536
 30
0.0
 11
86.4771589643
 21
129.3993198536
 31
0.0
  0
LINE
  5
EF
330
3F
100
AcDbEntity
  8
MEGA_002895
  6
HIDDEN2
 62
     7
 48
25.4
100
AcDbLine
 10
119.0521589643
 20
185.5476280041
 30
0.0
 11
118.8021589643
 21
185.5476280041
 31
0.0
  0
LINE
  5
F0
330
3F
100
AcDbEntity
  8
MEGA_002895
  6
CONTINUOUS
 62
     7
 48
25.4
100
AcDbLine
 10
86.4771589643
 20
110.9993198536
 30
0.0
 11
103.1771589643
 21
110.9993198536
 31
0.0
  0
LINE
  5
F1
330
3F
100
AcDbEntity
  8
MEGA_002895
  6
HIDDEN2
 62
     7
 48
25.4
100
AcDbLine
 10
118.8021589643
 20
184.3458988975
 30
0.0
 11
119.0521589643
 21
184.3458988975
 31
0.0
  0
LINE
  5
F2
330
3F
100
AcDbEntity
  8
MEGA_002895
  6
CONTINUOUS
 62
     7
 48
25.4
100
AcDbLine
 10
96.6771136184
 20
130.6993198536
 30
0.0
 11
96.6771136184
 21
133.5357909438
 31
0.0
  0
ELLIPSE
  5
F3
330
3F
100
AcDbEntity
  8
MEGA_002895
  6
CONTINUOUS
 62
     7
 48
25.4
100
AcDbEllipse
 10
96.1752036996
 20
133.4922130724
 30
0.0
 11
-0.06174623417555181
 21
-0.7057626861251066
 31
0.0
210
0.0
220
0.0
230
1.0
 40
0.7057575568
 41
1.694131316724691
 42
3.203260148554342
  0
ELLIPSE
  5
F4
330
3F
100
AcDbEntity
  8
MEGA_002895
  6
CONTINUOUS
 62
     7
 48
25.4
100
AcDbEllipse
 10
93.479114229
 20
133.4922130724
 30
0.0
 11
0.06174623417555181
 21
-0.7057626861251066
 31
0.0
210
0.0
220
0.0
230
1.0
 40
0.7057575568
 41
3.079925158625358
 42
4.589053990454895
  0
ELLIPSE
  5
F5
330
3F
100
AcDbEntity
  8
MEGA_002895
  6
CONTINUOUS
 62
     7
 48
25.4
100
AcDbEllipse
 10
97.1790235372
 20
130.6993198536
 30
0.0
 11
-0.5019099187716737
 21
0.0
 31
0.0
210
0.0
220
0.0
230
1.0
 40
0.9961946981
 41
0.0
 42
1.570796326794897
  0
ELLIPSE
  5
F6
330
3F
100
AcDbEntity
  8
MEGA_002895
  6
CONTINUOUS
 62
     7
 48
25.4
100
AcDbEllipse
 10
92.4752943914
 20
130.6993198536
 30
0.0
 11
0.5019099187716737
 21
0.0
 31
0.0
210
0.0
220
0.0
230
1.0
 40
0.9961946981
 41
4.71238898038469
 42
6.283185307179586
  0
LINE
  5
F7
330
3F
100
AcDbEntity
  8
MEGA_002895
  6
CONTINUOUS
 62
     7
 48
25.4
100
AcDbLine
 10
127.8271589643
 20
190.6993198536
 30
0.0
 11
117.1526653354
 21
190.6993198536
 31
0.0
  0
LINE
  5
F8
330
3F
100
AcDbEntity
  8
MEGA_002895
  6
HIDDEN2
 62
     7
 48
25.4
100
AcDbLine
 10
91.7220965708
 20
205.1993198536
 30
0.0
 11
97.9322213579
 21
205.1993198536
 31
0.0
  0
LINE
  5
F9
330
3F
100
AcDbEntity
  8
MEGA_002895
  6
CONTINUOUS
 62
     7
 48
25.4
100
AcDbLine
 10
87.8271589643
 20
214.1993198536
 30
0.0
 11
87.8271589643
 21
201.6993198536
 31
0.0
  0
LINE
  5
FA
330
3F
100
AcDbEntity
  8
MEGA_002895
  6
HIDDEN2
 62
     7
 48
25.4
100
AcDbLine
 10
118.8271589643
 20
187.3043822472
 30
0.0
 11
118.8271589643
 21
183.0942574601
 31
0.0
  0
LINE
  5
FB
330
3F
100
AcDbEntity
  8
MEGA_002895
  6
HIDDEN2
 62
     7
 48
25.4
100
AcDbLine
 10
70.8271589643
 20
182.5942574601
 30
0.0
 11
70.8271589643
 21
187.8043822472
 31
0.0
  0
LINE
  5
FC
330
3F
100
AcDbEntity
  8
MEGA_002895
  6
HIDDEN2
 62
     7
 48
25.4
100
AcDbLine
 10
115.6748155497
 20
191.9385529104
 30
0.0
 11
115.6808928496
 21
191.9034115523
 31
0.0
  0
LINE
  5
FD
330
3F
100
AcDbEntity
  8
MEGA_002895
  6
CONTINUOUS
 62
     7
 48
25.4
100
AcDbLine
 10
115.6784613992
 20
178.4811685442
 30
0.0
 11
115.6808928496
 21
178.4952281549
 31
0.0
  0
ARC
  5
FE
330
3F
100
AcDbEntity
  8
MEGA_002895
  6
CONTINUOUS
 62
     7
 48
25.4
100
AcDbCircle
 10
117.1419396512
 20
178.2077285327
 30
0.0
 40
1.486989115500023
100
AcDbArc
 50
89.5739718924
 51
167.5440425077
  0
ARC
  5
FF
330
3F
100
AcDbEntity
  8
MEGA_002895
  6
HIDDEN2
 62
     7
 48
25.4
100
AcDbCircle
 10
72.6140016661
 20
177.7079668875
 30
0.0
 40
1.486074679299975
100
AcDbArc
 50
15.2449753258
 51
90.5980297085
  0
LINE
  5
100
330
3F
100
AcDbEntity
  8
MEGA_002895
  6
CONTINUOUS
 62
     7
 48
25.4
100
AcDbLine
 10
74.0590902419
 20
178.0580974377
 30
0.0
 11
73.851221477
 21
178.5598652574
 31
0.0
  0
ARC
  5
101
330
3F
100
AcDbEntity
  8
MEGA_002895
  6
CONTINUOUS
 62
     7
 48
25.4
100
AcDbCircle
 10
71.4725050128
 20
176.7965196461
 30
0.0
 40
2.961026808700012
100
AcDbArc
 50
36.54958839
 51
69.5122788754
  0
ARC
  5
102
330
3F
100
AcDbEntity
  8
MEGA_002895
  6
CONTINUOUS
 62
     7
 48
25.4
100
AcDbCircle
 10
83.8271589643
 20
180.1993198536
 30
0.0
 40
10.0
100
AcDbArc
 50
192.3640362532
 51
270.0
  0
ARC
  5
103
330
3F
100
AcDbEntity
  8
MEGA_002895
  6
CONTINUOUS
 62
     7
 48
25.4
100
AcDbCircle
 10
65.5020479854
 20
171.8931344553
 30
0.0
 40
21.36813205240003
100
AcDbArc
 50
356.3636316914
 51
358.1393021769
  0
ARC
  5
104
330
3F
100
AcDbEntity
  8
MEGA_002895
  6
CONTINUOUS
 62
     7
 48
25.4
100
AcDbCircle
 10
105.8271589643
 20
180.1993198536
 30
0.0
 40
10.0
100
AcDbArc
 50
270.0
 51
350.1883900981
  0
ARC
  5
105
330
3F
100
AcDbEntity
  8
MEGA_002895
  6
CONTINUOUS
 62
     7
 48
25.4
100
AcDbCircle
 10
117.2064829708
 20
178.2317271317
 30
0.0
 40
1.54817893249998
100
AcDbArc
 50
146.5879055584
 51
170.200515934
  0
LINE
  5
106
330
3F
100
AcDbEntity
  8
MEGA_002895
  6
CONTINUOUS
 62
     7
 48
25.4
100
AcDbLine
 10
102.8271589643
 20
130.1993198536
 30
0.0
 11
101.9540702342
 21
130.1993198536
 31
0.0
  0
LINE
  5
107
330
3F
100
AcDbEntity
  8
MEGA_002895
  6
CONTINUOUS
 62
     7
 48
25.4
100
AcDbLine
 10
102.7954048009
 20
170.6993198536
 30
0.0
 11
102.7954048009
 21
171.1993198536
 31
0.0
  0
SPLINE
  5
108
330
3F
100
AcDbEntity
  8
MEGA_002895
  6
CONTINUOUS
 62
     7
 48
25.4
100
AcDbSpline
210
0.0
220
0.0
230
1.0
 70
     8
 71
     3
 72
    11
 73
     7
 74
     0
 42
0.0000000001
 43
0.0000000001
 40
0.0
 40
0.0
 40
0.0
 40
0.0
 40
0.5
 40
0.5
 40
0.5
 40
1.0
 40
1.0
 40
1.0
 40
1.0
 10
101.8271589642757
 20
169.9993198536276
 30
0.0
 10
101.9301872397713
 20
170.0453947312364
 30
0.0
 10
102.0344221454598
 20
170.0922408925331
 30
0.0
 10
102.1350961277139
 20
170.1299950695618
 30
0.0
 10
102.235770109968
 20
170.1677492465906
 30
0.0
 10
102.3356478479177
 20
170.1993198536276
 30
0.0
 10
102.4271589642757
 20
170.1993198536276
 30
0.0
  0
LINE
  5
109
330
3F
100
AcDbEntity
  8
MEGA_002895
  6
CONTINUOUS
 62
     7
 48
25.4
100
AcDbLine
 10
102.4271589643
 20
170.1993198536
 30
0.0
 11
102.4885967921
 21
170.1993198536
 31
0.0
  0
SPLINE
  5
10A
330
3F
100
AcDbEntity
  8
MEGA_002895
  6
CONTINUOUS
 62
     7
 48
25.4
100
AcDbSpline
210
0.0
220
0.0
230
1.0
 70
     8
 71
     3
 72
    11
 73
     7
 74
     0
 42
0.0000000001
 43
0.0000000001
 40
0.0
 40
0.0
 40
0.0
 40
0.0
 40
0.5
 40
0.5
 40
0.5
 40
1.0
 40
1.0
 40
1.0
 40
1.0
 10
87.22715896427569
 20
170.1993198536276
 30
0.0
 10
87.3186700806336
 20
170.1993198536276
 30
0.0
 10
87.41854781858332
 20
170.1677492465906
 30
0.0
 10
87.51922180083749
 20
170.1299950695618
 30
0.0
 10
87.61989578309154
 20
170.0922408925331
 30
0.0
 10
87.72413068878009
 20
170.0453947312364
 30
0.0
 10
87.82715896427568
 20
169.9993198536276
 30
0.0
  0
LINE
  5
10B
330
3F
100
AcDbEntity
  8
MEGA_002895
  6
CONTINUOUS
 62
     7
 48
25.4
100
AcDbLine
 10
87.1657211366
 20
170.1993198536
 30
0.0
 11
87.2271589643
 21
170.1993198536
 31
0.0
  0
SPLINE
  5
10C
330
3F
100
AcDbEntity
  8
MEGA_002895
  6
CONTINUOUS
 62
     7
 48
25.4
100
AcDbSpline
210
0.0
220
0.0
230
1.0
 70
     8
 71
     3
 72
    17
 73
    13
 74
     0
 42
0.0000000001
 43
0.0000000001
 40
0.0
 40
0.0
 40
0.0
 40
0.0
 40
0.2499999999999996
 40
0.2499999999999996
 40
0.2499999999999996
 40
0.4999999999999991
 40
0.4999999999999991
 40
0.4999999999999991
 40
0.7499999999999987
 40
0.7499999999999987
 40
0.7499999999999987
 40
1.0
 40
1.0
 40
1.0
 40
1.0
 10
86.85891312772381
 20
170.6993198536276
 30
0.0
 10
86.85891312772381
 20
170.6259650459816
 30
0.0
 10
86.86275528068221
 20
170.5536728437993
 30
0.0
 10
86.8721524641321
 20
170.4885718542764
 30
0.0
 10
86.88154964758199
 20
170.4234708647535
 30
0.0
 10
86.89698167510163
 20
170.3655164513761
 30
0.0
 10
86.92114435355647
 20
170.3208596937085
 30
0.0
 10
86.94530703201126
 20
170.2762029360408
 30
0.0
 10
86.97852295163317
 20
170.2445643853183
 30
0.0
 10
87.02017653919269
 20
170.2254171064394
 30
0.0
 10
87.06183012675228
 20
170.2062698275605
 30
0.0
 10
87.11084427489946
 20
170.1993198536276
 30
0.0
 10
87.16572113650956
 20
170.1993198536276
 30
0.0
  0
ARC
  5
10D
330
3F
100
AcDbEntity
  8
MEGA_002895
  6
CONTINUOUS
 62
     7
 48
25.4
100
AcDbCircle
 10
103.3271589643
 20
201.6993198536
 30
0.0
 40
1.5
100
AcDbArc
 50
180.0
 51
270.0
  0
ARC
  5
10E
330
3F
100
AcDbEntity
  8
MEGA_002895
  6
CONTINUOUS
 62
     7
 48
25.4
100
AcDbCircle
 10
88.8271589643
 20
214.1993198536
 30
0.0
 40
1.0
100
AcDbArc
 50
90.0
 51
180.0
  0
SPLINE
  5
10F
330
3F
100
AcDbEntity
  8
MEGA_002895
  6
CONTINUOUS
 62
     7
 48
25.4
100
AcDbSpline
210
0.0
220
0.0
230
1.0
 70
     8
 71
     3
 72
    26
 73
    22
 74
     0
 42
0.0000000001
 43
0.0000000001
 40
0.0
 40
0.0
 40
0.0
 40
0.0
 40
0.0818261084637276
 40
0.0818261084637276
 40
0.0818261084637276
 40
0.283991294374976
 40
0.283991294374976
 40
0.283991294374976
 40
0.444479730150333
 40
0.444479730150333
 40
0.444479730150333
 40
0.5974339796633422
 40
0.5974339796633422
 40
0.5974339796633422
 40
0.7196897039847519
 40
0.7196897039847519
 40
0.7196897039847519
 40
0.849916921942218
 40
0.849916921942218
 40
0.849916921942218
 40
0.9999999999999999
 40
0.9999999999999999
 40
0.9999999999999999
 40
0.9999999999999999
 10
128.823743460453
 20
187.8854459439141
 30
0.0
 10
128.8236762208003
 20
187.9180535213841
 30
0.0
 10
128.8236163904213
 20
187.9458794325373
 30
0.0
 10
128.8225042064124
 20
187.9743680874839
 30
0.0
 10
128.8197563684528
 20
188.044754108911
 30
0.0
 10
128.810584750655
 20
188.1191856527715
 30
0.0
 10
128.8014512593474
 20
188.1900722720398
 30
0.0
 10
128.7942006552114
 20
188.2463454755219
 30
0.0
 10
128.7869740781876
 20
188.3003846862992
 30
0.0
 10
128.7806974429764
 20
188.3515429765226
 30
0.0
 10
128.7747154666205
 20
188.400299622755
 30
0.0
 10
128.7695963349144
 20
188.4464394909347
 30
0.0
 10
128.7667213170935
 20
188.485024118347
 30
0.0
 10
128.7644233267648
 20
188.515864657835
 30
0.0
 10
128.7635590427705
 20
188.5418783493551
 30
0.0
 10
128.7638104597579
 20
188.5621008603241
 30
0.0
 10
128.7640782699974
 20
188.583641948549
 30
0.0
 10
128.7656120196897
 20
188.5986120253128
 30
0.0
 10
128.766939903671
 20
188.6079680104027
 30
0.0
 10
128.7684702513076
 20
188.618750510886
 30
0.0
 10
128.7697271703392
 20
188.6220764356808
 30
0.0
 10
128.7694628284914
 20
188.6210228030098
 30
0.0
  0
SPLINE
  5
110
330
3F
100
AcDbEntity
  8
MEGA_002895
  6
HIDDEN2
 62
     7
 48
25.4
100
AcDbSpline
210
0.0
220
0.0
230
1.0
 70
     8
 71
     3
 72
    26
 73
    22
 74
     0
 42
0.0000000001
 43
0.0000000001
 40
0.0
 40
0.0
 40
0.0
 40
0.0
 40
0.0114128674083318
 40
0.0114128674083318
 40
0.0114128674083318
 40
0.3660864185464836
 40
0.3660864185464836
 40
0.3660864185464836
 40
0.5675666109247023
 40
0.5675666109247023
 40
0.5675666109247023
 40
0.6569069590716342
 40
0.6569069590716342
 40
0.6569069590716342
 40
0.7325062144438693
 40
0.7325062144438693
 40
0.7325062144438693
 40
0.8446270626823681
 40
0.8446270626823681
 40
0.8446270626823681
 40
1.0
 40
1.0
 40
1.0
 40
1.0
 10
128.7694628284914
 20
188.6210228030098
 30
0.0
 10
128.769453248974
 20
188.6209846202832
 30
0.0
 10
128.769441671624
 20
188.6209406859968
 30
0.0
 10
128.7694280370545
 20
188.6208911465917
 30
0.0
 10
128.7690043204723
 20
188.619351628422
 30
0.0
 10
128.7665938289425
 20
188.6123989251461
 30
0.0
 10
128.7602298784135
 20
188.5998020525715
 30
0.0
 10
128.756614694894
 20
188.5926461191742
 30
0.0
 10
128.7517237062382
 20
188.5836687781986
 30
0.0
 10
128.7438281363155
 20
188.5713159709931
 30
0.0
 10
128.7403270826516
 20
188.5658384891458
 30
0.0
 10
128.7362352643075
 20
188.559697318734
 30
0.0
 10
128.7306138282212
 20
188.5519226828871
 30
0.0
 10
128.7258570034375
 20
188.545343833655
 30
0.0
 10
128.7200049049345
 20
188.5375953511785
 30
0.0
 10
128.7130023127147
 20
188.5290493814823
 30
0.0
 10
128.7026168059304
 20
188.5163748998802
 30
0.0
 10
128.6897007081129
 20
188.5019462896132
 30
0.0
 10
128.6762999139417
 20
188.4890076515995
 30
0.0
 10
128.6577295874992
 20
188.4710777641193
 30
0.0
 10
128.6382284795295
 20
188.4560091291299
 30
0.0
 10
128.6148656279525
 20
188.4380755121854
 30
0.0
  0
LINE
  5
111
330
3F
100
AcDbEntity
  8
MEGA_002895
  6
CONTINUOUS
 62
     7
 48
25.4
100
AcDbLine
 10
87.2271589643
 20
170.1993198536
 30
0.0
 11
102.4271589643
 21
170.1993198536
 31
0.0
  0
SPLINE
  5
112
330
3F
100
AcDbEntity
  8
MEGA_002895
  6
CONTINUOUS
 62
     7
 48
25.4
100
AcDbSpline
210
0.0
220
0.0
230
1.0
 70
     8
 71
     3
 72
    32
 73
    28
 74
     0
 42
0.0000000001
 43
0.0000000001
 40
0.0
 40
0.0
 40
0.0
 40
0.0
 40
0.0018853806852012
 40
0.0018853806852012
 40
0.0018853806852012
 40
0.1730818266108241
 40
0.1730818266108241
 40
0.1730818266108241
 40
0.328974580040743
 40
0.328974580040743
 40
0.328974580040743
 40
0.4497933855131192
 40
0.4497933855131192
 40
0.4497933855131192
 40
0.5729996881172602
 40
0.5729996881172602
 40
0.5729996881172602
 40
0.7111640149457489
 40
0.7111640149457489
 40
0.7111640149457489
 40
0.8706656484758403
 40
0.8706656484758403
 40
0.8706656484758403
 40
0.9494955918707897
 40
0.9494955918707897
 40
0.9494955918707897
 40
1.0
 40
1.0
 40
1.0
 40
1.0
 10
91.01588902156615
 20
215.1991979448527
 30
0.0
 10
91.01502949917284
 20
215.1992426484291
 30
0.0
 10
91.01428752691354
 20
215.1992812681784
 30
0.0
 10
91.01354494009422
 20
215.1993187749324
 30
0.0
 10
90.94611652881652
 20
215.2027244653798
 30
0.0
 10
90.87362106206443
 20
215.1969534948637
 30
0.0
 10
90.80537800927058
 20
215.1919614356031
 30
0.0
 10
90.74323537923534
 20
215.1874156294141
 30
0.0
 10
90.68461887580726
 20
215.1835157010086
 30
0.0
 10
90.63020242369302
 20
215.1801470319167
 30
0.0
 10
90.58802900255681
 20
215.1775362718475
 30
0.0
 10
90.54837831748618
 20
215.1752446095535
 30
0.0
 10
90.51446082989611
 20
215.1742690979645
 30
0.0
 10
90.47987309975552
 20
215.1732743093176
 30
0.0
 10
90.45124739300564
 20
215.1736482021639
 30
0.0
 10
90.42735715347922
 20
215.1746857870314
 30
0.0
 10
90.40056648780565
 20
215.175849341263
 30
0.0
 10
90.37973091908347
 20
215.1778475228176
 30
0.0
 10
90.3627987225194
 20
215.1799435451165
 30
0.0
 10
90.34325161457041
 20
215.1823632650852
 30
0.0
 10
90.32890660282888
 20
215.1849133792218
 30
0.0
 10
90.29976075620006
 20
215.1899801396103
 30
0.0
 10
90.28535610472976
 20
215.1924842671592
 30
0.0
 10
90.26733620294303
 20
215.1956031104473
 30
0.0
 10
90.24428656403794
 20
215.1970346483753
 30
0.0
 10
90.22951922664862
 20
215.1979517995574
 30
0.0
 10
90.21268735815951
 20
215.198176370927
 30
0.0
 10
90.19301758186727
 20
215.1984705932075
 30
0.0
  0
SPLINE
  5
113
330
3F
100
AcDbEntity
  8
MEGA_002895
  6
CONTINUOUS
 62
     7
 48
25.4
100
AcDbSpline
210
0.0
220
0.0
230
1.0
 70
     8
 71
     3
 72
    35
 73
    31
 74
     0
 42
0.0000000001
 43
0.0000000001
 40
0.0
 40
0.0
 40
0.0
 40
0.0
 40
0.0342905146667439
 40
0.0342905146667439
 40
0.0342905146667439
 40
0.0919978038679268
 40
0.0919978038679268
 40
0.0919978038679268
 40
0.1541062997859885
 40
0.1541062997859885
 40
0.1541062997859885
 40
0.2466591436856797
 40
0.2466591436856797
 40
0.2466591436856797
 40
0.393607704955489
 40
0.393607704955489
 40
0.393607704955489
 40
0.5150745140848166
 40
0.5150745140848166
 40
0.5150745140848166
 40
0.651081258969155
 40
0.651081258969155
 40
0.651081258969155
 40
0.7939435673390396
 40
0.7939435673390396
 40
0.7939435673390396
 40
0.9648995032849944
 40
0.9648995032849944
 40
0.9648995032849944
 40
1.0
 40
1.0
 40
1.0
 40
1.0
 10
99.46078476492431
 20
215.198097591768
 30
0.0
 10
99.44683493722839
 20
215.1982990342494
 30
0.0
 10
99.43494119128538
 20
215.1984849628687
 30
0.0
 10
99.4239348299969
 20
215.1980942257177
 30
0.0
 10
99.40541229453481
 20
215.1974366566497
 30
0.0
 10
99.38940294867827
 20
215.1951458945663
 30
0.0
 10
99.37605498658969
 20
215.1931612403659
 30
0.0
 10
99.36168900509296
 20
215.1910252209998
 30
0.0
 10
99.35040584368431
 20
215.189243782413
 30
0.0
 10
99.34104792280147
 20
215.1877115707813
 30
0.0
 10
99.32710293543879
 20
215.1854282995175
 30
0.0
 10
99.31743320783271
 20
215.1836984707754
 30
0.0
 10
99.30657129212212
 20
215.1820605455227
 30
0.0
 10
99.28932554559455
 20
215.1794599689309
 30
0.0
 10
99.26907444305932
 20
215.1770910694572
 30
0.0
 10
99.243241638595
 20
215.1754881345288
 30
0.0
 10
99.22188839565044
 20
215.1741631580248
 30
0.0
 10
99.19672141158125
 20
215.1733615327358
 30
0.0
 10
99.16502864177301
 20
215.1738071836717
 30
0.0
 10
99.12954215382713
 20
215.1743061803406
 30
0.0
 10
99.08587406183477
 20
215.176368930497
 30
0.0
 10
99.03878396950245
 20
215.1791618360288
 30
0.0
 10
98.98932025137825
 20
215.1820955209109
 30
0.0
 10
98.9360808593211
 20
215.1858348248298
 30
0.0
 10
98.87958063526209
 20
215.1900453485083
 30
0.0
 10
98.81196973918055
 20
215.1950838644367
 30
0.0
 10
98.73968943891443
 20
215.2007971515633
 30
0.0
 10
98.67145231007329
 20
215.1991093571288
 30
0.0
 10
98.65744193305143
 20
215.1987628209136
 30
0.0
 10
98.64360199947703
 20
215.1981042855959
 30
0.0
 10
98.62745936887352
 20
215.1973448833714
 30
0.0
  0
ARC
  5
114
330
3F
100
AcDbEntity
  8
MEGA_002895
  6
HIDDEN2
 62
     7
 48
25.4
100
AcDbCircle
 10
71.4725050128
 20
193.6021200611
 30
0.0
 40
2.961026808700012
100
AcDbArc
 50
290.4877211246
 51
323.45041161
  0
ARC
  5
115
330
3F
100
AcDbEntity
  8
MEGA_002895
  6
CONTINUOUS
 62
     7
 48
25.4
100
AcDbCircle
 10
83.8271589643
 20
190.1993198536
 30
0.0
 40
10.0
100
AcDbArc
 50
90.0
 51
167.6359637468
  0
LINE
  5
116
330
3F
100
AcDbEntity
  8
MEGA_002895
  6
CONTINUOUS
 62
     7
 48
25.4
100
AcDbLine
 10
73.851221477
 20
191.8387744498
 30
0.0
 11
74.0590902419
 21
192.3405422695
 31
0.0
  0
ARC
  5
117
330
3F
100
AcDbEntity
  8
MEGA_002895
  6
CONTINUOUS
 62
     7
 48
25.4
100
AcDbCircle
 10
86.3271589643
 20
201.6993198536
 30
0.0
 40
1.5
100
AcDbArc
 50
270.0
 51
360.0
  0
LINE
  5
118
330
3F
100
AcDbEntity
  8
MEGA_002895
  6
CONTINUOUS
 62
     7
 48
25.4
100
AcDbLine
 10
61.8271589643
 20
179.1993198536
 30
0.0
 11
72.5985937626
 21
179.1993198536
 31
0.0
  0
ENDBLK
  5
11A
330
3F
100
AcDbEntity
  8
0
100
AcDbBlockEnd
  0
BLOCK
  5
158
330
11B
100
AcDbEntity
  8
0
100
AcDbBlockBegin
  2
SE4
 70
     0
 71
     0
 10
0.0
 20
0.0
 30
0.0
  3
SE4
  1

  0
LINE
  5
11D
330
11B
100
AcDbEntity
  8
MEGA_002895
  6
CONTINUOUS
 62
     7
 48
25.4
100
AcDbLine
 10
128.8271589643
 20
265.1233889465
 30
0.0
 11
128.8271589643
 21
259.8524619039
 31
0.0
  0
LINE
  5
11E
330
11B
100
AcDbEntity
  8
MEGA_002895
  6
CONTINUOUS
 62
     7
 48
25.4
100
AcDbLine
 10
61.8271589643
 20
256.4879254252
 30
0.0
 11
72.0883177255
 21
256.4879254252
 31
0.0
  0
LINE
  5
11F
330
11B
100
AcDbEntity
  8
MEGA_002895
  6
CONTINUOUS
 62
     7
 48
25.4
100
AcDbLine
 10
72.0883177255
 20
268.4879254252
 30
0.0
 11
61.8271589643
 21
268.4879254252
 31
0.0
  0
ARC
  5
120
330
11B
100
AcDbEntity
  8
MEGA_002895
  6
CONTINUOUS
 62
     7
 48
25.4
100
AcDbCircle
 10
108.156012959
 20
264.2879254252
 30
0.0
 40
1.399999999999977
100
AcDbArc
 50
7.7007807352
 51
116.0717614769
  0
ARC
  5
121
330
11B
100
AcDbEntity
  8
MEGA_002895
  6
CONTINUOUS
 62
     7
 48
25.4
100
AcDbCircle
 10
108.156012959
 20
260.6879254252
 30
0.0
 40
1.399999999999977
100
AcDbArc
 50
243.9282385231
 51
352.2992192648
  0
LINE
  5
122
330
11B
100
AcDbEntity
  8
MEGA_002895
  6
CONTINUOUS
 62
     7
 48
25.4
100
AcDbLine
 10
60.8271589643
 20
259.6954072812
 30
0.0
 11
60.8271589643
 21
265.2804435692
 31
0.0
  0
LINE
  5
123
330
11B
100
AcDbEntity
  8
MEGA_002895
  6
CONTINUOUS
 62
     7
 48
25.4
100
AcDbLine
 10
94.8271589643
 20
264.2199762328
 30
0.0
 11
93.3271589643
 21
263.353950829
 31
0.0
  0
LINE
  5
124
330
11B
100
AcDbEntity
  8
MEGA_002895
  6
CONTINUOUS
 62
     7
 48
25.4
100
AcDbLine
 10
93.3271589643
 20
263.353950829
 30
0.0
 11
93.3271589643
 21
261.6219000214
 31
0.0
  0
LINE
  5
125
330
11B
100
AcDbEntity
  8
MEGA_002895
  6
CONTINUOUS
 62
     7
 48
25.4
100
AcDbLine
 10
93.3271589643
 20
261.6219000214
 30
0.0
 11
94.8271589643
 21
260.7558746176
 31
0.0
  0
LINE
  5
126
330
11B
100
AcDbEntity
  8
MEGA_002895
  6
CONTINUOUS
 62
     7
 48
25.4
100
AcDbLine
 10
94.8271589643
 20
260.7558746176
 30
0.0
 11
96.3271589643
 21
261.6219000214
 31
0.0
  0
LINE
  5
127
330
11B
100
AcDbEntity
  8
MEGA_002895
  6
CONTINUOUS
 62
     7
 48
25.4
100
AcDbLine
 10
96.3271589643
 20
261.6219000214
 30
0.0
 11
96.3271589643
 21
263.353950829
 31
0.0
  0
LINE
  5
128
330
11B
100
AcDbEntity
  8
MEGA_002895
  6
CONTINUOUS
 62
     7
 48
25.4
100
AcDbLine
 10
96.3271589643
 20
263.353950829
 30
0.0
 11
94.8271589643
 21
264.2199762328
 31
0.0
  0
LINE
  5
129
330
11B
100
AcDbEntity
  8
MEGA_002895
  6
CONTINUOUS
 62
     7
 48
25.4
100
AcDbLine
 10
117.3880343502
 20
256.9879254252
 30
0.0
 11
127.8271589643
 21
256.9879254252
 31
0.0
  0
ARC
  5
12A
330
11B
100
AcDbEntity
  8
MEGA_002895
  6
CONTINUOUS
 62
     7
 48
25.4
100
AcDbCircle
 10
117.387091776
 20
257.9863114933
 30
0.0
 40
0.9972648693999987
100
AcDbArc
 50
201.8669879961
 51
270.049770839
  0
ARC
  5
12B
330
11B
100
AcDbEntity
  8
MEGA_002895
  6
CONTINUOUS
 62
     7
 48
25.4
100
AcDbCircle
 10
72.0880388227
 20
257.4879254253
 30
0.0
 40
1.0
100
AcDbArc
 50
270.0175078591
 51
343.1613274567
  0
LINE
  5
12C
330
11B
100
AcDbEntity
  8
MEGA_002895
  6
CONTINUOUS
 62
     7
 48
25.4
100
AcDbLine
 10
128.8271589643
 20
265.1233889465
 30
0.0
 11
128.8270589076
 21
265.139602748
 31
0.0
  0
LINE
  5
12D
330
11B
100
AcDbEntity
  8
MEGA_002895
  6
CONTINUOUS
 62
     7
 48
25.4
100
AcDbLine
 10
128.8271589643
 20
266.9879254252
 30
0.0
 11
128.8271589643
 21
266.1354358128
 31
0.0
  0
LINE
  5
12E
330
11B
100
AcDbEntity
  8
MEGA_002895
  6
CONTINUOUS
 62
     7
 48
25.4
100
AcDbLine
 10
128.8271589643
 20
257.9879254252
 30
0.0
 11
128.8271589643
 21
258.8404150376
 31
0.0
  0
ARC
  5
12F
330
11B
100
AcDbEntity
  8
MEGA_002895
  6
CONTINUOUS
 62
     7
 48
25.4
100
AcDbCircle
 10
128.3271589643
 20
258.8404150376
 30
0.0
 40
0.5
100
AcDbArc
 50
0.0
 51
89.714
  0
ARC
  5
130
330
11B
100
AcDbEntity
  8
MEGA_002895
  6
CONTINUOUS
 62
     7
 48
25.4
100
AcDbCircle
 10
61.3271589643
 20
266.6354358128
 30
0.0
 40
0.5
100
AcDbArc
 50
180.0
 51
269.714
  0
ARC
  5
131
330
11B
100
AcDbEntity
  8
MEGA_002895
  6
CONTINUOUS
 62
     7
 48
25.4
100
AcDbCircle
 10
127.8271589643
 20
266.9879254252
 30
0.0
 40
1.0
100
AcDbArc
 50
0.0
 51
90.0
  0
ARC
  5
132
330
11B
100
AcDbEntity
  8
MEGA_002895
  6
CONTINUOUS
 62
     7
 48
25.4
100
AcDbCircle
 10
61.8271589643
 20
267.4879254252
 30
0.0
 40
1.0
100
AcDbArc
 50
90.0
 51
180.0
  0
LINE
  5
133
330
11B
100
AcDbEntity
  8
MEGA_002895
  6
CONTINUOUS
 62
     7
 48
25.4
100
AcDbLine
 10
60.8271589643
 20
258.3404150376
 30
0.0
 11
60.8271589643
 21
257.4879254252
 31
0.0
  0
LINE
  5
134
330
11B
100
AcDbEntity
  8
MEGA_002895
  6
CONTINUOUS
 62
     7
 48
25.4
100
AcDbLine
 10
60.8271589643
 20
267.4879254252
 30
0.0
 11
60.8271589643
 21
266.6354358128
 31
0.0
  0
ARC
  5
135
330
11B
100
AcDbEntity
  8
MEGA_002895
  6
CONTINUOUS
 62
     7
 48
25.4
100
AcDbCircle
 10
62.6029131648
 20
265.2997739586
 30
0.0
 40
1.775807624200013
100
AcDbArc
 50
164.7465333671
 51
180.6237547891
  0
SPLINE
  5
136
330
11B
100
AcDbEntity
  8
MEGA_002895
  6
CONTINUOUS
 62
     7
 48
25.4
100
AcDbSpline
210
0.0
220
0.0
230
1.0
 70
     8
 71
     3
 72
    35
 73
    31
 74
     0
 42
0.0000000001
 43
0.0000000001
 40
0.0
 40
0.0
 40
0.0
 40
0.0
 40
0.0381032285940288
 40
0.0381032285940288
 40
0.0381032285940288
 40
0.0848315887589346
 40
0.0848315887589346
 40
0.0848315887589346
 40
0.1394964619191914
 40
0.1394964619191914
 40
0.1394964619191914
 40
0.2081301994111083
 40
0.2081301994111083
 40
0.2081301994111083
 40
0.2958824140956625
 40
0.2958824140956625
 40
0.2958824140956625
 40
0.4072662854913192
 40
0.4072662854913192
 40
0.4072662854913192
 40
0.5426568932251675
 40
0.5426568932251675
 40
0.5426568932251675
 40
0.7035434013853757
 40
0.7035434013853757
 40
0.7035434013853757
 40
0.8840851169139444
 40
0.8840851169139444
 40
0.8840851169139444
 40
1.0
 40
1.0
 40
1.0
 40
1.0
 10
61.10922538496799
 20
266.3651133422619
 30
0.0
 10
61.10921930452767
 20
266.3650968769192
 30
0.0
 10
61.1089420672174
 20
266.3636617190958
 30
0.0
 10
61.10825522109076
 20
266.3609816914862
 30
0.0
 10
61.10741289894739
 20
266.3576950068663
 30
0.0
 10
61.10595453976558
 20
266.352536082524
 30
0.0
 10
61.10400846589897
 20
266.3463800547762
 30
0.0
 10
61.10173186383755
 20
266.3391784651031
 30
0.0
 10
61.09878780762201
 20
266.3306123054656
 30
0.0
 10
61.09543153398972
 20
266.3214089774813
 30
0.0
 10
61.0912176103105
 20
266.3098538642906
 30
0.0
 10
61.08635387879174
 20
266.297294336997
 30
0.0
 10
61.08114158462069
 20
266.2842764247694
 30
0.0
 10
61.0744773641686
 20
266.2676322688444
 30
0.0
 10
61.06724334466113
 20
266.2502387862183
 30
0.0
 10
61.05976538758961
 20
266.2324718295092
 30
0.0
 10
61.05027361793169
 20
266.209920234335
 30
0.0
 10
61.04038883508201
 20
266.1867669268252
 30
0.0
 10
61.03051383471686
 20
266.1632246643172
 30
0.0
 10
61.01851046040374
 20
266.1346083019261
 30
0.0
 10
61.00652153987701
 20
266.1054172519508
 30
0.0
 10
60.99481552171982
 20
266.0760027553455
 30
0.0
 10
60.98090510047799
 20
266.0410491073244
 30
0.0
 10
60.96739416265834
 20
266.0057799326975
 30
0.0
 10
60.95411314934069
 20
265.9695951394155
 30
0.0
 10
60.9392096191706
 20
265.9289897168112
 30
0.0
 10
60.92459562404174
 20
265.8872312910129
 30
0.0
 10
60.91243999863455
 20
265.8471700658924
 30
0.0
 10
60.90463560897435
 20
265.8214491835328
 30
0.0
 10
60.8978445949806
 20
265.7964279119163
 30
0.0
 10
60.88988494389508
 20
265.7669140873368
 30
0.0
  0
ARC
  5
137
330
11B
100
AcDbEntity
  8
MEGA_002895
  6
CONTINUOUS
 62
     7
 48
25.4
100
AcDbCircle
 10
62.6054851964
 20
259.6752057298
 30
0.0
 40
1.778150149199973
100
AcDbArc
 50
179.3563019169
 51
195.2069039042
  0
SPLINE
  5
138
330
11B
100
AcDbEntity
  8
MEGA_002895
  6
CONTINUOUS
 62
     7
 48
25.4
100
AcDbSpline
210
0.0
220
0.0
230
1.0
 70
     8
 71
     3
 72
    38
 73
    34
 74
     0
 42
0.0000000001
 43
0.0000000001
 40
0.0
 40
0.0
 40
0.0
 40
0.0
 40
0.0398637826696052
 40
0.0398637826696052
 40
0.0398637826696052
 40
0.2092173583614672
 40
0.2092173583614672
 40
0.2092173583614672
 40
0.3771227496883277
 40
0.3771227496883277
 40
0.3771227496883277
 40
0.5306091272386807
 40
0.5306091272386807
 40
0.5306091272386807
 40
0.6559008968677603
 40
0.6559008968677603
 40
0.6559008968677603
 40
0.7547060304891999
 40
0.7547060304891999
 40
0.7547060304891999
 40
0.8316078416977581
 40
0.8316078416977581
 40
0.8316078416977581
 40
0.8921707173860326
 40
0.8921707173860326
 40
0.8921707173860326
 40
0.9422469510949176
 40
0.9422469510949176
 40
0.9422469510949176
 40
0.9932144159232128
 40
0.9932144159232128
 40
0.9932144159232128
 40
1.0
 40
1.0
 40
1.0
 40
1.0
 10
60.88948419752383
 20
259.2088845750351
 30
0.0
 10
60.8920636439883
 20
259.1986932886633
 30
0.0
 10
60.89427725461
 20
259.1899684544499
 30
0.0
 10
60.89666192265625
 20
259.1811229434113
 30
0.0
 10
60.90679272393567
 20
259.1435444994486
 30
0.0
 10
60.92001078842307
 20
259.103788066876
 30
0.0
 10
60.93339560644723
 20
259.0651336953371
 30
0.0
 10
60.94666596757786
 20
259.0268098669017
 30
0.0
 10
60.96010024253717
 20
258.9895693320934
 30
0.0
 10
60.97426925079385
 20
258.9525884989064
 30
0.0
 10
60.98722148379609
 20
258.9187834252289
 30
0.0
 10
61.00078767684758
 20
258.8851953642018
 30
0.0
 10
61.0145705364793
 20
258.8522590226249
 30
0.0
 10
61.02582156019454
 20
258.8253729068201
 30
0.0
 10
61.03721696068676
 20
258.7989210672826
 30
0.0
 10
61.04830648571458
 20
258.7730532427856
 30
0.0
 10
61.05705168905401
 20
258.7526538672841
 30
0.0
 10
61.06560667134337
 20
258.7326176851969
 30
0.0
 10
61.073587857909
 20
258.7133076595175
 30
0.0
 10
61.0797997588497
 20
258.6982783194943
 30
0.0
 10
61.08566406646798
 20
258.6836888696758
 30
0.0
 10
61.09082676840372
 20
258.6701077789134
 30
0.0
 10
61.0948925773962
 20
258.6594121932226
 30
0.0
 10
61.09852324245069
 20
258.6493420034507
 30
0.0
 10
61.10143214350561
 20
258.640564855926
 30
0.0
 10
61.10383735969472
 20
258.6333074975898
 30
0.0
 10
61.10574912315531
 20
258.6269341612127
 30
0.0
 10
61.10699413214687
 20
258.6224275956433
 30
0.0
 10
61.10826129916974
 20
258.6178408245318
 30
0.0
 10
61.10883776742077
 20
258.615187863187
 30
0.0
 10
61.10897776443297
 20
258.6143062386718
 30
0.0
 10
61.10899640301943
 20
258.6141888630619
 30
0.0
 10
61.10900730511454
 20
258.6141028845537
 30
0.0
 10
61.10901128323154
 20
258.6140524017935
 30
0.0
  0
SPLINE
  5
139
330
11B
100
AcDbEntity
  8
MEGA_002895
  6
CONTINUOUS
 62
     7
 48
25.4
100
AcDbSpline
210
0.0
220
0.0
230
1.0
 70
     8
 71
     3
 72
    47
 73
    43
 74
     0
 42
0.0000000001
 43
0.0000000001
 40
0.0
 40
0.0
 40
0.0
 40
0.0
 40
0.0650391543795534
 40
0.0650391543795534
 40
0.0650391543795534
 40
0.1318274322800905
 40
0.1318274322800905
 40
0.1318274322800905
 40
0.1996536927697201
 40
0.1996536927697201
 40
0.1996536927697201
 40
0.2733009167030483
 40
0.2733009167030483
 40
0.2733009167030483
 40
0.3265111156089659
 40
0.3265111156089659
 40
0.3265111156089659
 40
0.3830508215568758
 40
0.3830508215568758
 40
0.3830508215568758
 40
0.4496457441438221
 40
0.4496457441438221
 40
0.4496457441438221
 40
0.5167538722360432
 40
0.5167538722360432
 40
0.5167538722360432
 40
0.5925983977967361
 40
0.5925983977967361
 40
0.5925983977967361
 40
0.6792117310497364
 40
0.6792117310497364
 40
0.6792117310497364
 40
0.7762776532332064
 40
0.7762776532332064
 40
0.7762776532332064
 40
0.8834183870022431
 40
0.8834183870022431
 40
0.8834183870022431
 40
0.9992201717319682
 40
0.9992201717319682
 40
0.9992201717319682
 40
0.9999999999999999
 40
0.9999999999999999
 40
0.9999999999999999
 40
0.9999999999999999
 10
128.7692869533733
 20
259.066680396257
 30
0.0
 10
128.7693411925751
 20
259.0664155758616
 30
0.0
 10
128.769243851171
 20
259.0666572992632
 30
0.0
 10
128.7688630453481
 20
259.0685097426308
 30
0.0
 10
128.7684719983647
 20
259.0704120044854
 30
0.0
 10
128.7677820353056
 20
259.0740127867157
 30
0.0
 10
128.7670508583814
 20
259.0792981409279
 30
0.0
 10
128.7663083179523
 20
259.0846656368843
 30
0.0
 10
128.7655232726619
 20
259.0917704728811
 30
0.0
 10
128.7649098947987
 20
259.1000334529899
 30
0.0
 10
128.7642438758183
 20
259.1090055759116
 30
0.0
 10
128.7637802542306
 20
259.1193431608346
 30
0.0
 10
128.7637479001209
 20
259.1321107053181
 30
0.0
 10
128.7637245242415
 20
259.1413352700095
 30
0.0
 10
128.7639262733548
 20
259.1518282925744
 30
0.0
 10
128.7643999405115
 20
259.1635644140706
 30
0.0
 10
128.7649032463122
 20
259.1760348966473
 30
0.0
 10
128.7657135641145
 20
259.1899089134877
 30
0.0
 10
128.766810801504
 20
259.2046332428537
 30
0.0
 10
128.7681031753816
 20
259.2219761978239
 30
0.0
 10
128.7697935971651
 20
259.2404988042892
 30
0.0
 10
128.7718458864291
 20
259.2600365950797
 30
0.0
 10
128.7739139914056
 20
259.2797249514299
 30
0.0
 10
128.776349562727
 20
259.3004441991795
 30
0.0
 10
128.7790010801038
 20
259.3218786455759
 30
0.0
 10
128.7819977823391
 20
259.346103511681
 30
0.0
 10
128.7852703158475
 20
259.3712419122002
 30
0.0
 10
128.7886098145746
 20
259.3969044206189
 30
0.0
 10
128.7924234730293
 20
259.4262106279864
 30
0.0
 10
128.7963244628631
 20
259.4562003404114
 30
0.0
 10
128.8001299775671
 20
259.4866916832101
 30
0.0
 10
128.8043947458223
 20
259.5208627536008
 30
0.0
 10
128.8085396043758
 20
259.5556638346401
 30
0.0
 10
128.8121089645308
 20
259.5905899820402
 30
0.0
 10
128.8160488010615
 20
259.6291412364453
 30
0.0
 10
128.819287473314
 20
259.6678448667124
 30
0.0
 10
128.8221812035154
 20
259.7076314936911
 30
0.0
 10
128.8253088573035
 20
259.7506343951126
 30
0.0
 10
128.8280335460104
 20
259.7949024651517
 30
0.0
 10
128.8270909710714
 20
259.8354110836125
 30
0.0
 10
128.8270846236167
 20
259.8356838753129
 30
0.0
 10
128.8270781098555
 20
259.8359564965261
 30
0.0
 10
128.8270705605158
 20
259.8362722559198
 30
0.0
  0
SPLINE
  5
13A
330
11B
100
AcDbEntity
  8
MEGA_002895
  6
CONTINUOUS
 62
     7
 48
25.4
100
AcDbSpline
210
0.0
220
0.0
230
1.0
 70
     8
 71
     3
 72
    47
 73
    43
 74
     0
 42
0.0000000001
 43
0.0000000001
 40
0.0
 40
0.0
 40
0.0
 40
0.0
 40
0.0615993175797753
 40
0.0615993175797753
 40
0.0615993175797753
 40
0.1661642119865533
 40
0.1661642119865533
 40
0.1661642119865533
 40
0.2659340885762032
 40
0.2659340885762032
 40
0.2659340885762032
 40
0.3617949931416327
 40
0.3617949931416327
 40
0.3617949931416327
 40
0.4400480672890637
 40
0.4400480672890637
 40
0.4400480672890637
 40
0.5169470276971585
 40
0.5169470276971585
 40
0.5169470276971585
 40
0.5893466218703524
 40
0.5893466218703524
 40
0.5893466218703524
 40
0.6493252314739739
 40
0.6493252314739739
 40
0.6493252314739739
 40
0.7104607232050717
 40
0.7104607232050717
 40
0.7104607232050717
 40
0.7689501191071011
 40
0.7689501191071011
 40
0.7689501191071011
 40
0.8351720039342911
 40
0.8351720039342911
 40
0.8351720039342911
 40
0.9074203459405061
 40
0.9074203459405061
 40
0.9074203459405061
 40
0.9793675633715432
 40
0.9793675633715432
 40
0.9793675633715432
 40
1.0
 40
1.0
 40
1.0
 40
1.0
 10
128.8262106556205
 20
265.1458661016937
 30
0.0
 10
128.8260449032636
 20
265.171098565731
 30
0.0
 10
128.8258738143627
 20
265.1925188311731
 30
0.0
 10
128.8251114409044
 20
265.2146716551757
 30
0.0
 10
128.8238173113053
 20
265.252276092914
 30
0.0
 10
128.820819389837
 20
265.2919914048553
 30
0.0
 10
128.8173342869923
 20
265.3308106133034
 30
0.0
 10
128.8140090000239
 20
265.3678496947098
 30
0.0
 10
128.8102401884261
 20
265.4040729732368
 30
0.0
 10
128.8060858993514
 20
265.4399763662734
 30
0.0
 10
128.8020943748337
 20
265.4744730685957
 30
0.0
 10
128.7977469870313
 20
265.5086744605349
 30
0.0
 10
128.7933984745104
 20
265.5421226102646
 30
0.0
 10
128.7898487012816
 20
265.5694269691455
 30
0.0
 10
128.7862981785665
 20
265.5962293850075
 30
0.0
 10
128.7829812958377
 20
265.622166643514
 30
0.0
 10
128.7797218094031
 20
265.647655076227
 30
0.0
 10
128.7766879469682
 20
265.6723080343875
 30
0.0
 10
128.774070359754
 20
265.6958517537263
 30
0.0
 10
128.7716059278421
 20
265.7180179275785
 30
0.0
 10
128.7695104836273
 20
265.7392008685644
 30
0.0
 10
128.7678671741581
 20
265.7590544106519
 30
0.0
 10
128.7665057933625
 20
265.7755018488415
 30
0.0
 10
128.7654547173052
 20
265.7910369068586
 30
0.0
 10
128.7647694281789
 20
265.8049155234894
 30
0.0
 10
128.764070921028
 20
265.8190618342804
 30
0.0
 10
128.7637524476702
 20
265.8314871877336
 30
0.0
 10
128.7637457405684
 20
265.8423661130356
 30
0.0
 10
128.7637393237666
 20
265.8527741714476
 30
0.0
 10
128.7640182692403
 20
265.8617667711688
 30
0.0
 10
128.7644670465742
 20
265.8697439440127
 30
0.0
 10
128.7649751537356
 20
265.8787757251273
 30
0.0
 10
128.7657009656795
 20
265.8865058465448
 30
0.0
 10
128.7663645781145
 20
265.8921406430716
 30
0.0
 10
128.7670885819432
 20
265.8982882286873
 30
0.0
 10
128.7677385503336
 20
265.9019417705553
 30
0.0
 10
128.7682644169551
 20
265.9045388432663
 30
0.0
 10
128.7687880918119
 20
265.9071250916122
 30
0.0
 10
128.7691886972337
 20
265.9086636589852
 30
0.0
 10
128.7693621302058
 20
265.9092662530114
 30
0.0
 10
128.7694118659
 20
265.909439060015
 30
0.0
 10
128.7694429193649
 20
265.9095348943547
 30
0.0
 10
128.7694474998521
 20
265.9095439564064
 30
0.0
  0
ARC
  5
13B
330
11B
100
AcDbEntity
  8
MEGA_002895
  6
CONTINUOUS
 62
     7
 48
25.4
100
AcDbCircle
 10
127.8271589643
 20
257.9879254252
 30
0.0
 40
1.0
100
AcDbArc
 50
270.0
 51
360.0
  0
ARC
  5
13C
330
11B
100
AcDbEntity
  8
MEGA_002895
  6
CONTINUOUS
 62
     7
 48
25.4
100
AcDbCircle
 10
61.8271589643
 20
257.4879254252
 30
0.0
 40
1.0
100
AcDbArc
 50
180.0
 51
270.0
  0
LINE
  5
13D
330
11B
100
AcDbEntity
  8
MEGA_002895
  6
CONTINUOUS
 62
     7
 48
25.4
100
AcDbLine
 10
114.6955194611
 20
264.2379254252
 30
0.0
 11
115.0825635562
 21
264.2379254252
 31
0.0
  0
LINE
  5
13E
330
11B
100
AcDbEntity
  8
MEGA_002895
  6
CONTINUOUS
 62
     7
 48
25.4
100
AcDbLine
 10
74.6910532836
 20
264.2379254252
 30
0.0
 11
75.0358971142
 21
264.2379254252
 31
0.0
  0
LINE
  5
13F
330
11B
100
AcDbEntity
  8
MEGA_002895
  6
CONTINUOUS
 62
     7
 48
25.4
100
AcDbLine
 10
109.5735636177
 20
264.2379254252
 30
0.0
 11
114.6955194611
 21
264.2379254252
 31
0.0
  0
LINE
  5
140
330
11B
100
AcDbEntity
  8
MEGA_002895
  6
CONTINUOUS
 62
     7
 48
25.4
100
AcDbLine
 10
115.0825635562
 20
260.7379254252
 30
0.0
 11
114.6955194611
 21
260.7379254252
 31
0.0
  0
LINE
  5
141
330
11B
100
AcDbEntity
  8
MEGA_002895
  6
CONTINUOUS
 62
     7
 48
25.4
100
AcDbLine
 10
114.6955194611
 20
260.7379254252
 30
0.0
 11
109.5735636177
 21
260.7379254252
 31
0.0
  0
ARC
  5
142
330
11B
100
AcDbEntity
  8
MEGA_002895
  6
CONTINUOUS
 62
     7
 48
25.4
100
AcDbCircle
 10
104.4629149648
 20
258.7097371956
 30
0.0
 40
2.0
100
AcDbArc
 50
63.9282385232
 51
158.5898115346
  0
ARC
  5
143
330
11B
100
AcDbEntity
  8
MEGA_002895
  6
CONTINUOUS
 62
     7
 48
25.4
100
AcDbCircle
 10
94.844291961
 20
262.4879254252
 30
0.0
 40
14.83286700330001
100
AcDbArc
 50
352.2992192648
 51
7.7007807352
  0
ARC
  5
144
330
11B
100
AcDbEntity
  8
MEGA_002895
  6
CONTINUOUS
 62
     7
 48
25.4
100
AcDbCircle
 10
104.4629149648
 20
266.2661136548
 30
0.0
 40
2.0
100
AcDbArc
 50
201.4101884654
 51
296.0717614768
  0
LINE
  5
145
330
11B
100
AcDbEntity
  8
MEGA_002895
  6
CONTINUOUS
 62
     7
 48
25.4
100
AcDbLine
 10
107.5407178326
 20
259.430383415
 30
0.0
 11
105.3419080026
 21
260.5062257816
 31
0.0
  0
LINE
  5
146
330
11B
100
AcDbEntity
  8
MEGA_002895
  6
CONTINUOUS
 62
     7
 48
25.4
100
AcDbLine
 10
105.3419080026
 20
264.4696250688
 30
0.0
 11
107.5407178326
 21
265.5454674354
 31
0.0
  0
CIRCLE
  5
147
330
11B
100
AcDbEntity
  8
MEGA_002895
  6
CONTINUOUS
 62
     7
 48
25.4
100
AcDbCircle
 10
94.8271589643
 20
262.4879254252
 30
0.0
 40
8.350000000000023
  0
CIRCLE
  5
148
330
11B
100
AcDbEntity
  8
MEGA_002895
  6
CONTINUOUS
 62
     7
 48
25.4
100
AcDbCircle
 10
94.8271589643
 20
262.4879254252
 30
0.0
 40
7.550000000000068
  0
ARC
  5
149
330
11B
100
AcDbEntity
  8
MEGA_002895
  6
CONTINUOUS
 62
     7
 48
25.4
100
AcDbCircle
 10
117.3879047921
 20
266.9890816115
 30
0.0
 40
0.9981896849999999
100
AcDbArc
 50
90.0010037675
 51
158.1267550908
  0
LINE
  5
14A
330
11B
100
AcDbEntity
  8
MEGA_002895
  6
CONTINUOUS
 62
     7
 48
25.4
100
AcDbLine
 10
127.8271589643
 20
267.9879254252
 30
0.0
 11
117.3880343502
 21
267.9879254252
 31
0.0
  0
ARC
  5
14B
330
11B
100
AcDbEntity
  8
MEGA_002895
  6
CONTINUOUS
 62
     7
 48
25.4
100
AcDbCircle
 10
77.8271589643
 20
255.7379254252
 30
0.0
 40
5.0
100
AcDbArc
 50
123.2236251924
 51
163.0422362198
  0
ARC
  5
14C
330
11B
100
AcDbEntity
  8
MEGA_002895
  6
CONTINUOUS
 62
     7
 48
25.4
100
AcDbCircle
 10
77.8271589643
 20
255.7379254252
 30
0.0
 40
5.0
100
AcDbArc
 50
90.0
 51
123.2236251924
  0
LINE
  5
14D
330
11B
100
AcDbEntity
  8
MEGA_002895
  6
CONTINUOUS
 62
     7
 48
25.4
100
AcDbLine
 10
75.0358971142
 20
264.2379254252
 30
0.0
 11
83.8271589643
 21
264.2379254252
 31
0.0
  0
LINE
  5
14E
330
11B
100
AcDbEntity
  8
MEGA_002895
  6
CONTINUOUS
 62
     7
 48
25.4
100
AcDbLine
 10
83.8271589643
 20
264.2379254252
 30
0.0
 11
86.6626014135
 21
264.2379254252
 31
0.0
  0
LINE
  5
14F
330
11B
100
AcDbEntity
  8
MEGA_002895
  6
CONTINUOUS
 62
     7
 48
25.4
100
AcDbLine
 10
75.0358971142
 20
260.7379254252
 30
0.0
 11
74.6910532836
 21
260.7379254252
 31
0.0
  0
LINE
  5
150
330
11B
100
AcDbEntity
  8
MEGA_002895
  6
CONTINUOUS
 62
     7
 48
25.4
100
AcDbLine
 10
83.8271589643
 20
260.7379254252
 30
0.0
 11
75.0358971142
 21
260.7379254252
 31
0.0
  0
LINE
  5
151
330
11B
100
AcDbEntity
  8
MEGA_002895
  6
CONTINUOUS
 62
     7
 48
25.4
100
AcDbLine
 10
86.6626014135
 20
260.7379254252
 30
0.0
 11
83.8271589643
 21
260.7379254252
 31
0.0
  0
ARC
  5
152
330
11B
100
AcDbEntity
  8
MEGA_002895
  6
CONTINUOUS
 62
     7
 48
25.4
100
AcDbCircle
 10
111.8271589643
 20
269.2379254252
 30
0.0
 40
5.0
100
AcDbArc
 50
302.4617449672
 51
337.9756865239
  0
ARC
  5
153
330
11B
100
AcDbEntity
  8
MEGA_002895
  6
CONTINUOUS
 62
     7
 48
25.4
100
AcDbCircle
 10
111.8271589643
 20
269.2379254252
 30
0.0
 40
5.0
100
AcDbArc
 50
270.0
 51
302.4617449672
  0
ARC
  5
154
330
11B
100
AcDbEntity
  8
MEGA_002895
  6
CONTINUOUS
 62
     7
 48
25.4
100
AcDbCircle
 10
111.8271589643
 20
255.7379254252
 30
0.0
 40
5.0
100
AcDbArc
 50
22.0243134761
 51
57.5382550328
  0
ARC
  5
155
330
11B
100
AcDbEntity
  8
MEGA_002895
  6
CONTINUOUS
 62
     7
 48
25.4
100
AcDbCircle
 10
111.8271589643
 20
255.7379254252
 30
0.0
 40
5.0
100
AcDbArc
 50
57.5382550328
 51
90.0
  0
ARC
  5
156
330
11B
100
AcDbEntity
  8
MEGA_002895
  6
CONTINUOUS
 62
     7
 48
25.4
100
AcDbCircle
 10
77.8271589643
 20
269.2379254252
 30
0.0
 40
5.0
100
AcDbArc
 50
196.9577637802
 51
236.7763748076
  0
ARC
  5
157
330
11B
100
AcDbEntity
  8
MEGA_002895
  6
CONTINUOUS
 62
     7
 48
25.4
100
AcDbCircle
 10
77.8271589643
 20
269.2379254252
 30
0.0
 40
5.0
100
AcDbArc
 50
236.7763748076
 51
270.0
  0
ENDBLK
  5
159
330
11B
100
AcDbEntity
  8
0
100
AcDbBlockEnd
  0
BLOCK
  5
164
330
15A
100
AcDbEntity
  8
0
100
AcDbBlockBegin
  2
SE5
 70
     0
 71
     0
 10
0.0
 20
0.0
 30
0.0
  3
SE5
  1

  0
POLYLINE
  5
15C
330
15A
100
AcDbEntity
  8
STANDARD
  6
CONTINUOUS
 62
     7
 48
25.4
100
AcDb2dPolyline
 66
     1
 10
0.0
 20
0.0
 30
0.0
 70
     1
  0
VERTEX
  5
20C
330
15C
100
AcDbEntity
  8
STANDARD
  6
CONTINUOUS
 62
     7
100
AcDbVertex
100
AcDb2dVertex
 10
100.1771589382
 20
47.0723782161
 30
0.0
  0
VERTEX
  5
20D
330
15C
100
AcDbEntity
  8
STANDARD
  6
CONTINUOUS
 62
     7
100
AcDbVertex
100
AcDb2dVertex
 10
103.1771589643
 20
47.5723782204
 30
0.0
  0
VERTEX
  5
20E
330
15C
100
AcDbEntity
  8
STANDARD
  6
CONTINUOUS
 62
     7
100
AcDbVertex
100
AcDb2dVertex
 10
100.1771589382
 20
48.0723782247
 30
0.0
  0
VERTEX
  5
20F
330
15C
100
AcDbEntity
  8
STANDARD
  6
CONTINUOUS
 62
     7
100
AcDbVertex
100
AcDb2dVertex
 10
100.1771589382
 20
47.0723782161
 30
0.0
  0
SEQEND
  5
20B
330
15C
100
AcDbEntity
  8
STANDARD
  6
CONTINUOUS
 62
     7
 48
25.4
  0
LINE
  5
15D
330
15A
100
AcDbEntity
  8
STANDARD
  6
CONTINUOUS
 62
     7
 48
25.4
100
AcDbLine
 10
86.4771589643
 20
110.9993198536
 30
0.0
 11
86.4771589643
 21
46.0723782074
 31
0.0
  0
LINE
  5
15E
330
15A
100
AcDbEntity
  8
STANDARD
  6
CONTINUOUS
 62
     7
 48
25.4
100
AcDbLine
 10
103.1771589643
 20
113.4743198536
 30
0.0
 11
103.1771589643
 21
46.0723782074
 31
0.0
  0
LINE
  5
15F
330
15A
100
AcDbEntity
  8
STANDARD
  6
CONTINUOUS
 62
     7
 48
25.4
100
AcDbLine
 10
86.4771589643
 20
47.5723782204
 30
0.0
 11
103.1771585352
 21
47.5723782204
 31
0.0
  0
TEXT
  5
161
330
15A
100
AcDbEntity
  8
STANDARD
  6
CONTINUOUS
 62
     7
 48
25.4
100
AcDbText
 10
93.8861007902
 20
48.3223782204
 30
0.0
 40
3.0
  1
16,7
  7
SEACAD_SEISO_TTF
 11
93.8861007902
 21
51.3223782204
 31
0.0
100
AcDbText
 73
     3
  0
TEXT
  5
163
330
15A
100
AcDbEntity
  8
STANDARD
  6
CONTINUOUS
 62
     7
 48
25.4
100
AcDbText
 10
90.2454894365
 20
48.3223782204
 30
0.0
 40
3.0
  1
O
  7
SEACAD_SEMECI1_TTF
 11
90.2454894365
 21
51.3223782204
 31
0.0
100
AcDbText
 73
     3
  0
ENDBLK
  5
165
330
15A
100
AcDbEntity
  8
0
100
AcDbBlockEnd
  0
BLOCK
  5
16E
330
166
100
AcDbEntity
  8
0
100
AcDbBlockBegin
  2
SE6
 70
     0
 71
     0
 10
0.0
 20
0.0
 30
0.0
  3
SE6
  1

  0
POLYLINE
  5
168
330
166
100
AcDbEntity
  8
STANDARD
  6
CONTINUOUS
 62
     7
 48
25.4
100
AcDb2dPolyline
 66
     1
 10
0.0
 20
0.0
 30
0.0
 70
     1
  0
VERTEX
  5
211
330
168
100
AcDbEntity
  8
STANDARD
  6
CONTINUOUS
 62
     7
100
AcDbVertex
100
AcDb2dVertex
 10
151.0276834657
 20
113.1993198797
 30
0.0
  0
VERTEX
  5
212
330
168
100
AcDbEntity
  8
STANDARD
  6
CONTINUOUS
 62
     7
100
AcDbVertex
100
AcDb2dVertex
 10
150.5276834613
 20
110.1993198536
 30
0.0
  0
VERTEX
  5
213
330
168
100
AcDbEntity
  8
STANDARD
  6
CONTINUOUS
 62
     7
100
AcDbVertex
100
AcDb2dVertex
 10
150.027683457
 20
113.1993198797
 30
0.0
  0
VERTEX
  5
214
330
168
100
AcDbEntity
  8
STANDARD
  6
CONTINUOUS
 62
     7
100
AcDbVertex
100
AcDb2dVertex
 10
151.0276834657
 20
113.1993198797
 30
0.0
  0
SEQEND
  5
210
330
168
100
AcDbEntity
  8
STANDARD
  6
CONTINUOUS
 62
     7
 48
25.4
  0
POLYLINE
  5
169
330
166
100
AcDbEntity
  8
STANDARD
  6
CONTINUOUS
 62
     7
 48
25.4
100
AcDb2dPolyline
 66
     1
 10
0.0
 20
0.0
 30
0.0
 70
     1
  0
VERTEX
  5
216
330
169
100
AcDbEntity
  8
STANDARD
  6
CONTINUOUS
 62
     7
100
AcDbVertex
100
AcDb2dVertex
 10
151.0276834657
 20
127.1993198276
 30
0.0
  0
VERTEX
  5
217
330
169
100
AcDbEntity
  8
STANDARD
  6
CONTINUOUS
 62
     7
100
AcDbVertex
100
AcDb2dVertex
 10
150.5276834613
 20
130.1993198536
 30
0.0
  0
VERTEX
  5
218
330
169
100
AcDbEntity
  8
STANDARD
  6
CONTINUOUS
 62
     7
100
AcDbVertex
100
AcDb2dVertex
 10
150.027683457
 20
127.1993198276
 30
0.0
  0
VERTEX
  5
219
330
169
100
AcDbEntity
  8
STANDARD
  6
CONTINUOUS
 62
     7
100
AcDbVertex
100
AcDb2dVertex
 10
151.0276834657
 20
127.1993198276
 30
0.0
  0
SEQEND
  5
215
330
169
100
AcDbEntity
  8
STANDARD
  6
CONTINUOUS
 62
     7
 48
25.4
  0
LINE
  5
16A
330
166
100
AcDbEntity
  8
STANDARD
  6
CONTINUOUS
 62
     7
 48
25.4
100
AcDbLine
 10
102.3771589643
 20
110.1993198536
 30
0.0
 11
152.0276834744
 21
110.1993198536
 31
0.0
  0
LINE
  5
16B
330
166
100
AcDbEntity
  8
STANDARD
  6
CONTINUOUS
 62
     7
 48
25.4
100
AcDbLine
 10
101.9540702342
 20
130.1993198536
 30
0.0
 11
152.0276834744
 21
130.1993198536
 31
0.0
  0
LINE
  5
16C
330
166
100
AcDbEntity
  8
STANDARD
  6
CONTINUOUS
 62
     7
 48
25.4
100
AcDbLine
 10
150.5276834613
 20
110.1993198536
 30
0.0
 11
150.5276834613
 21
130.1993194066
 31
0.0
  0
TEXT
  5
16D
330
166
100
AcDbEntity
  8
STANDARD
  6
CONTINUOUS
 62
     7
 48
25.4
100
AcDbText
 10
149.7776834613
 20
118.3925014483
 30
0.0
 40
3.0
  1
20
 50
90.0
  7
SEACAD_SEISO_TTF
 11
146.7776834613
 21
118.3925014483
 31
0.0
100
AcDbText
 73
     3
  0
ENDBLK
  5
16F
330
166
100
AcDbEntity
  8
0
100
AcDbBlockEnd
  0
BLOCK
  5
178
330
170
100
AcDbEntity
  8
0
100
AcDbBlockBegin
  2
SE7
 70
     0
 71
     0
 10
0.0
 20
0.0
 30
0.0
  3
SE7
  1

  0
POLYLINE
  5
172
330
170
100
AcDbEntity
  8
STANDARD
  6
CONTINUOUS
 62
     7
 48
25.4
100
AcDb2dPolyline
 66
     1
 10
0.0
 20
0.0
 30
0.0
 70
     1
  0
VERTEX
  5
21B
330
172
100
AcDbEntity
  8
STANDARD
  6
CONTINUOUS
 62
     7
100
AcDbVertex
100
AcDb2dVertex
 10
140.9997394648
 20
127.4493198797
 30
0.0
  0
VERTEX
  5
21C
330
172
100
AcDbEntity
  8
STANDARD
  6
CONTINUOUS
 62
     7
100
AcDbVertex
100
AcDb2dVertex
 10
140.4997394604
 20
124.4493198536
 30
0.0
  0
VERTEX
  5
21D
330
172
100
AcDbEntity
  8
STANDARD
  6
CONTINUOUS
 62
     7
100
AcDbVertex
100
AcDb2dVertex
 10
139.9997394561
 20
127.4493198797
 30
0.0
  0
VERTEX
  5
21E
330
172
100
AcDbEntity
  8
STANDARD
  6
CONTINUOUS
 62
     7
100
AcDbVertex
100
AcDb2dVertex
 10
140.9997394648
 20
127.4493198797
 30
0.0
  0
SEQEND
  5
21A
330
172
100
AcDbEntity
  8
STANDARD
  6
CONTINUOUS
 62
     7
 48
25.4
  0
POLYLINE
  5
173
330
170
100
AcDbEntity
  8
STANDARD
  6
CONTINUOUS
 62
     7
 48
25.4
100
AcDb2dPolyline
 66
     1
 10
0.0
 20
0.0
 30
0.0
 70
     1
  0
VERTEX
  5
220
330
173
100
AcDbEntity
  8
STANDARD
  6
CONTINUOUS
 62
     7
100
AcDbVertex
100
AcDb2dVertex
 10
140.9997394648
 20
112.9493198276
 30
0.0
  0
VERTEX
  5
221
330
173
100
AcDbEntity
  8
STANDARD
  6
CONTINUOUS
 62
     7
100
AcDbVertex
100
AcDb2dVertex
 10
140.4997394604
 20
115.9493198536
 30
0.0
  0
VERTEX
  5
222
330
173
100
AcDbEntity
  8
STANDARD
  6
CONTINUOUS
 62
     7
100
AcDbVertex
100
AcDb2dVertex
 10
139.9997394561
 20
112.9493198276
 30
0.0
  0
VERTEX
  5
223
330
173
100
AcDbEntity
  8
STANDARD
  6
CONTINUOUS
 62
     7
100
AcDbVertex
100
AcDb2dVertex
 10
140.9997394648
 20
112.9493198276
 30
0.0
  0
SEQEND
  5
21F
330
173
100
AcDbEntity
  8
STANDARD
  6
CONTINUOUS
 62
     7
 48
25.4
  0
LINE
  5
174
330
170
100
AcDbEntity
  8
STANDARD
  6
CONTINUOUS
 62
     7
 48
25.4
100
AcDbLine
 10
109.5433868652
 20
124.4493198536
 30
0.0
 11
141.9997394735
 21
124.4493198536
 31
0.0
  0
LINE
  5
175
330
170
100
AcDbEntity
  8
STANDARD
  6
CONTINUOUS
 62
     7
 48
25.4
100
AcDbLine
 10
109.5433868652
 20
115.9493198536
 30
0.0
 11
141.9997394735
 21
115.9493198536
 31
0.0
  0
LINE
  5
176
330
170
100
AcDbEntity
  8
STANDARD
  6
CONTINUOUS
 62
     7
 48
25.4
100
AcDbLine
 10
140.4997394605
 20
130.4493199058
 30
0.0
 11
140.4997394605
 21
109.9493202708
 31
0.0
  0
TEXT
  5
177
330
170
100
AcDbEntity
  8
STANDARD
  6
CONTINUOUS
 62
     7
 48
25.4
100
AcDbText
 10
139.7497394605
 20
118.1197741681
 30
0.0
 40
3.0
  1
8,5
 50
90.0
  7
SEACAD_SEISO_TTF
 11
136.7497394605
 21
118.1197741681
 31
0.0
100
AcDbText
 73
     3
  0
ENDBLK
  5
179
330
170
100
AcDbEntity
  8
0
100
AcDbBlockEnd
  0
BLOCK
  5
182
330
17A
100
AcDbEntity
  8
0
100
AcDbBlockBegin
  2
SE8
 70
     0
 71
     0
 10
0.0
 20
0.0
 30
0.0
  3
SE8
  1

  0
POLYLINE
  5
17C
330
17A
100
AcDbEntity
  8
STANDARD
  6
CONTINUOUS
 62
     7
 48
25.4
100
AcDb2dPolyline
 66
     1
 10
0.0
 20
0.0
 30
0.0
 70
     1
  0
VERTEX
  5
225
330
17C
100
AcDbEntity
  8
STANDARD
  6
CONTINUOUS
 62
     7
100
AcDbVertex
100
AcDb2dVertex
 10
153.5576836276
 20
212.1993198276
 30
0.0
  0
VERTEX
  5
226
330
17C
100
AcDbEntity
  8
STANDARD
  6
CONTINUOUS
 62
     7
100
AcDbVertex
100
AcDb2dVertex
 10
153.0576836232
 20
215.1993198536
 30
0.0
  0
VERTEX
  5
227
330
17C
100
AcDbEntity
  8
STANDARD
  6
CONTINUOUS
 62
     7
100
AcDbVertex
100
AcDb2dVertex
 10
152.5576836189
 20
212.1993198276
 30
0.0
  0
VERTEX
  5
228
330
17C
100
AcDbEntity
  8
STANDARD
  6
CONTINUOUS
 62
     7
100
AcDbVertex
100
AcDb2dVertex
 10
153.5576836276
 20
212.1993198276
 30
0.0
  0
SEQEND
  5
224
330
17C
100
AcDbEntity
  8
STANDARD
  6
CONTINUOUS
 62
     7
 48
25.4
  0
POLYLINE
  5
17D
330
17A
100
AcDbEntity
  8
STANDARD
  6
CONTINUOUS
 62
     7
 48
25.4
100
AcDb2dPolyline
 66
     1
 10
0.0
 20
0.0
 30
0.0
 70
     1
  0
VERTEX
  5
22A
330
17D
100
AcDbEntity
  8
STANDARD
  6
CONTINUOUS
 62
     7
100
AcDbVertex
100
AcDb2dVertex
 10
153.5576836276
 20
173.1993198797
 30
0.0
  0
VERTEX
  5
22B
330
17D
100
AcDbEntity
  8
STANDARD
  6
CONTINUOUS
 62
     7
100
AcDbVertex
100
AcDb2dVertex
 10
153.0576836232
 20
170.1993198536
 30
0.0
  0
VERTEX
  5
22C
330
17D
100
AcDbEntity
  8
STANDARD
  6
CONTINUOUS
 62
     7
100
AcDbVertex
100
AcDb2dVertex
 10
152.5576836189
 20
173.1993198797
 30
0.0
  0
VERTEX
  5
22D
330
17D
100
AcDbEntity
  8
STANDARD
  6
CONTINUOUS
 62
     7
100
AcDbVertex
100
AcDb2dVertex
 10
153.5576836276
 20
173.1993198797
 30
0.0
  0
SEQEND
  5
229
330
17D
100
AcDbEntity
  8
STANDARD
  6
CONTINUOUS
 62
     7
 48
25.4
  0
LINE
  5
17E
330
17A
100
AcDbEntity
  8
STANDARD
  6
CONTINUOUS
 62
     7
 48
25.4
100
AcDbLine
 10
98.6384529535
 20
215.1993198536
 30
0.0
 11
154.5576836363
 21
215.1993198536
 31
0.0
  0
LINE
  5
17F
330
17A
100
AcDbEntity
  8
STANDARD
  6
CONTINUOUS
 62
     7
 48
25.4
100
AcDbLine
 10
105.8271589643
 20
170.1993198536
 30
0.0
 11
154.5576836363
 21
170.1993198536
 31
0.0
  0
LINE
  5
180
330
17A
100
AcDbEntity
  8
STANDARD
  6
CONTINUOUS
 62
     7
 48
25.4
100
AcDbLine
 10
153.0576836233
 20
215.1993198536
 30
0.0
 11
153.0576836233
 21
170.1993180655
 31
0.0
  0
TEXT
  5
181
330
17A
100
AcDbEntity
  8
STANDARD
  6
CONTINUOUS
 62
     7
 48
25.4
100
AcDbText
 10
152.3076836233
 20
190.9606825959
 30
0.0
 40
3.0
  1
45
 50
90.0
  7
SEACAD_SEISO_TTF
 11
149.3076836233
 21
190.9606825959
 31
0.0
100
AcDbText
 73
     3
  0
ENDBLK
  5
183
330
17A
100
AcDbEntity
  8
0
100
AcDbBlockEnd
  0
BLOCK
  5
18C
330
184
100
AcDbEntity
  8
0
100
AcDbBlockBegin
  2
SE9
 70
     0
 71
     0
 10
0.0
 20
0.0
 30
0.0
  3
SE9
  1

  0
POLYLINE
  5
186
330
184
100
AcDbEntity
  8
STANDARD
  6
CONTINUOUS
 62
     7
 48
25.4
100
AcDb2dPolyline
 66
     1
 10
0.0
 20
0.0
 30
0.0
 70
     1
  0
VERTEX
  5
22F
330
186
100
AcDbEntity
  8
STANDARD
  6
CONTINUOUS
 62
     7
100
AcDbVertex
100
AcDb2dVertex
 10
153.5576857735
 20
167.1993198276
 30
0.0
  0
VERTEX
  5
230
330
186
100
AcDbEntity
  8
STANDARD
  6
CONTINUOUS
 62
     7
100
AcDbVertex
100
AcDb2dVertex
 10
153.0576857692
 20
170.1993198536
 30
0.0
  0
VERTEX
  5
231
330
186
100
AcDbEntity
  8
STANDARD
  6
CONTINUOUS
 62
     7
100
AcDbVertex
100
AcDb2dVertex
 10
152.5576857649
 20
167.1993198276
 30
0.0
  0
VERTEX
  5
232
330
186
100
AcDbEntity
  8
STANDARD
  6
CONTINUOUS
 62
     7
100
AcDbVertex
100
AcDb2dVertex
 10
153.5576857735
 20
167.1993198276
 30
0.0
  0
SEQEND
  5
22E
330
186
100
AcDbEntity
  8
STANDARD
  6
CONTINUOUS
 62
     7
 48
25.4
  0
POLYLINE
  5
187
330
184
100
AcDbEntity
  8
STANDARD
  6
CONTINUOUS
 62
     7
 48
25.4
100
AcDb2dPolyline
 66
     1
 10
0.0
 20
0.0
 30
0.0
 70
     1
  0
VERTEX
  5
234
330
187
100
AcDbEntity
  8
STANDARD
  6
CONTINUOUS
 62
     7
100
AcDbVertex
100
AcDb2dVertex
 10
153.5576857735
 20
133.1993198797
 30
0.0
  0
VERTEX
  5
235
330
187
100
AcDbEntity
  8
STANDARD
  6
CONTINUOUS
 62
     7
100
AcDbVertex
100
AcDb2dVertex
 10
153.0576857692
 20
130.1993198536
 30
0.0
  0
VERTEX
  5
236
330
187
100
AcDbEntity
  8
STANDARD
  6
CONTINUOUS
 62
     7
100
AcDbVertex
100
AcDb2dVertex
 10
152.5576857649
 20
133.1993198797
 30
0.0
  0
VERTEX
  5
237
330
187
100
AcDbEntity
  8
STANDARD
  6
CONTINUOUS
 62
     7
100
AcDbVertex
100
AcDb2dVertex
 10
153.5576857735
 20
133.1993198797
 30
0.0
  0
SEQEND
  5
233
330
187
100
AcDbEntity
  8
STANDARD
  6
CONTINUOUS
 62
     7
 48
25.4
  0
LINE
  5
188
330
184
100
AcDbEntity
  8
STANDARD
  6
CONTINUOUS
 62
     7
 48
25.4
100
AcDbLine
 10
105.8271589643
 20
170.1993198536
 30
0.0
 11
154.5576857823
 21
170.1993198536
 31
0.0
  0
LINE
  5
189
330
184
100
AcDbEntity
  8
STANDARD
  6
CONTINUOUS
 62
     7
 48
25.4
100
AcDbLine
 10
101.9540702342
 20
130.1993198536
 30
0.0
 11
154.5576857823
 21
130.1993198536
 31
0.0
  0
LINE
  5
18A
330
184
100
AcDbEntity
  8
STANDARD
  6
CONTINUOUS
 62
     7
 48
25.4
100
AcDbLine
 10
153.0576857692
 20
170.1993198536
 30
0.0
 11
153.0576857692
 21
130.1993207477
 31
0.0
  0
TEXT
  5
18B
330
184
100
AcDbEntity
  8
STANDARD
  6
CONTINUOUS
 62
     7
 48
25.4
100
AcDbText
 10
152.3076857692
 20
148.4265930279
 30
0.0
 40
3.0
  1
40
 50
90.0
  7
SEACAD_SEISO_TTF
 11
149.3076857692
 21
148.4265930279
 31
0.0
100
AcDbText
 73
     3
  0
ENDBLK
  5
18D
330
184
100
AcDbEntity
  8
0
100
AcDbBlockEnd
  0
BLOCK
  5
196
330
18E
100
AcDbEntity
  8
0
100
AcDbBlockBegin
  2
SE10
 70
     0
 71
     0
 10
0.0
 20
0.0
 30
0.0
  3
SE10
  1

  0
POLYLINE
  5
190
330
18E
100
AcDbEntity
  8
STANDARD
  6
CONTINUOUS
 62
     7
 48
25.4
100
AcDb2dPolyline
 66
     1
 10
0.0
 20
0.0
 30
0.0
 70
     1
  0
VERTEX
  5
239
330
190
100
AcDbEntity
  8
STANDARD
  6
CONTINUOUS
 62
     7
100
AcDbVertex
100
AcDb2dVertex
 10
151.0276834657
 20
107.1993198276
 30
0.0
  0
VERTEX
  5
23A
330
190
100
AcDbEntity
  8
STANDARD
  6
CONTINUOUS
 62
     7
100
AcDbVertex
100
AcDb2dVertex
 10
150.5276834613
 20
110.1993198536
 30
0.0
  0
VERTEX
  5
23B
330
190
100
AcDbEntity
  8
STANDARD
  6
CONTINUOUS
 62
     7
100
AcDbVertex
100
AcDb2dVertex
 10
150.027683457
 20
107.1993198276
 30
0.0
  0
VERTEX
  5
23C
330
190
100
AcDbEntity
  8
STANDARD
  6
CONTINUOUS
 62
     7
100
AcDbVertex
100
AcDb2dVertex
 10
151.0276834657
 20
107.1993198276
 30
0.0
  0
SEQEND
  5
238
330
190
100
AcDbEntity
  8
STANDARD
  6
CONTINUOUS
 62
     7
 48
25.4
  0
POLYLINE
  5
191
330
18E
100
AcDbEntity
  8
STANDARD
  6
CONTINUOUS
 62
     7
 48
25.4
100
AcDb2dPolyline
 66
     1
 10
0.0
 20
0.0
 30
0.0
 70
     1
  0
VERTEX
  5
23E
330
191
100
AcDbEntity
  8
STANDARD
  6
CONTINUOUS
 62
     7
100
AcDbVertex
100
AcDb2dVertex
 10
151.0276834657
 20
81.1993198797
 30
0.0
  0
VERTEX
  5
23F
330
191
100
AcDbEntity
  8
STANDARD
  6
CONTINUOUS
 62
     7
100
AcDbVertex
100
AcDb2dVertex
 10
150.5276834613
 20
78.1993198536
 30
0.0
  0
VERTEX
  5
240
330
191
100
AcDbEntity
  8
STANDARD
  6
CONTINUOUS
 62
     7
100
AcDbVertex
100
AcDb2dVertex
 10
150.027683457
 20
81.1993198797
 30
0.0
  0
VERTEX
  5
241
330
191
100
AcDbEntity
  8
STANDARD
  6
CONTINUOUS
 62
     7
100
AcDbVertex
100
AcDb2dVertex
 10
151.0276834657
 20
81.1993198797
 30
0.0
  0
SEQEND
  5
23D
330
191
100
AcDbEntity
  8
STANDARD
  6
CONTINUOUS
 62
     7
 48
25.4
  0
LINE
  5
192
330
18E
100
AcDbEntity
  8
STANDARD
  6
CONTINUOUS
 62
     7
 48
25.4
100
AcDbLine
 10
102.3771589643
 20
110.1993198536
 30
0.0
 11
152.0276834744
 21
110.1993198536
 31
0.0
  0
LINE
  5
193
330
18E
100
AcDbEntity
  8
STANDARD
  6
CONTINUOUS
 62
     7
 48
25.4
100
AcDbLine
 10
94.8271589643
 20
78.1993198536
 30
0.0
 11
152.0276834744
 21
78.1993198536
 31
0.0
  0
LINE
  5
194
330
18E
100
AcDbEntity
  8
STANDARD
  6
CONTINUOUS
 62
     7
 48
25.4
100
AcDbLine
 10
150.5276834613
 20
110.1993198536
 30
0.0
 11
150.5276834613
 21
78.1993183337
 31
0.0
  0
TEXT
  5
195
330
18E
100
AcDbEntity
  8
STANDARD
  6
CONTINUOUS
 62
     7
 48
25.4
100
AcDbText
 10
149.7776834613
 20
92.4947736391
 30
0.0
 40
3.0
  1
32
 50
90.0
  7
SEACAD_SEISO_TTF
 11
146.7776834613
 21
92.4947736391
 31
0.0
100
AcDbText
 73
     3
  0
ENDBLK
  5
197
330
18E
100
AcDbEntity
  8
0
100
AcDbBlockEnd
  0
BLOCK
  5
1A0
330
198
100
AcDbEntity
  8
0
100
AcDbBlockBegin
  2
SE11
 70
     0
 71
     0
 10
0.0
 20
0.0
 30
0.0
  3
SE11
  1

  0
POLYLINE
  5
19A
330
198
100
AcDbEntity
  8
STANDARD
  6
CONTINUOUS
 62
     7
 48
25.4
100
AcDb2dPolyline
 66
     1
 10
0.0
 20
0.0
 30
0.0
 70
     1
  0
VERTEX
  5
243
330
19A
100
AcDbEntity
  8
STANDARD
  6
CONTINUOUS
 62
     7
100
AcDbVertex
100
AcDb2dVertex
 10
153.5576863994
 20
67.1993198276
 30
0.0
  0
VERTEX
  5
244
330
19A
100
AcDbEntity
  8
STANDARD
  6
CONTINUOUS
 62
     7
100
AcDbVertex
100
AcDb2dVertex
 10
153.057686395
 20
70.1993198536
 30
0.0
  0
VERTEX
  5
245
330
19A
100
AcDbEntity
  8
STANDARD
  6
CONTINUOUS
 62
     7
100
AcDbVertex
100
AcDb2dVertex
 10
152.5576863907
 20
67.1993198276
 30
0.0
  0
VERTEX
  5
246
330
19A
100
AcDbEntity
  8
STANDARD
  6
CONTINUOUS
 62
     7
100
AcDbVertex
100
AcDb2dVertex
 10
153.5576863994
 20
67.1993198276
 30
0.0
  0
SEQEND
  5
242
330
19A
100
AcDbEntity
  8
STANDARD
  6
CONTINUOUS
 62
     7
 48
25.4
  0
POLYLINE
  5
19B
330
198
100
AcDbEntity
  8
STANDARD
  6
CONTINUOUS
 62
     7
 48
25.4
100
AcDb2dPolyline
 66
     1
 10
0.0
 20
0.0
 30
0.0
 70
     1
  0
VERTEX
  5
248
330
19B
100
AcDbEntity
  8
STANDARD
  6
CONTINUOUS
 62
     7
100
AcDbVertex
100
AcDb2dVertex
 10
153.5576863994
 20
81.1993198797
 30
0.0
  0
VERTEX
  5
249
330
19B
100
AcDbEntity
  8
STANDARD
  6
CONTINUOUS
 62
     7
100
AcDbVertex
100
AcDb2dVertex
 10
153.057686395
 20
78.1993198536
 30
0.0
  0
VERTEX
  5
24A
330
19B
100
AcDbEntity
  8
STANDARD
  6
CONTINUOUS
 62
     7
100
AcDbVertex
100
AcDb2dVertex
 10
152.5576863907
 20
81.1993198797
 30
0.0
  0
VERTEX
  5
24B
330
19B
100
AcDbEntity
  8
STANDARD
  6
CONTINUOUS
 62
     7
100
AcDbVertex
100
AcDb2dVertex
 10
153.5576863994
 20
81.1993198797
 30
0.0
  0
SEQEND
  5
247
330
19B
100
AcDbEntity
  8
STANDARD
  6
CONTINUOUS
 62
     7
 48
25.4
  0
LINE
  5
19C
330
198
100
AcDbEntity
  8
STANDARD
  6
CONTINUOUS
 62
     7
 48
25.4
100
AcDbLine
 10
96.3271589643
 20
70.1993198536
 30
0.0
 11
154.5576864081
 21
70.1993198536
 31
0.0
  0
LINE
  5
19D
330
198
100
AcDbEntity
  8
STANDARD
  6
CONTINUOUS
 62
     7
 48
25.4
100
AcDbLine
 10
96.3271589643
 20
78.1993198536
 30
0.0
 11
154.5576864081
 21
78.1993198536
 31
0.0
  0
LINE
  5
19E
330
198
100
AcDbEntity
  8
STANDARD
  6
CONTINUOUS
 62
     7
 48
25.4
100
AcDbLine
 10
153.0576863951
 20
64.1993198015
 30
0.0
 11
153.0576863951
 21
84.1993202857
 31
0.0
  0
TEXT
  5
19F
330
198
100
AcDbEntity
  8
STANDARD
  6
CONTINUOUS
 62
     7
 48
25.4
100
AcDbText
 10
152.3076863951
 20
73.2447745891
 30
0.0
 40
3.0
  1
8
 50
90.0
  7
SEACAD_SEISO_TTF
 11
149.3076863951
 21
73.2447745891
 31
0.0
100
AcDbText
 73
     3
  0
ENDBLK
  5
1A1
330
198
100
AcDbEntity
  8
0
100
AcDbBlockEnd
  0
BLOCK
  5
1AE
330
1A2
100
AcDbEntity
  8
0
100
AcDbBlockBegin
  2
SE12
 70
     0
 71
     0
 10
0.0
 20
0.0
 30
0.0
  3
SE12
  1

  0
POLYLINE
  5
1A4
330
1A2
100
AcDbEntity
  8
STANDARD
  6
CONTINUOUS
 62
     7
 48
25.4
100
AcDb2dPolyline
 66
     1
 10
0.0
 20
0.0
 30
0.0
 70
     1
  0
VERTEX
  5
24D
330
1A4
100
AcDbEntity
  8
STANDARD
  6
CONTINUOUS
 62
     7
100
AcDbVertex
100
AcDb2dVertex
 10
49.1355252391
 20
191.8466141609
 30
0.0
  0
VERTEX
  5
24E
330
1A4
100
AcDbEntity
  8
STANDARD
  6
CONTINUOUS
 62
     7
100
AcDbVertex
100
AcDb2dVertex
 10
49.6355252435
 20
188.8466141349
 30
0.0
  0
VERTEX
  5
24F
330
1A4
100
AcDbEntity
  8
STANDARD
  6
CONTINUOUS
 62
     7
100
AcDbVertex
100
AcDb2dVertex
 10
50.1355252478
 20
191.8466141609
 30
0.0
  0
VERTEX
  5
250
330
1A4
100
AcDbEntity
  8
STANDARD
  6
CONTINUOUS
 62
     7
100
AcDbVertex
100
AcDb2dVertex
 10
49.1355252391
 20
191.8466141609
 30
0.0
  0
SEQEND
  5
24C
330
1A4
100
AcDbEntity
  8
STANDARD
  6
CONTINUOUS
 62
     7
 48
25.4
  0
POLYLINE
  5
1A5
330
1A2
100
AcDbEntity
  8
STANDARD
  6
CONTINUOUS
 62
     7
 48
25.4
100
AcDb2dPolyline
 66
     1
 10
0.0
 20
0.0
 30
0.0
 70
     1
  0
VERTEX
  5
252
330
1A5
100
AcDbEntity
  8
STANDARD
  6
CONTINUOUS
 62
     7
100
AcDbVertex
100
AcDb2dVertex
 10
49.1355252391
 20
178.5520255463
 30
0.0
  0
VERTEX
  5
253
330
1A5
100
AcDbEntity
  8
STANDARD
  6
CONTINUOUS
 62
     7
100
AcDbVertex
100
AcDb2dVertex
 10
49.6355252435
 20
181.5520255724
 30
0.0
  0
VERTEX
  5
254
330
1A5
100
AcDbEntity
  8
STANDARD
  6
CONTINUOUS
 62
     7
100
AcDbVertex
100
AcDb2dVertex
 10
50.1355252478
 20
178.5520255463
 30
0.0
  0
VERTEX
  5
255
330
1A5
100
AcDbEntity
  8
STANDARD
  6
CONTINUOUS
 62
     7
100
AcDbVertex
100
AcDb2dVertex
 10
49.1355252391
 20
178.5520255463
 30
0.0
  0
SEQEND
  5
251
330
1A5
100
AcDbEntity
  8
STANDARD
  6
CONTINUOUS
 62
     7
 48
25.4
  0
LINE
  5
1A6
330
1A2
100
AcDbEntity
  8
STANDARD
  6
CONTINUOUS
 62
     7
 48
25.4
100
AcDbLine
 10
61.3692043444
 20
188.8466141348
 30
0.0
 11
48.1355252305
 21
188.8466141348
 31
0.0
  0
LINE
  5
1A7
330
1A2
100
AcDbEntity
  8
STANDARD
  6
CONTINUOUS
 62
     7
 48
25.4
100
AcDbLine
 10
61.3692043444
 20
181.5520255724
 30
0.0
 11
48.1355252305
 21
181.5520255724
 31
0.0
  0
LINE
  5
1A8
330
1A2
100
AcDbEntity
  8
STANDARD
  6
CONTINUOUS
 62
     7
 48
25.4
100
AcDbLine
 10
49.6355252435
 20
194.846614187
 30
0.0
 11
49.6355252435
 21
154.390629304
 31
0.0
  0
TEXT
  5
1A9
330
1A2
100
AcDbEntity
  8
STANDARD
  6
CONTINUOUS
 62
     7
 48
25.4
100
AcDbText
 10
48.8855252435
 20
155.4406301093
 30
0.0
 40
3.0
  1
3x 
 50
90.0
  7
SEACAD_SEISO_TTF
 11
45.8855252435
 21
155.4406301093
 31
0.0
100
AcDbText
 73
     3
  0
TEXT
  5
1AA
330
1A2
100
AcDbEntity
  8
STANDARD
  6
CONTINUOUS
 62
     7
 48
25.4
100
AcDbText
 10
48.8855252435
 20
159.7360846548
 30
0.0
 40
3.0
  1
q
 50
90.0
  7
SEACAD_SEMECI1_TTF
 11
45.8855252435
 21
159.7360846548
 31
0.0
100
AcDbText
 73
     3
  0
TEXT
  5
1AB
330
1A2
100
AcDbEntity
  8
STANDARD
  6
CONTINUOUS
 62
     7
 48
25.4
100
AcDbText
 10
48.8855252435
 20
163.1421981919
 30
0.0
 40
3.0
  1
7,3/
 50
90.0
  7
SEACAD_SEISO_TTF
 11
45.8855252435
 21
163.1421981919
 31
0.0
100
AcDbText
 73
     3
  0
TEXT
  5
1AC
330
1A2
100
AcDbEntity
  8
STANDARD
  6
CONTINUOUS
 62
     7
 48
25.4
100
AcDbText
 10
48.8855252435
 20
168.2558345556
 30
0.0
 40
3.0
  1
q
 50
90.0
  7
SEACAD_SEMECI1_TTF
 11
45.8855252435
 21
168.2558345556
 31
0.0
100
AcDbText
 73
     3
  0
TEXT
  5
1AD
330
1A2
100
AcDbEntity
  8
STANDARD
  6
CONTINUOUS
 62
     7
 48
25.4
100
AcDbText
 10
48.8855252435
 20
171.6619480927
 30
0.0
 40
3.0
  1
7,2
 50
90.0
  7
SEACAD_SEISO_TTF
 11
45.8855252435
 21
171.6619480927
 31
0.0
100
AcDbText
 73
     3
  0
ENDBLK
  5
1AF
330
1A2
100
AcDbEntity
  8
0
100
AcDbBlockEnd
  0
BLOCK
  5
1B9
330
1B0
100
AcDbEntity
  8
0
100
AcDbBlockBegin
  2
SE13
 70
     0
 71
     0
 10
0.0
 20
0.0
 30
0.0
  3
SE13
  1

  0
POLYLINE
  5
1B2
330
1B0
100
AcDbEntity
  8
STANDARD
  6
CONTINUOUS
 62
     7
 48
25.4
100
AcDb2dPolyline
 66
     1
 10
0.0
 20
0.0
 30
0.0
 70
     1
  0
VERTEX
  5
257
330
1B2
100
AcDbEntity
  8
STANDARD
  6
CONTINUOUS
 62
     7
100
AcDbVertex
100
AcDb2dVertex
 10
49.7751473658
 20
265.4879253991
 30
0.0
  0
VERTEX
  5
258
330
1B2
100
AcDbEntity
  8
STANDARD
  6
CONTINUOUS
 62
     7
100
AcDbVertex
100
AcDb2dVertex
 10
50.2751473701
 20
268.4879254252
 30
0.0
  0
VERTEX
  5
259
330
1B2
100
AcDbEntity
  8
STANDARD
  6
CONTINUOUS
 62
     7
100
AcDbVertex
100
AcDb2dVertex
 10
50.7751473744
 20
265.4879253991
 30
0.0
  0
VERTEX
  5
25A
330
1B2
100
AcDbEntity
  8
STANDARD
  6
CONTINUOUS
 62
     7
100
AcDbVertex
100
AcDb2dVertex
 10
49.7751473658
 20
265.4879253991
 30
0.0
  0
SEQEND
  5
256
330
1B2
100
AcDbEntity
  8
STANDARD
  6
CONTINUOUS
 62
     7
 48
25.4
  0
POLYLINE
  5
1B3
330
1B0
100
AcDbEntity
  8
STANDARD
  6
CONTINUOUS
 62
     7
 48
25.4
100
AcDb2dPolyline
 66
     1
 10
0.0
 20
0.0
 30
0.0
 70
     1
  0
VERTEX
  5
25C
330
1B3
100
AcDbEntity
  8
STANDARD
  6
CONTINUOUS
 62
     7
100
AcDbVertex
100
AcDb2dVertex
 10
49.7751473658
 20
259.4879254513
 30
0.0
  0
VERTEX
  5
25D
330
1B3
100
AcDbEntity
  8
STANDARD
  6
CONTINUOUS
 62
     7
100
AcDbVertex
100
AcDb2dVertex
 10
50.2751473701
 20
256.4879254252
 30
0.0
  0
VERTEX
  5
25E
330
1B3
100
AcDbEntity
  8
STANDARD
  6
CONTINUOUS
 62
     7
100
AcDbVertex
100
AcDb2dVertex
 10
50.7751473744
 20
259.4879254513
 30
0.0
  0
VERTEX
  5
25F
330
1B3
100
AcDbEntity
  8
STANDARD
  6
CONTINUOUS
 62
     7
100
AcDbVertex
100
AcDb2dVertex
 10
49.7751473658
 20
259.4879254513
 30
0.0
  0
SEQEND
  5
25B
330
1B3
100
AcDbEntity
  8
STANDARD
  6
CONTINUOUS
 62
     7
 48
25.4
  0
LINE
  5
1B4
330
1B0
100
AcDbEntity
  8
STANDARD
  6
CONTINUOUS
 62
     7
 48
25.4
100
AcDbLine
 10
61.8271589643
 20
268.4879254252
 30
0.0
 11
48.7751473571
 21
268.4879254252
 31
0.0
  0
LINE
  5
1B5
330
1B0
100
AcDbEntity
  8
STANDARD
  6
CONTINUOUS
 62
     7
 48
25.4
100
AcDbLine
 10
61.8271589643
 20
256.4879254252
 30
0.0
 11
48.7751473571
 21
256.4879254252
 31
0.0
  0
LINE
  5
1B6
330
1B0
100
AcDbEntity
  8
STANDARD
  6
CONTINUOUS
 62
     7
 48
25.4
100
AcDbLine
 10
50.2751473701
 20
268.4879254252
 30
0.0
 11
50.2751473701
 21
256.4879253209
 31
0.0
  0
TEXT
  5
1B7
330
1B0
100
AcDbEntity
  8
STANDARD
  6
CONTINUOUS
 62
     7
 48
25.4
100
AcDbText
 10
49.5251473701
 20
262.7741401408
 30
0.0
 40
3.0
  1
12
 50
90.0
  7
SEACAD_SEISO_TTF
 11
46.5251473701
 21
262.7741401408
 31
0.0
100
AcDbText
 73
     3
  0
TEXT
  5
1B8
330
1B0
100
AcDbEntity
  8
STANDARD
  6
CONTINUOUS
 62
     7
 48
25.4
100
AcDbText
 10
49.5251473701
 20
259.1335287871
 30
0.0
 40
3.0
  1
O
 50
90.0
  7
SEACAD_SEMECI1_TTF
 11
46.5251473701
 21
259.1335287871
 31
0.0
100
AcDbText
 73
     3
  0
ENDBLK
  5
1BA
330
1B0
100
AcDbEntity
  8
0
100
AcDbBlockEnd
  0
BLOCK
  5
1C3
330
1BB
100
AcDbEntity
  8
0
100
AcDbBlockBegin
  2
SE14
 70
     0
 71
     0
 10
0.0
 20
0.0
 30
0.0
  3
SE14
  1

  0
POLYLINE
  5
1BD
330
1BB
100
AcDbEntity
  8
STANDARD
  6
CONTINUOUS
 62
     7
 48
25.4
100
AcDb2dPolyline
 66
     1
 10
0.0
 20
0.0
 30
0.0
 70
     1
  0
VERTEX
  5
261
330
1BD
100
AcDbEntity
  8
STANDARD
  6
CONTINUOUS
 62
     7
100
AcDbVertex
100
AcDb2dVertex
 10
63.8271589904
 20
283.674398685
 30
0.0
  0
VERTEX
  5
262
330
1BD
100
AcDbEntity
  8
STANDARD
  6
CONTINUOUS
 62
     7
100
AcDbVertex
100
AcDb2dVertex
 10
60.8271589643
 20
283.1743986807
 30
0.0
  0
VERTEX
  5
263
330
1BD
100
AcDbEntity
  8
STANDARD
  6
CONTINUOUS
 62
     7
100
AcDbVertex
100
AcDb2dVertex
 10
63.8271589904
 20
282.6743986764
 30
0.0
  0
VERTEX
  5
264
330
1BD
100
AcDbEntity
  8
STANDARD
  6
CONTINUOUS
 62
     7
100
AcDbVertex
100
AcDb2dVertex
 10
63.8271589904
 20
283.674398685
 30
0.0
  0
SEQEND
  5
260
330
1BD
100
AcDbEntity
  8
STANDARD
  6
CONTINUOUS
 62
     7
 48
25.4
  0
POLYLINE
  5
1BE
330
1BB
100
AcDbEntity
  8
STANDARD
  6
CONTINUOUS
 62
     7
 48
25.4
100
AcDb2dPolyline
 66
     1
 10
0.0
 20
0.0
 30
0.0
 70
     1
  0
VERTEX
  5
266
330
1BE
100
AcDbEntity
  8
STANDARD
  6
CONTINUOUS
 62
     7
100
AcDbVertex
100
AcDb2dVertex
 10
91.854097116
 20
283.674398685
 30
0.0
  0
VERTEX
  5
267
330
1BE
100
AcDbEntity
  8
STANDARD
  6
CONTINUOUS
 62
     7
100
AcDbVertex
100
AcDb2dVertex
 10
94.8540971421
 20
283.1743986807
 30
0.0
  0
VERTEX
  5
268
330
1BE
100
AcDbEntity
  8
STANDARD
  6
CONTINUOUS
 62
     7
100
AcDbVertex
100
AcDb2dVertex
 10
91.854097116
 20
282.6743986764
 30
0.0
  0
VERTEX
  5
269
330
1BE
100
AcDbEntity
  8
STANDARD
  6
CONTINUOUS
 62
     7
100
AcDbVertex
100
AcDb2dVertex
 10
91.854097116
 20
283.674398685
 30
0.0
  0
SEQEND
  5
265
330
1BE
100
AcDbEntity
  8
STANDARD
  6
CONTINUOUS
 62
     7
 48
25.4
  0
LINE
  5
1BF
330
1BB
100
AcDbEntity
  8
STANDARD
  6
CONTINUOUS
 62
     7
 48
25.4
100
AcDbLine
 10
60.8271589643
 20
265.2804435692
 30
0.0
 11
60.8271589643
 21
284.6743986937
 31
0.0
  0
LINE
  5
1C0
330
1BB
100
AcDbEntity
  8
STANDARD
  6
CONTINUOUS
 62
     7
 48
25.4
100
AcDbLine
 10
94.8540971421
 20
263.1550249351
 30
0.0
 11
94.8540971421
 21
284.6743986937
 31
0.0
  0
LINE
  5
1C1
330
1BB
100
AcDbEntity
  8
STANDARD
  6
CONTINUOUS
 62
     7
 48
25.4
100
AcDbLine
 10
60.8271589643
 20
283.1743986807
 30
0.0
 11
94.8540983862
 21
283.1743986807
 31
0.0
  0
TEXT
  5
1C2
330
1BB
100
AcDbEntity
  8
STANDARD
  6
CONTINUOUS
 62
     7
 48
25.4
100
AcDbText
 10
76.1701741298
 20
283.9243986807
 30
0.0
 40
3.0
  1
34
  7
SEACAD_SEISO_TTF
 11
76.1701741298
 21
286.9243986807
 31
0.0
100
AcDbText
 73
     3
  0
ENDBLK
  5
1C4
330
1BB
100
AcDbEntity
  8
0
100
AcDbBlockEnd
  0
BLOCK
  5
1CD
330
1C5
100
AcDbEntity
  8
0
100
AcDbBlockBegin
  2
SE15
 70
     0
 71
     0
 10
0.0
 20
0.0
 30
0.0
  3
SE15
  1

  0
POLYLINE
  5
1C7
330
1C5
100
AcDbEntity
  8
STANDARD
  6
CONTINUOUS
 62
     7
 48
25.4
100
AcDb2dPolyline
 66
     1
 10
0.0
 20
0.0
 30
0.0
 70
     1
  0
VERTEX
  5
26B
330
1C7
100
AcDbEntity
  8
STANDARD
  6
CONTINUOUS
 62
     7
100
AcDbVertex
100
AcDb2dVertex
 10
97.8540971682
 20
283.6743978646
 30
0.0
  0
VERTEX
  5
26C
330
1C7
100
AcDbEntity
  8
STANDARD
  6
CONTINUOUS
 62
     7
100
AcDbVertex
100
AcDb2dVertex
 10
94.8540971421
 20
283.1743978603
 30
0.0
  0
VERTEX
  5
26D
330
1C7
100
AcDbEntity
  8
STANDARD
  6
CONTINUOUS
 62
     7
100
AcDbVertex
100
AcDb2dVertex
 10
97.8540971682
 20
282.6743978559
 30
0.0
  0
VERTEX
  5
26E
330
1C7
100
AcDbEntity
  8
STANDARD
  6
CONTINUOUS
 62
     7
100
AcDbVertex
100
AcDb2dVertex
 10
97.8540971682
 20
283.6743978646
 30
0.0
  0
SEQEND
  5
26A
330
1C7
100
AcDbEntity
  8
STANDARD
  6
CONTINUOUS
 62
     7
 48
25.4
  0
POLYLINE
  5
1C8
330
1C5
100
AcDbEntity
  8
STANDARD
  6
CONTINUOUS
 62
     7
 48
25.4
100
AcDb2dPolyline
 66
     1
 10
0.0
 20
0.0
 30
0.0
 70
     1
  0
VERTEX
  5
270
330
1C8
100
AcDbEntity
  8
STANDARD
  6
CONTINUOUS
 62
     7
100
AcDbVertex
100
AcDb2dVertex
 10
125.8271589382
 20
283.6743978646
 30
0.0
  0
VERTEX
  5
271
330
1C8
100
AcDbEntity
  8
STANDARD
  6
CONTINUOUS
 62
     7
100
AcDbVertex
100
AcDb2dVertex
 10
128.8271589643
 20
283.1743978603
 30
0.0
  0
VERTEX
  5
272
330
1C8
100
AcDbEntity
  8
STANDARD
  6
CONTINUOUS
 62
     7
100
AcDbVertex
100
AcDb2dVertex
 10
125.8271589382
 20
282.6743978559
 30
0.0
  0
VERTEX
  5
273
330
1C8
100
AcDbEntity
  8
STANDARD
  6
CONTINUOUS
 62
     7
100
AcDbVertex
100
AcDb2dVertex
 10
125.8271589382
 20
283.6743978646
 30
0.0
  0
SEQEND
  5
26F
330
1C8
100
AcDbEntity
  8
STANDARD
  6
CONTINUOUS
 62
     7
 48
25.4
  0
LINE
  5
1C9
330
1C5
100
AcDbEntity
  8
STANDARD
  6
CONTINUOUS
 62
     7
 48
25.4
100
AcDbLine
 10
94.8540971421
 20
246.5149019552
 30
0.0
 11
94.8540971421
 21
284.6743978733
 31
0.0
  0
LINE
  5
1CA
330
1C5
100
AcDbEntity
  8
STANDARD
  6
CONTINUOUS
 62
     7
 48
25.4
100
AcDbLine
 10
128.8271589643
 20
265.1233889465
 30
0.0
 11
128.8271589643
 21
284.6743978733
 31
0.0
  0
LINE
  5
1CB
330
1C5
100
AcDbEntity
  8
STANDARD
  6
CONTINUOUS
 62
     7
 48
25.4
100
AcDbLine
 10
94.8540971421
 20
283.1743978603
 30
0.0
 11
128.8271576904
 21
283.1743978603
 31
0.0
  0
TEXT
  5
1CC
330
1C5
100
AcDbEntity
  8
STANDARD
  6
CONTINUOUS
 62
     7
 48
25.4
100
AcDbText
 10
110.1701728708
 20
283.9243978603
 30
0.0
 40
3.0
  1
34
  7
SEACAD_SEISO_TTF
 11
110.1701728708
 21
286.9243978603
 31
0.0
100
AcDbText
 73
     3
  0
ENDBLK
  5
1CE
330
1C5
100
AcDbEntity
  8
0
100
AcDbBlockEnd
  0
BLOCK
  5
1DC
330
1CF
100
AcDbEntity
  8
0
100
AcDbBlockBegin
  2
SE16
 70
     0
 71
     0
 10
0.0
 20
0.0
 30
0.0
  3
SE16
  1

  0
POLYLINE
  5
1D1
330
1CF
100
AcDbEntity
  8
STANDARD
  6
CONTINUOUS
 62
     7
 48
25.4
100
AcDb2dPolyline
 66
     1
 10
0.0
 20
0.0
 30
0.0
 70
     1
  0
VERTEX
  5
275
330
1D1
100
AcDbEntity
  8
STANDARD
  6
CONTINUOUS
 62
     7
100
AcDbVertex
100
AcDb2dVertex
 10
142.0258207156
 20
191.3468362467
 30
0.0
  0
VERTEX
  5
276
330
1D1
100
AcDbEntity
  8
STANDARD
  6
CONTINUOUS
 62
     7
100
AcDbVertex
100
AcDb2dVertex
 10
141.5258207112
 20
188.3468362206
 30
0.0
  0
VERTEX
  5
277
330
1D1
100
AcDbEntity
  8
STANDARD
  6
CONTINUOUS
 62
     7
100
AcDbVertex
100
AcDb2dVertex
 10
141.0258207069
 20
191.3468362467
 30
0.0
  0
VERTEX
  5
278
330
1D1
100
AcDbEntity
  8
STANDARD
  6
CONTINUOUS
 62
     7
100
AcDbVertex
100
AcDb2dVertex
 10
142.0258207156
 20
191.3468362467
 30
0.0
  0
SEQEND
  5
274
330
1D1
100
AcDbEntity
  8
STANDARD
  6
CONTINUOUS
 62
     7
 48
25.4
  0
POLYLINE
  5
1D2
330
1CF
100
AcDbEntity
  8
STANDARD
  6
CONTINUOUS
 62
     7
 48
25.4
100
AcDb2dPolyline
 66
     1
 10
0.0
 20
0.0
 30
0.0
 70
     1
  0
VERTEX
  5
27A
330
1D2
100
AcDbEntity
  8
STANDARD
  6
CONTINUOUS
 62
     7
100
AcDbVertex
100
AcDb2dVertex
 10
142.0258207156
 20
179.0518034605
 30
0.0
  0
VERTEX
  5
27B
330
1D2
100
AcDbEntity
  8
STANDARD
  6
CONTINUOUS
 62
     7
100
AcDbVertex
100
AcDb2dVertex
 10
141.5258207112
 20
182.0518034866
 30
0.0
  0
VERTEX
  5
27C
330
1D2
100
AcDbEntity
  8
STANDARD
  6
CONTINUOUS
 62
     7
100
AcDbVertex
100
AcDb2dVertex
 10
141.0258207069
 20
179.0518034605
 30
0.0
  0
VERTEX
  5
27D
330
1D2
100
AcDbEntity
  8
STANDARD
  6
CONTINUOUS
 62
     7
100
AcDbVertex
100
AcDb2dVertex
 10
142.0258207156
 20
179.0518034605
 30
0.0
  0
SEQEND
  5
279
330
1D2
100
AcDbEntity
  8
STANDARD
  6
CONTINUOUS
 62
     7
 48
25.4
  0
LINE
  5
1D3
330
1CF
100
AcDbEntity
  8
STANDARD
  6
CONTINUOUS
 62
     7
 48
25.4
100
AcDbLine
 10
128.3296047464
 20
188.3468362206
 30
0.0
 11
143.0258207243
 21
188.3468362206
 31
0.0
  0
LINE
  5
1D4
330
1CF
100
AcDbEntity
  8
STANDARD
  6
CONTINUOUS
 62
     7
 48
25.4
100
AcDbLine
 10
128.3296047464
 20
182.0518034866
 30
0.0
 11
143.0258207243
 21
182.0518034866
 31
0.0
  0
LINE
  5
1D5
330
1CF
100
AcDbEntity
  8
STANDARD
  6
CONTINUOUS
 62
     7
 48
25.4
100
AcDbLine
 10
141.5258207113
 20
194.3468362728
 30
0.0
 11
141.5258207113
 21
144.8916862422
 31
0.0
  0
TEXT
  5
1D6
330
1CF
100
AcDbEntity
  8
STANDARD
  6
CONTINUOUS
 62
     7
 48
25.4
100
AcDbText
 10
140.7758207113
 20
153.9432540055
 30
0.0
 40
3.0
  1
6,3
 50
90.0
  7
SEACAD_SEISO_TTF
 11
137.7758207113
 21
153.9432540055
 31
0.0
100
AcDbText
 73
     3
  0
TEXT
  5
1D7
330
1CF
100
AcDbEntity
  8
STANDARD
  6
CONTINUOUS
 62
     7
 48
25.4
100
AcDbText
 10
140.7758207113
 20
145.941685923
 30
0.0
 40
3.0
  1
3x 
 50
90.0
  7
SEACAD_SEISO_TTF
 11
137.7758207113
 21
145.941685923
 31
0.0
100
AcDbText
 73
     3
  0
TEXT
  5
1D8
330
1CF
100
AcDbEntity
  8
STANDARD
  6
CONTINUOUS
 62
     7
 48
25.4
100
AcDbText
 10
140.7758207113
 20
150.2371404684
 30
0.0
 40
3.0
  1
q
 50
90.0
  7
SEACAD_SEMECI1_TTF
 11
137.7758207113
 21
150.2371404684
 31
0.0
100
AcDbText
 73
     3
  0
TEXT
  5
1D9
330
1CF
100
AcDbEntity
  8
STANDARD
  6
CONTINUOUS
 62
     7
 48
25.4
100
AcDbText
 10
140.7758207113
 20
158.1977994601
 30
0.0
 40
3.0
  1
/
 50
90.0
  7
SEACAD_SEISO_TTF
 11
137.7758207113
 21
158.1977994601
 31
0.0
100
AcDbText
 73
     3
  0
TEXT
  5
1DA
330
1CF
100
AcDbEntity
  8
STANDARD
  6
CONTINUOUS
 62
     7
 48
25.4
100
AcDbText
 10
140.7758207113
 20
159.288708551
 30
0.0
 40
3.0
  1
q
 50
90.0
  7
SEACAD_SEMECI1_TTF
 11
137.7758207113
 21
159.288708551
 31
0.0
100
AcDbText
 73
     3
  0
TEXT
  5
1DB
330
1CF
100
AcDbEntity
  8
STANDARD
  6
CONTINUOUS
 62
     7
 48
25.4
100
AcDbText
 10
140.7758207113
 20
162.6948220881
 30
0.0
 40
3.0
  1
6,2
 50
90.0
  7
SEACAD_SEISO_TTF
 11
137.7758207113
 21
162.6948220881
 31
0.0
100
AcDbText
 73
     3
  0
ENDBLK
  5
1DD
330
1CF
100
AcDbEntity
  8
0
100
AcDbBlockEnd
  0
BLOCK
  5
1EB
330
1DE
100
AcDbEntity
  8
0
100
AcDbBlockBegin
  2
SE17
 70
     0
 71
     0
 10
0.0
 20
0.0
 30
0.0
  3
SE17
  1

  0
POLYLINE
  5
1E0
330
1DE
100
AcDbEntity
  8
STANDARD
  6
CONTINUOUS
 62
     7
 48
25.4
100
AcDb2dPolyline
 66
     1
 10
0.0
 20
0.0
 30
0.0
 70
     1
  0
VERTEX
  5
27F
330
1E0
100
AcDbEntity
  8
STANDARD
  6
CONTINUOUS
 62
     7
100
AcDbVertex
100
AcDb2dVertex
 10
87.6796423215
 20
232.0278865136
 30
0.0
  0
VERTEX
  5
280
330
1E0
100
AcDbEntity
  8
STANDARD
  6
CONTINUOUS
 62
     7
100
AcDbVertex
100
AcDb2dVertex
 10
90.6796423475
 20
231.5278865092
 30
0.0
  0
VERTEX
  5
281
330
1E0
100
AcDbEntity
  8
STANDARD
  6
CONTINUOUS
 62
     7
100
AcDbVertex
100
AcDb2dVertex
 10
87.6796423215
 20
231.0278865049
 30
0.0
  0
VERTEX
  5
282
330
1E0
100
AcDbEntity
  8
STANDARD
  6
CONTINUOUS
 62
     7
100
AcDbVertex
100
AcDb2dVertex
 10
87.6796423215
 20
232.0278865136
 30
0.0
  0
SEQEND
  5
27E
330
1E0
100
AcDbEntity
  8
STANDARD
  6
CONTINUOUS
 62
     7
 48
25.4
  0
POLYLINE
  5
1E1
330
1DE
100
AcDbEntity
  8
STANDARD
  6
CONTINUOUS
 62
     7
 48
25.4
100
AcDb2dPolyline
 66
     1
 10
0.0
 20
0.0
 30
0.0
 70
     1
  0
VERTEX
  5
284
330
1E1
100
AcDbEntity
  8
STANDARD
  6
CONTINUOUS
 62
     7
100
AcDbVertex
100
AcDb2dVertex
 10
101.9746756071
 20
232.0278865136
 30
0.0
  0
VERTEX
  5
285
330
1E1
100
AcDbEntity
  8
STANDARD
  6
CONTINUOUS
 62
     7
100
AcDbVertex
100
AcDb2dVertex
 10
98.974675581
 20
231.5278865092
 30
0.0
  0
VERTEX
  5
286
330
1E1
100
AcDbEntity
  8
STANDARD
  6
CONTINUOUS
 62
     7
100
AcDbVertex
100
AcDb2dVertex
 10
101.9746756071
 20
231.0278865049
 30
0.0
  0
VERTEX
  5
287
330
1E1
100
AcDbEntity
  8
STANDARD
  6
CONTINUOUS
 62
     7
100
AcDbVertex
100
AcDb2dVertex
 10
101.9746756071
 20
232.0278865136
 30
0.0
  0
SEQEND
  5
283
330
1E1
100
AcDbEntity
  8
STANDARD
  6
CONTINUOUS
 62
     7
 48
25.4
  0
LINE
  5
1E2
330
1DE
100
AcDbEntity
  8
STANDARD
  6
CONTINUOUS
 62
     7
 48
25.4
100
AcDbLine
 10
90.6796423476
 20
214.7018156641
 30
0.0
 11
90.6796423476
 21
233.0278865222
 31
0.0
  0
LINE
  5
1E3
330
1DE
100
AcDbEntity
  8
STANDARD
  6
CONTINUOUS
 62
     7
 48
25.4
100
AcDbLine
 10
98.9746755811
 20
214.7018156641
 30
0.0
 11
98.9746755811
 21
233.0278865222
 31
0.0
  0
LINE
  5
1E4
330
1DE
100
AcDbEntity
  8
STANDARD
  6
CONTINUOUS
 62
     7
 48
25.4
100
AcDbLine
 10
84.6796422954
 20
231.5278865092
 30
0.0
 11
125.711806653
 21
231.5278865092
 31
0.0
  0
TEXT
  5
1E5
330
1DE
100
AcDbEntity
  8
STANDARD
  6
CONTINUOUS
 62
     7
 48
25.4
100
AcDbText
 10
111.5466019111
 20
232.2778865092
 30
0.0
 40
3.0
  1
8,3
  7
SEACAD_SEISO_TTF
 11
111.5466019111
 21
235.2778865092
 31
0.0
100
AcDbText
 73
     3
  0
TEXT
  5
1E6
330
1DE
100
AcDbEntity
  8
STANDARD
  6
CONTINUOUS
 62
     7
 48
25.4
100
AcDbText
 10
103.5450338285
 20
232.2778865092
 30
0.0
 40
3.0
  1
3x 
  7
SEACAD_SEISO_TTF
 11
103.5450338285
 21
235.2778865092
 31
0.0
100
AcDbText
 73
     3
  0
TEXT
  5
1E7
330
1DE
100
AcDbEntity
  8
STANDARD
  6
CONTINUOUS
 62
     7
 48
25.4
100
AcDbText
 10
107.840488374
 20
232.2778865092
 30
0.0
 40
3.0
  1
q
  7
SEACAD_SEMECI1_TTF
 11
107.840488374
 21
235.2778865092
 31
0.0
100
AcDbText
 73
     3
  0
TEXT
  5
1E8
330
1DE
100
AcDbEntity
  8
STANDARD
  6
CONTINUOUS
 62
     7
 48
25.4
100
AcDbText
 10
115.8693291838
 20
232.2778865092
 30
0.0
 40
3.0
  1
/
  7
SEACAD_SEISO_TTF
 11
115.8693291838
 21
235.2778865092
 31
0.0
100
AcDbText
 73
     3
  0
TEXT
  5
1E9
330
1DE
100
AcDbEntity
  8
STANDARD
  6
CONTINUOUS
 62
     7
 48
25.4
100
AcDbText
 10
116.9602382747
 20
232.2778865092
 30
0.0
 40
3.0
  1
q
  7
SEACAD_SEMECI1_TTF
 11
116.9602382747
 21
235.2778865092
 31
0.0
100
AcDbText
 73
     3
  0
TEXT
  5
1EA
330
1DE
100
AcDbEntity
  8
STANDARD
  6
CONTINUOUS
 62
     7
 48
25.4
100
AcDbText
 10
120.3663518118
 20
232.2778865092
 30
0.0
 40
3.0
  1
8,2
  7
SEACAD_SEISO_TTF
 11
120.3663518118
 21
235.2778865092
 31
0.0
100
AcDbText
 73
     3
  0
ENDBLK
  5
1EC
330
1DE
100
AcDbEntity
  8
0
100
AcDbBlockEnd
  0
BLOCK
  5
1F5
330
1ED
100
AcDbEntity
  8
0
100
AcDbBlockBegin
  2
SE18
 70
     0
 71
     0
 10
0.0
 20
0.0
 30
0.0
  3
SE18
  1

  0
POLYLINE
  5
1EF
330
1ED
100
AcDbEntity
  8
STANDARD
  6
CONTINUOUS
 62
     7
 48
25.4
100
AcDb2dPolyline
 66
     1
 10
0.0
 20
0.0
 30
0.0
 70
     1
  0
VERTEX
  5
289
330
1EF
100
AcDbEntity
  8
STANDARD
  6
CONTINUOUS
 62
     7
100
AcDbVertex
100
AcDb2dVertex
 10
142.9678365102
 20
268.6879254513
 30
0.0
  0
VERTEX
  5
28A
330
1EF
100
AcDbEntity
  8
STANDARD
  6
CONTINUOUS
 62
     7
100
AcDbVertex
100
AcDb2dVertex
 10
142.4678365059
 20
265.6879254252
 30
0.0
  0
VERTEX
  5
28B
330
1EF
100
AcDbEntity
  8
STANDARD
  6
CONTINUOUS
 62
     7
100
AcDbVertex
100
AcDb2dVertex
 10
141.9678365015
 20
268.6879254513
 30
0.0
  0
VERTEX
  5
28C
330
1EF
100
AcDbEntity
  8
STANDARD
  6
CONTINUOUS
 62
     7
100
AcDbVertex
100
AcDb2dVertex
 10
142.9678365102
 20
268.6879254513
 30
0.0
  0
SEQEND
  5
288
330
1EF
100
AcDbEntity
  8
STANDARD
  6
CONTINUOUS
 62
     7
 48
25.4
  0
POLYLINE
  5
1F0
330
1ED
100
AcDbEntity
  8
STANDARD
  6
CONTINUOUS
 62
     7
 48
25.4
100
AcDb2dPolyline
 66
     1
 10
0.0
 20
0.0
 30
0.0
 70
     1
  0
VERTEX
  5
28E
330
1F0
100
AcDbEntity
  8
STANDARD
  6
CONTINUOUS
 62
     7
100
AcDbVertex
100
AcDb2dVertex
 10
142.9678365102
 20
256.2879253991
 30
0.0
  0
VERTEX
  5
28F
330
1F0
100
AcDbEntity
  8
STANDARD
  6
CONTINUOUS
 62
     7
100
AcDbVertex
100
AcDb2dVertex
 10
142.4678365059
 20
259.2879254252
 30
0.0
  0
VERTEX
  5
290
330
1F0
100
AcDbEntity
  8
STANDARD
  6
CONTINUOUS
 62
     7
100
AcDbVertex
100
AcDb2dVertex
 10
141.9678365015
 20
256.2879253991
 30
0.0
  0
VERTEX
  5
291
330
1F0
100
AcDbEntity
  8
STANDARD
  6
CONTINUOUS
 62
     7
100
AcDbVertex
100
AcDb2dVertex
 10
142.9678365102
 20
256.2879253991
 30
0.0
  0
SEQEND
  5
28D
330
1F0
100
AcDbEntity
  8
STANDARD
  6
CONTINUOUS
 62
     7
 48
25.4
  0
LINE
  5
1F1
330
1ED
100
AcDbEntity
  8
STANDARD
  6
CONTINUOUS
 62
     7
 48
25.4
100
AcDbLine
 10
108.156012959
 20
265.6879254252
 30
0.0
 11
143.9678365189
 21
265.6879254252
 31
0.0
  0
LINE
  5
1F2
330
1ED
100
AcDbEntity
  8
STANDARD
  6
CONTINUOUS
 62
     7
 48
25.4
100
AcDbLine
 10
108.156012959
 20
259.2879254252
 30
0.0
 11
143.9678365189
 21
259.2879254252
 31
0.0
  0
LINE
  5
1F3
330
1ED
100
AcDbEntity
  8
STANDARD
  6
CONTINUOUS
 62
     7
 48
25.4
100
AcDbLine
 10
142.4678365059
 20
271.6879254773
 30
0.0
 11
142.4678365059
 21
253.2879250691
 31
0.0
  0
TEXT
  5
1F4
330
1ED
100
AcDbEntity
  8
STANDARD
  6
CONTINUOUS
 62
     7
 48
25.4
100
AcDbText
 10
141.7178365059
 20
260.4083800515
 30
0.0
 40
3.0
  1
6,4
 50
90.0
  7
SEACAD_SEISO_TTF
 11
138.7178365059
 21
260.4083800515
 31
0.0
100
AcDbText
 73
     3
  0
ENDBLK
  5
1F6
330
1ED
100
AcDbEntity
  8
0
100
AcDbBlockEnd
  0
BLOCK
  5
1FF
330
1F7
100
AcDbEntity
  8
0
100
AcDbBlockBegin
  2
SE19
 70
     0
 71
     0
 10
0.0
 20
0.0
 30
0.0
  3
SE19
  1

  0
POLYLINE
  5
1F9
330
1F7
100
AcDbEntity
  8
STANDARD
  6
CONTINUOUS
 62
     7
 48
25.4
100
AcDb2dPolyline
 66
     1
 10
0.0
 20
0.0
 30
0.0
 70
     1
  0
VERTEX
  5
293
330
1F9
100
AcDbEntity
  8
STANDARD
  6
CONTINUOUS
 62
     7
100
AcDbVertex
100
AcDb2dVertex
 10
106.6771589382
 20
35.8612493375
 30
0.0
  0
VERTEX
  5
294
330
1F9
100
AcDbEntity
  8
STANDARD
  6
CONTINUOUS
 62
     7
100
AcDbVertex
100
AcDb2dVertex
 10
109.6771589643
 20
36.3612493418
 30
0.0
  0
VERTEX
  5
295
330
1F9
100
AcDbEntity
  8
STANDARD
  6
CONTINUOUS
 62
     7
100
AcDbVertex
100
AcDb2dVertex
 10
106.6771589382
 20
36.8612493462
 30
0.0
  0
VERTEX
  5
296
330
1F9
100
AcDbEntity
  8
STANDARD
  6
CONTINUOUS
 62
     7
100
AcDbVertex
100
AcDb2dVertex
 10
106.6771589382
 20
35.8612493375
 30
0.0
  0
SEQEND
  5
292
330
1F9
100
AcDbEntity
  8
STANDARD
  6
CONTINUOUS
 62
     7
 48
25.4
  0
POLYLINE
  5
1FA
330
1F7
100
AcDbEntity
  8
STANDARD
  6
CONTINUOUS
 62
     7
 48
25.4
100
AcDb2dPolyline
 66
     1
 10
0.0
 20
0.0
 30
0.0
 70
     1
  0
VERTEX
  5
298
330
1FA
100
AcDbEntity
  8
STANDARD
  6
CONTINUOUS
 62
     7
100
AcDbVertex
100
AcDb2dVertex
 10
89.4771589904
 20
35.8612493375
 30
0.0
  0
VERTEX
  5
299
330
1FA
100
AcDbEntity
  8
STANDARD
  6
CONTINUOUS
 62
     7
100
AcDbVertex
100
AcDb2dVertex
 10
86.4771589643
 20
36.3612493418
 30
0.0
  0
VERTEX
  5
29A
330
1FA
100
AcDbEntity
  8
STANDARD
  6
CONTINUOUS
 62
     7
100
AcDbVertex
100
AcDb2dVertex
 10
89.4771589904
 20
36.8612493462
 30
0.0
  0
VERTEX
  5
29B
330
1FA
100
AcDbEntity
  8
STANDARD
  6
CONTINUOUS
 62
     7
100
AcDbVertex
100
AcDb2dVertex
 10
89.4771589904
 20
35.8612493375
 30
0.0
  0
SEQEND
  5
297
330
1FA
100
AcDbEntity
  8
STANDARD
  6
CONTINUOUS
 62
     7
 48
25.4
  0
LINE
  5
1FB
330
1F7
100
AcDbEntity
  8
STANDARD
  6
CONTINUOUS
 62
     7
 48
25.4
100
AcDbLine
 10
109.6771589643
 20
115.9493198536
 30
0.0
 11
109.6771589643
 21
34.8612493288
 31
0.0
  0
LINE
  5
1FC
330
1F7
100
AcDbEntity
  8
STANDARD
  6
CONTINUOUS
 62
     7
 48
25.4
100
AcDbLine
 10
86.4771589643
 20
110.9993198536
 30
0.0
 11
86.4771589643
 21
34.8612493288
 31
0.0
  0
LINE
  5
1FD
330
1F7
100
AcDbEntity
  8
STANDARD
  6
CONTINUOUS
 62
     7
 48
25.4
100
AcDbLine
 10
109.6771589643
 20
36.3612493418
 30
0.0
 11
86.4771592594
 21
36.3612493418
 31
0.0
  0
TEXT
  5
1FE
330
1F7
100
AcDbEntity
  8
STANDARD
  6
CONTINUOUS
 62
     7
 48
25.4
100
AcDbText
 10
95.1794318391
 20
37.1112493418
 30
0.0
 40
3.0
  1
23,2
  7
SEACAD_SEISO_TTF
 11
95.1794318391
 21
40.1112493418
 31
0.0
100
AcDbText
 73
     3
  0
ENDBLK
  5
200
330
1F7
100
AcDbEntity
  8
0
100
AcDbBlockEnd
  0
BLOCK
  5
209
330
201
100
AcDbEntity
  8
0
100
AcDbBlockBegin
  2
SE20
 70
     0
 71
     0
 10
0.0
 20
0.0
 30
0.0
  3
SE20
  1

  0
POLYLINE
  5
203
330
201
100
AcDbEntity
  8
STANDARD
  6
CONTINUOUS
 62
     7
 48
25.4
100
AcDb2dPolyline
 66
     1
 10
0.0
 20
0.0
 30
0.0
 70
     1
  0
VERTEX
  5
29D
330
203
100
AcDbEntity
  8
STANDARD
  6
CONTINUOUS
 62
     7
100
AcDbVertex
100
AcDb2dVertex
 10
99.3271589904
 20
62.0606973083
 30
0.0
  0
VERTEX
  5
29E
330
203
100
AcDbEntity
  8
STANDARD
  6
CONTINUOUS
 62
     7
100
AcDbVertex
100
AcDb2dVertex
 10
96.3271589643
 20
62.5606973126
 30
0.0
  0
VERTEX
  5
29F
330
203
100
AcDbEntity
  8
STANDARD
  6
CONTINUOUS
 62
     7
100
AcDbVertex
100
AcDb2dVertex
 10
99.3271589904
 20
63.060697317
 30
0.0
  0
VERTEX
  5
2A0
330
203
100
AcDbEntity
  8
STANDARD
  6
CONTINUOUS
 62
     7
100
AcDbVertex
100
AcDb2dVertex
 10
99.3271589904
 20
62.0606973083
 30
0.0
  0
SEQEND
  5
29C
330
203
100
AcDbEntity
  8
STANDARD
  6
CONTINUOUS
 62
     7
 48
25.4
  0
POLYLINE
  5
204
330
201
100
AcDbEntity
  8
STANDARD
  6
CONTINUOUS
 62
     7
 48
25.4
100
AcDb2dPolyline
 66
     1
 10
0.0
 20
0.0
 30
0.0
 70
     1
  0
VERTEX
  5
2A2
330
204
100
AcDbEntity
  8
STANDARD
  6
CONTINUOUS
 62
     7
100
AcDbVertex
100
AcDb2dVertex
 10
90.3271589382
 20
62.0606973083
 30
0.0
  0
VERTEX
  5
2A3
330
204
100
AcDbEntity
  8
STANDARD
  6
CONTINUOUS
 62
     7
100
AcDbVertex
100
AcDb2dVertex
 10
93.3271589643
 20
62.5606973126
 30
0.0
  0
VERTEX
  5
2A4
330
204
100
AcDbEntity
  8
STANDARD
  6
CONTINUOUS
 62
     7
100
AcDbVertex
100
AcDb2dVertex
 10
90.3271589382
 20
63.060697317
 30
0.0
  0
VERTEX
  5
2A5
330
204
100
AcDbEntity
  8
STANDARD
  6
CONTINUOUS
 62
     7
100
AcDbVertex
100
AcDb2dVertex
 10
90.3271589382
 20
62.0606973083
 30
0.0
  0
SEQEND
  5
2A1
330
204
100
AcDbEntity
  8
STANDARD
  6
CONTINUOUS
 62
     7
 48
25.4
  0
LINE
  5
205
330
201
100
AcDbEntity
  8
STANDARD
  6
CONTINUOUS
 62
     7
 48
25.4
100
AcDbLine
 10
96.3271589643
 20
70.1993198536
 30
0.0
 11
96.3271589643
 21
61.0606972996
 31
0.0
  0
LINE
  5
206
330
201
100
AcDbEntity
  8
STANDARD
  6
CONTINUOUS
 62
     7
 48
25.4
100
AcDbLine
 10
93.3271589643
 20
70.1993198536
 30
0.0
 11
93.3271589643
 21
61.0606972996
 31
0.0
  0
LINE
  5
207
330
201
100
AcDbEntity
  8
STANDARD
  6
CONTINUOUS
 62
     7
 48
25.4
100
AcDbLine
 10
102.3271590165
 20
62.5606973126
 30
0.0
 11
61.43449933
 21
62.5606973126
 31
0.0
  0
TEXT
  5
208
330
201
100
AcDbEntity
  8
STANDARD
  6
CONTINUOUS
 62
     7
 48
25.4
100
AcDbText
 10
62.4845009182
 20
63.3106973126
 30
0.0
 40
3.0
  1
6-kt. SW 3mm
  7
SEACAD_SEISO_TTF
 11
62.4845009182
 21
66.3106973126
 31
0.0
100
AcDbText
 73
     3
  0
ENDBLK
  5
20A
330
201
100
AcDbEntity
  8
0
100
AcDbBlockEnd
  0
ENDSEC
  0
SECTION
  2
ENTITIES
  0
INSERT
  5
2F
330
1F
100
AcDbEntity
  8
0
100
AcDbBlockReference
  2
SE
 10
0.0
 20
0.0
 30
0.0
  0
INSERT
  5
36
330
1F
100
AcDbEntity
  8
0
100
AcDbBlockReference
  2
SE1
 10
0.0
 20
0.0
 30
0.0
  0
INSERT
  5
3B
330
1F
100
AcDbEntity
  8
0
100
AcDbBlockReference
  2
SE2
 10
0.0
 20
0.0
 30
0.0
  0
INSERT
  5
40
330
1F
100
AcDbEntity
  8
0
100
AcDbBlockReference
  2
SE3
 10
0.0
 20
0.0
 30
0.0
  0
INSERT
  5
11C
330
1F
100
AcDbEntity
  8
0
100
AcDbBlockReference
  2
SE4
 10
0.0
 20
0.0
 30
0.0
  0
INSERT
  5
15B
330
1F
100
AcDbEntity
  8
0
100
AcDbBlockReference
  2
SE5
 10
0.0
 20
0.0
 30
0.0
  0
INSERT
  5
167
330
1F
100
AcDbEntity
  8
0
100
AcDbBlockReference
  2
SE6
 10
0.0
 20
0.0
 30
0.0
  0
INSERT
  5
171
330
1F
100
AcDbEntity
  8
0
100
AcDbBlockReference
  2
SE7
 10
0.0
 20
0.0
 30
0.0
  0
INSERT
  5
17B
330
1F
100
AcDbEntity
  8
0
100
AcDbBlockReference
  2
SE8
 10
0.0
 20
0.0
 30
0.0
  0
INSERT
  5
185
330
1F
100
AcDbEntity
  8
0
100
AcDbBlockReference
  2
SE9
 10
0.0
 20
0.0
 30
0.0
  0
INSERT
  5
18F
330
1F
100
AcDbEntity
  8
0
100
AcDbBlockReference
  2
SE10
 10
0.0
 20
0.0
 30
0.0
  0
INSERT
  5
199
330
1F
100
AcDbEntity
  8
0
100
AcDbBlockReference
  2
SE11
 10
0.0
 20
0.0
 30
0.0
  0
INSERT
  5
1A3
330
1F
100
AcDbEntity
  8
0
100
AcDbBlockReference
  2
SE12
 10
0.0
 20
0.0
 30
0.0
  0
INSERT
  5
1B1
330
1F
100
AcDbEntity
  8
0
100
AcDbBlockReference
  2
SE13
 10
0.0
 20
0.0
 30
0.0
  0
INSERT
  5
1BC
330
1F
100
AcDbEntity
  8
0
100
AcDbBlockReference
  2
SE14
 10
0.0
 20
0.0
 30
0.0
  0
INSERT
  5
1C6
330
1F
100
AcDbEntity
  8
0
100
AcDbBlockReference
  2
SE15
 10
0.0
 20
0.0
 30
0.0
  0
INSERT
  5
1D0
330
1F
100
AcDbEntity
  8
0
100
AcDbBlockReference
  2
SE16
 10
0.0
 20
0.0
 30
0.0
  0
INSERT
  5
1DF
330
1F
100
AcDbEntity
  8
0
100
AcDbBlockReference
  2
SE17
 10
0.0
 20
0.0
 30
0.0
  0
INSERT
  5
1EE
330
1F
100
AcDbEntity
  8
0
100
AcDbBlockReference
  2
SE18
 10
0.0
 20
0.0
 30
0.0
  0
INSERT
  5
1F8
330
1F
100
AcDbEntity
  8
0
100
AcDbBlockReference
  2
SE19
 10
0.0
 20
0.0
 30
0.0
  0
INSERT
  5
202
330
1F
100
AcDbEntity
  8
0
100
AcDbBlockReference
  2
SE20
 10
0.0
 20
0.0
 30
0.0
  0
ENDSEC
  0
SECTION
  2
OBJECTS
  0
DICTIONARY
  5
C
330
0
100
AcDbDictionary
  3
ACAD_GROUP
350
D
  3
ACAD_LAYOUT
350
1A
  3
ACAD_MLINESTYLE
350
17
  3
ACAD_PLOTSETTINGS
350
19
  3
ACAD_TABLESTYLE
350
2A
  3
ACDBVARIABLEDICTIONARY
350
2C
1001
ACAD
1000
TREAT_AS_HARD
1070
     0
  0
DICTIONARY
  5
2A6
330
29
100
AcDbDictionary
  3
ACAD_XREC_ROUNDTRIP
360
2A7
  0
DICTIONARY
  5
D
102
{ACAD_REACTORS
330
C
102
}
330
C
100
AcDbDictionary
1001
ACAD
1000
TREAT_AS_HARD
1070
     0
  0
DICTIONARY
  5
1A
102
{ACAD_REACTORS
330
C
102
}
330
C
100
AcDbDictionary
1001
ACAD
1000
TREAT_AS_HARD
1070
     0
  0
DICTIONARY
  5
17
102
{ACAD_REACTORS
330
C
102
}
330
C
100
AcDbDictionary
  3
STANDARD
350
18
1001
ACAD
1000
TREAT_AS_HARD
1070
     0
  0
DICTIONARY
  5
19
102
{ACAD_REACTORS
330
C
102
}
330
C
100
AcDbDictionary
1001
ACAD
1000
TREAT_AS_HARD
1070
     0
  0
DICTIONARY
  5
2A
102
{ACAD_REACTORS
330
C
102
}
330
C
100
AcDbDictionary
  3
STANDARD
350
2B
1001
ACAD
1000
TREAT_AS_HARD
1070
     0
  0
DICTIONARY
  5
2C
102
{ACAD_REACTORS
330
C
102
}
330
C
100
AcDbDictionary
  3
CTABLESTYLE
350
2D
1001
ACAD
1000
TREAT_AS_HARD
1070
     0
  0
XRECORD
  5
2A7
102
{ACAD_REACTORS
330
2A6
102
}
330
2A6
100
AcDbXrecord
102
UCS
 74
     0
 71
     1
 10
0.0
 20
0.0
 30
0.0
 10
1.0
 20
0.0
 30
0.0
 10
0.0
 20
1.0
 30
0.0
146
0.0
 79
     0
102
VIEW
281
     0
  0
MLINESTYLE
  5
18
102
{ACAD_REACTORS
330
17
102
}
330
17
100
AcDbMlineStyle
  2
Standard
 70
     0
  3

 62
   256
 51
90.0
 52
90.0
 71
     2
 49
0.5
 62
   256
  6
BYLAYER
 49
-0.5
 62
   256
  6
BYLAYER
  0
TABLESTYLE
  5
2B
102
{ACAD_REACTORS
330
2A
102
}
330
2A
100
AcDbTableStyle
  3
Standard
 70
     0
 71
     0
 40
0.06
 41
0.06
280
     0
281
     0
  7
STANDARD
140
0.18
170
     2
 62
     0
 63
     7
283
     0
274
    -2
284
     1
 64
     0
275
    -2
285
     1
 65
     0
276
    -2
286
     1
 66
     0
277
    -2
287
     1
 67
     0
278
    -2
288
     1
 68
     0
279
    -2
289
     1
 69
     0
  7
STANDARD
140
0.25
170
     5
 62
     0
 63
     7
283
     0
274
    -2
284
     1
 64
     0
275
    -2
285
     1
 65
     0
276
    -2
286
     1
 66
     0
277
    -2
287
     1
 67
     0
278
    -2
288
     1
 68
     0
279
    -2
289
     1
 69
     0
  7
STANDARD
140
0.18
170
     5
 62
     0
 63
     7
283
     0
274
    -2
284
     1
 64
     0
275
    -2
285
     1
 65
     0
276
    -2
286
     1
 66
     0
277
    -2
287
     1
 67
     0
278
    -2
288
     1
 68
     0
279
    -2
289
     1
 69
     0
  0
DICTIONARYVAR
  5
2D
102
{ACAD_REACTORS
330
2C
102
}
330
2C
100
DictionaryVariables
280
     0
  1
Standard
  0
ENDSEC
  0
EOF
