  0
SECTION
  2
HEADER
  9
$ACADVER
  1
AC1012
  9
$DWGCODEPAGE
  3
ansi_1252
  9
$INSBASE
 10
0.0
 20
0.0
 30
0.0
  9
$EXTMIN
 10
0.0
 20
0.0
 30
0.0
  9
$EXTMAX
 10
210.0
 20
297.0
 30
0.0
  9
$LIMMIN
 10
0.0
 20
0.0
  9
$LIMMAX
 10
210.0
 20
297.0
  9
$ORTHOMODE
 70
     0
  9
$REGENMODE
 70
     1
  9
$FILLMODE
 70
     1
  9
$QTEXTMODE
 70
     0
  9
$MIRRTEXT
 70
     1
  9
$DRAGMODE
 70
     2
  9
$LTSCALE
 40
1.0
  9
$OSMODE
 70
    37
  9
$ATTMODE
 70
     1
  9
$TEXTSIZE
 40
0.2
  9
$TRACEWID
 40
0.05
  9
$TEXTSTYLE
  7
STANDARD
  9
$CLAYER
  8
0
  9
$CELTYPE
  6
BYLAYER
  9
$CECOLOR
 62
   256
  9
$CELTSCALE
 40
25.4
  9
$DELOBJ
 70
     1
  9
$DISPSILH
 70
     0
  9
$DIMSCALE
 40
1.0
  9
$DIMASZ
 40
0.18
  9
$DIMEXO
 40
0.0625
  9
$DIMDLI
 40
0.38
  9
$DIMRND
 40
0.0
  9
$DIMDLE
 40
0.0
  9
$DIMEXE
 40
0.18
  9
$DIMTP
 40
0.0
  9
$DIMTM
 40
0.0
  9
$DIMTXT
 40
0.18
  9
$DIMCEN
 40
0.09
  9
$DIMTSZ
 40
0.0
  9
$DIMTOL
 70
     0
  9
$DIMLIM
 70
     0
  9
$DIMTIH
 70
     1
  9
$DIMTOH
 70
     1
  9
$DIMSE1
 70
     0
  9
$DIMSE2
 70
     0
  9
$DIMTAD
 70
     0
  9
$DIMZIN
 70
     0
  9
$DIMBLK
  1

  9
$DIMASO
 70
     1
  9
$DIMSHO
 70
     1
  9
$DIMPOST
  1

  9
$DIMAPOST
  1

  9
$DIMALT
 70
     0
  9
$DIMALTD
 70
     2
  9
$DIMALTF
 40
25.4
  9
$DIMLFAC
 40
1.0
  9
$DIMTOFL
 70
     0
  9
$DIMTVP
 40
0.0
  9
$DIMTIX
 70
     0
  9
$DIMSOXD
 70
     0
  9
$DIMSAH
 70
     0
  9
$DIMBLK1
  1

  9
$DIMBLK2
  1

  9
$DIMSTYLE
  2
STANDARD
  9
$DIMCLRD
 70
     0
  9
$DIMCLRE
 70
     0
  9
$DIMCLRT
 70
     0
  9
$DIMTFAC
 40
1.0
  9
$DIMGAP
 40
0.09
  9
$DIMJUST
 70
     0
  9
$DIMSD1
 70
     0
  9
$DIMSD2
 70
     0
  9
$DIMTOLJ
 70
     1
  9
$DIMTZIN
 70
     0
  9
$DIMALTZ
 70
     0
  9
$DIMALTTZ
 70
     0
  9
$DIMFIT
 70
     3
  9
$DIMUPT
 70
     0
  9
$DIMUNIT
 70
     2
  9
$DIMDEC
 70
     4
  9
$DIMTDEC
 70
     4
  9
$DIMALTU
 70
     2
  9
$DIMALTTD
 70
     2
  9
$DIMTXSTY
  7
STANDARD
  9
$DIMAUNIT
 70
     0
  9
$LUNITS
 70
     2
  9
$LUPREC
 70
     4
  9
$SKETCHINC
 40
0.1
  9
$FILLETRAD
 40
0.5
  9
$AUNITS
 70
     0
  9
$AUPREC
 70
     0
  9
$MENU
  1
.
  9
$ELEVATION
 40
0.0
  9
$PELEVATION
 40
0.0
  9
$THICKNESS
 40
0.0
  9
$LIMCHECK
 70
     0
  9
$CHAMFERA
 40
0.5
  9
$CHAMFERB
 40
0.5
  9
$CHAMFERC
 40
1.0
  9
$CHAMFERD
 40
0.0
  9
$SKPOLY
 70
     0
  9
$TDCREATE
 40
2453762.536704942
  9
$TDUPDATE
 40
2453762.536704954
  9
$TDINDWG
 40
0.0000000116
  9
$TDUSRTIMER
 40
0.0000000116
  9
$USRTIMER
 70
     1
  9
$ANGBASE
 50
0.0
  9
$ANGDIR
 70
     0
  9
$PDMODE
 70
     0
  9
$PDSIZE
 40
0.0
  9
$PLINEWID
 40
0.0
  9
$COORDS
 70
     1
  9
$SPLFRAME
 70
     0
  9
$SPLINETYPE
 70
     6
  9
$SPLINESEGS
 70
     8
  9
$ATTDIA
 70
     0
  9
$ATTREQ
 70
     1
  9
$HANDLING
 70
     1
  9
$HANDSEED
  5
29F
  9
$SURFTAB1
 70
     6
  9
$SURFTAB2
 70
     6
  9
$SURFTYPE
 70
     6
  9
$SURFU
 70
     6
  9
$SURFV
 70
     6
  9
$UCSNAME
  2

  9
$UCSORG
 10
0.0
 20
0.0
 30
0.0
  9
$UCSXDIR
 10
1.0
 20
0.0
 30
0.0
  9
$UCSYDIR
 10
0.0
 20
1.0
 30
0.0
  9
$PUCSNAME
  2

  9
$PUCSORG
 10
0.0
 20
0.0
 30
0.0
  9
$PUCSXDIR
 10
1.0
 20
0.0
 30
0.0
  9
$PUCSYDIR
 10
0.0
 20
1.0
 30
0.0
  9
$USERI1
 70
     0
  9
$USERI2
 70
     0
  9
$USERI3
 70
     0
  9
$USERI4
 70
     0
  9
$USERI5
 70
     0
  9
$USERR1
 40
0.0
  9
$USERR2
 40
0.0
  9
$USERR3
 40
0.0
  9
$USERR4
 40
0.0
  9
$USERR5
 40
0.0
  9
$WORLDVIEW
 70
     1
  9
$SHADEDGE
 70
     3
  9
$SHADEDIF
 70
    70
  9
$TILEMODE
 70
     1
  9
$MAXACTVP
 70
    64
  9
$PINSBASE
 10
0.0
 20
0.0
 30
0.0
  9
$PLIMCHECK
 70
     0
  9
$PEXTMIN
 10
0.0
 20
0.0
 30
0.0
  9
$PEXTMAX
 10
210.0
 20
297.0
 30
0.0
  9
$PLIMMIN
 10
0.0
 20
0.0
  9
$PLIMMAX
 10
12.0
 20
9.0
  9
$UNITMODE
 70
     0
  9
$VISRETAIN
 70
     1
  9
$PLINEGEN
 70
     0
  9
$PSLTSCALE
 70
     1
  9
$TREEDEPTH
 70
  3020
  9
$PICKSTYLE
 70
     1
  9
$CMLSTYLE
  2
STANDARD
  9
$CMLJUST
 70
     0
  9
$CMLSCALE
 40
1.0
  9
$SAVEIMAGES
 70
     1
  0
ENDSEC
  0
SECTION
  2
CLASSES
  0
CLASS
  1
ACDBDICTIONARYWDFLT
  2
AcDbDictionaryWithDefault
  3
ObjectDBX Classes
 90
        0
280
     0
281
     0
  0
CLASS
  1
TABLESTYLE
  2
AcDbTableStyle
  3
ObjectDBX Classes
 90
     2047
280
     0
281
     0
  0
CLASS
  1
DICTIONARYVAR
  2
AcDbDictionaryVar
  3
ObjectDBX Classes
 90
        0
280
     0
281
     0
  0
CLASS
  1
XRECORD
  2
AcDbXrecord
  3
AutoCAD 2000
 90
    32768
280
     0
281
     0
  0
CLASS
  1
LWPOLYLINE
  2
AcDbPolyline
  3
AutoCAD 2000
 90
    32768
280
     0
281
     1
  0
CLASS
  1
HATCH
  2
AcDbHatch
  3
AutoCAD 2000
 90
    32768
280
     0
281
     1
  0
CLASS
  1
ACDBPLACEHOLDER
  2
AcDbPlaceHolder
  3
ObjectDBX Classes
 90
        0
280
     0
281
     0
  0
CLASS
  1
LAYOUT
  2
AcDbLayout
  3
ObjectDBX Classes
 90
        0
280
     0
281
     0
  0
ENDSEC
  0
SECTION
  2
TABLES
  0
TABLE
  2
VPORT
  5
8
330
0
100
AcDbSymbolTable
 70
     2
  0
VPORT
  5
29
102
{ACAD_XDICTIONARY
360
29D
102
}
330
8
100
AcDbSymbolTableRecord
100
AcDbViewportTableRecord
  2
*ACTIVE
 70
     0
 10
0.0
 20
0.0
 11
1.0
 21
1.0
 12
10.4299065421
 22
4.5
 13
0.0
 23
0.0
 14
0.5
 24
0.5
 15
0.5
 25
0.5
 16
0.0
 26
0.0
 36
1.0
 17
0.0
 27
0.0
 37
0.0
 40
9.0
 41
1.9729729729
 42
50.0
 43
0.0
 44
0.0
 50
0.0
 51
0.0
 71
     0
 72
   100
 73
     1
 74
     3
 75
     0
 76
     0
 77
     0
 78
     0
  0
ENDTAB
  0
TABLE
  2
LTYPE
  5
5
330
0
100
AcDbSymbolTable
 70
     3
  0
LTYPE
  5
14
330
5
100
AcDbSymbolTableRecord
100
AcDbLinetypeTableRecord
  2
BYBLOCK
 70
     0
  3

 72
    65
 73
     0
 40
0.0
  0
LTYPE
  5
15
330
5
100
AcDbSymbolTableRecord
100
AcDbLinetypeTableRecord
  2
BYLAYER
 70
     0
  3

 72
    65
 73
     0
 40
0.0
  0
LTYPE
  5
16
330
5
100
AcDbSymbolTableRecord
100
AcDbLinetypeTableRecord
  2
CONTINUOUS
 70
     0
  3
Solid line
 72
    65
 73
     0
 40
0.0
  0
LTYPE
  5
31
330
5
100
AcDbSymbolTableRecord
100
AcDbLinetypeTableRecord
  2
CENTER2
 70
     0
  3
___ _ ___ _ ___ _ ___ _ ___ _ ___ _ ___ _ ___ _
 72
    65
 73
     4
 40
1.125
 49
0.75
 74
     4
 75
     0
340
0
 46
0.0
 50
0.0
 44
0.0
 45
0.0
 49
-0.125
 74
     4
 75
     0
340
0
 46
0.0
 50
0.0
 44
0.0
 45
0.0
 49
0.125
 74
     4
 75
     0
340
0
 46
0.0
 50
0.0
 44
0.0
 45
0.0
 49
-0.125
 74
     4
 75
     0
340
0
 46
0.0
 50
0.0
 44
0.0
 45
0.0
  0
LTYPE
  5
44
330
5
100
AcDbSymbolTableRecord
100
AcDbLinetypeTableRecord
  2
HIDDEN2
 70
     0
  3
_ _ _ _ _ _ _ _ _ _ _ _ _ _ _ _ _ _ _ _ _ _ _ _
 72
    65
 73
     2
 40
0.1875
 49
0.125
 74
     4
 75
     0
340
0
 46
0.0
 50
0.0
 44
0.0
 45
0.0
 49
-0.0625
 74
     4
 75
     0
340
0
 46
0.0
 50
0.0
 44
0.0
 45
0.0
  0
ENDTAB
  0
TABLE
  2
LAYER
  5
2
330
0
100
AcDbSymbolTable
 70
     3
  0
LAYER
  5
10
330
2
100
AcDbSymbolTableRecord
100
AcDbLayerTableRecord
  2
0
 70
     0
 62
     7
  6
CONTINUOUS
  0
LAYER
  5
30
330
2
100
AcDbSymbolTableRecord
100
AcDbLayerTableRecord
  2
STANDARD
 70
     0
 62
     7
  6
CONTINUOUS
  0
LAYER
  5
41
330
2
100
AcDbSymbolTableRecord
100
AcDbLayerTableRecord
  2
MEGA_002111
 70
     0
 62
     7
  6
CONTINUOUS
  0
ENDTAB
  0
TABLE
  2
STYLE
  5
3
330
0
100
AcDbSymbolTable
 70
     3
  0
STYLE
  5
11
330
3
100
AcDbSymbolTableRecord
100
AcDbTextStyleTableRecord
  2
STANDARD
 70
     0
 40
0.0
 41
1.0
 50
0.0
 71
     0
 42
0.2
  3
txt
  4

  0
STYLE
  5
157
330
3
100
AcDbSymbolTableRecord
100
AcDbTextStyleTableRecord
  2
SEACAD_SEISO_TTF
 70
     0
 40
0.2
 41
1.0
 50
0.0
 71
     0
 42
0.2
  3
seiso.ttf
  4

  0
STYLE
  5
159
330
3
100
AcDbSymbolTableRecord
100
AcDbTextStyleTableRecord
  2
SEACAD_SEMECI1_TTF
 70
     0
 40
0.2
 41
1.0
 50
0.0
 71
     0
 42
0.2
  3
semeci1.ttf
  4

  0
ENDTAB
  0
TABLE
  2
VIEW
  5
6
330
0
100
AcDbSymbolTable
 70
     0
  0
ENDTAB
  0
TABLE
  2
UCS
  5
7
330
0
100
AcDbSymbolTable
 70
     0
  0
ENDTAB
  0
TABLE
  2
APPID
  5
9
330
0
100
AcDbSymbolTable
 70
     1
  0
APPID
  5
12
330
9
100
AcDbSymbolTableRecord
100
AcDbRegAppTableRecord
  2
ACAD
 70
     0
  0
ENDTAB
  0
TABLE
  2
DIMSTYLE
  5
A
330
0
100
AcDbSymbolTable
 70
     1
  0
DIMSTYLE
105
27
330
A
100
AcDbSymbolTableRecord
100
AcDbDimStyleTableRecord
  2
STANDARD
 70
     0
  3

  4

  5

  6

  7

 40
1.0
 41
0.18
 42
0.0625
 43
0.38
 44
0.18
 45
0.0
 46
0.0
 47
0.0
 48
0.0
140
0.18
141
0.09
142
0.0
143
25.4
144
1.0
145
0.0
146
1.0
147
0.09
 71
     0
 72
     0
 73
     1
 74
     1
 75
     0
 76
     0
 77
     0
 78
     0
170
     0
171
     2
172
     0
173
     0
174
     0
175
     0
176
     0
177
     0
178
     0
270
     2
271
     4
272
     4
273
     2
274
     2
340
11
275
     0
280
     0
281
     0
282
     0
283
     1
284
     0
285
     0
286
     0
287
     3
288
     0
  0
ENDTAB
  0
TABLE
  2
BLOCK_RECORD
  5
1
330
0
100
AcDbSymbolTable
 70
    22
  0
BLOCK_RECORD
  5
1F
330
1
100
AcDbSymbolTableRecord
100
AcDbBlockTableRecord
  2
*MODEL_SPACE
  0
BLOCK_RECORD
  5
1B
330
1
100
AcDbSymbolTableRecord
100
AcDbBlockTableRecord
  2
*PAPER_SPACE
  0
BLOCK_RECORD
  5
2E
330
1
100
AcDbSymbolTableRecord
100
AcDbBlockTableRecord
  2
SE
  0
BLOCK_RECORD
  5
35
330
1
100
AcDbSymbolTableRecord
100
AcDbBlockTableRecord
  2
SE1
  0
BLOCK_RECORD
  5
3A
330
1
100
AcDbSymbolTableRecord
100
AcDbBlockTableRecord
  2
SE2
  0
BLOCK_RECORD
  5
3F
330
1
100
AcDbSymbolTableRecord
100
AcDbBlockTableRecord
  2
SE3
  0
BLOCK_RECORD
  5
114
330
1
100
AcDbSymbolTableRecord
100
AcDbBlockTableRecord
  2
SE4
  0
BLOCK_RECORD
  5
151
330
1
100
AcDbSymbolTableRecord
100
AcDbBlockTableRecord
  2
SE5
  0
BLOCK_RECORD
  5
15D
330
1
100
AcDbSymbolTableRecord
100
AcDbBlockTableRecord
  2
SE6
  0
BLOCK_RECORD
  5
167
330
1
100
AcDbSymbolTableRecord
100
AcDbBlockTableRecord
  2
SE7
  0
BLOCK_RECORD
  5
171
330
1
100
AcDbSymbolTableRecord
100
AcDbBlockTableRecord
  2
SE8
  0
BLOCK_RECORD
  5
17B
330
1
100
AcDbSymbolTableRecord
100
AcDbBlockTableRecord
  2
SE9
  0
BLOCK_RECORD
  5
185
330
1
100
AcDbSymbolTableRecord
100
AcDbBlockTableRecord
  2
SE10
  0
BLOCK_RECORD
  5
18F
330
1
100
AcDbSymbolTableRecord
100
AcDbBlockTableRecord
  2
SE11
  0
BLOCK_RECORD
  5
199
330
1
100
AcDbSymbolTableRecord
100
AcDbBlockTableRecord
  2
SE12
  0
BLOCK_RECORD
  5
1A7
330
1
100
AcDbSymbolTableRecord
100
AcDbBlockTableRecord
  2
SE13
  0
BLOCK_RECORD
  5
1B2
330
1
100
AcDbSymbolTableRecord
100
AcDbBlockTableRecord
  2
SE14
  0
BLOCK_RECORD
  5
1BC
330
1
100
AcDbSymbolTableRecord
100
AcDbBlockTableRecord
  2
SE15
  0
BLOCK_RECORD
  5
1C6
330
1
100
AcDbSymbolTableRecord
100
AcDbBlockTableRecord
  2
SE16
  0
BLOCK_RECORD
  5
1D5
330
1
100
AcDbSymbolTableRecord
100
AcDbBlockTableRecord
  2
SE17
  0
BLOCK_RECORD
  5
1E4
330
1
100
AcDbSymbolTableRecord
100
AcDbBlockTableRecord
  2
SE18
  0
BLOCK_RECORD
  5
1EE
330
1
100
AcDbSymbolTableRecord
100
AcDbBlockTableRecord
  2
SE19
  0
BLOCK_RECORD
  5
1F8
330
1
100
AcDbSymbolTableRecord
100
AcDbBlockTableRecord
  2
SE20
  0
ENDTAB
  0
ENDSEC
  0
SECTION
  2
BLOCKS
  0
BLOCK
  5
20
330
1F
100
AcDbEntity
  8
0
100
AcDbBlockBegin
  2
*MODEL_SPACE
 70
     0
 71
     0
 10
0.0
 20
0.0
 30
0.0
  3
*MODEL_SPACE
  1

  0
ENDBLK
  5
21
330
1F
100
AcDbEntity
  8
0
100
AcDbBlockEnd
  0
BLOCK
  5
1C
330
1B
100
AcDbEntity
 67
     1
  8
0
100
AcDbBlockBegin
  2
*PAPER_SPACE
 70
     0
 71
     0
 10
0.0
 20
0.0
 30
0.0
  3
*PAPER_SPACE
  1

  0
ENDBLK
  5
1D
330
1B
100
AcDbEntity
 67
     1
  8
0
100
AcDbBlockEnd
  0
BLOCK
  5
33
330
2E
100
AcDbEntity
  8
0
100
AcDbBlockBegin
  2
SE
 70
     0
 71
     0
 10
0.0
 20
0.0
 30
0.0
  3
SE
  1

  0
LINE
  5
32
330
2E
100
AcDbEntity
  8
STANDARD
  6
CENTER2
 62
     7
 48
25.4
100
AcDbLine
 10
90.2298001376
 20
57.0472807847
 30
0.0
 11
90.2298001376
 21
225.056744362
 31
0.0
  0
ENDBLK
  5
34
330
2E
100
AcDbEntity
  8
0
100
AcDbBlockEnd
  0
BLOCK
  5
38
330
35
100
AcDbEntity
  8
0
100
AcDbBlockBegin
  2
SE1
 70
     0
 71
     0
 10
0.0
 20
0.0
 30
0.0
  3
SE1
  1

  0
LINE
  5
37
330
35
100
AcDbEntity
  8
STANDARD
  6
CENTER2
 62
     7
 48
25.4
100
AcDbLine
 10
50.79480286
 20
260.5723592475
 30
0.0
 11
129.6483680219
 21
260.5723592475
 31
0.0
  0
ENDBLK
  5
39
330
35
100
AcDbEntity
  8
0
100
AcDbBlockEnd
  0
BLOCK
  5
3D
330
3A
100
AcDbEntity
  8
0
100
AcDbBlockBegin
  2
SE2
 70
     0
 71
     0
 10
0.0
 20
0.0
 30
0.0
  3
SE2
  1

  0
LINE
  5
3C
330
3A
100
AcDbEntity
  8
STANDARD
  6
CENTER2
 62
     7
 48
25.4
100
AcDbLine
 10
130.9955352654
 20
183.2837536759
 30
0.0
 11
49.7879942292
 21
183.2837536759
 31
0.0
  0
ENDBLK
  5
3E
330
3A
100
AcDbEntity
  8
0
100
AcDbBlockEnd
  0
BLOCK
  5
112
330
3F
100
AcDbEntity
  8
0
100
AcDbBlockBegin
  2
SE3
 70
     0
 71
     0
 10
0.0
 20
0.0
 30
0.0
  3
SE3
  1

  0
LINE
  5
42
330
3F
100
AcDbEntity
  8
MEGA_002111
  6
CONTINUOUS
 62
     7
 48
25.4
100
AcDbLine
 10
79.3498001376
 20
109.0837536759
 30
0.0
 11
80.1498001376
 21
108.2837536759
 31
0.0
  0
LINE
  5
43
330
3F
100
AcDbEntity
  8
MEGA_002111
  6
CONTINUOUS
 62
     7
 48
25.4
100
AcDbLine
 10
100.3098001376
 20
108.2837536759
 30
0.0
 11
101.1098001376
 21
109.0837536759
 31
0.0
  0
LINE
  5
45
330
3F
100
AcDbEntity
  8
MEGA_002111
  6
HIDDEN2
 62
     7
 48
25.4
100
AcDbLine
 10
90.052834069
 20
203.4837536759
 30
0.0
 11
90.052834069
 21
203.2837536759
 31
0.0
  0
LINE
  5
46
330
3F
100
AcDbEntity
  8
MEGA_002111
  6
HIDDEN2
 62
     7
 48
25.4
100
AcDbLine
 10
89.6712363515
 20
203.4837536759
 30
0.0
 11
89.6712363515
 21
203.2837536759
 31
0.0
  0
LINE
  5
47
330
3F
100
AcDbEntity
  8
MEGA_002111
  6
HIDDEN2
 62
     7
 48
25.4
100
AcDbLine
 10
89.612748477
 20
203.4837536759
 30
0.0
 11
89.8081835698
 21
203.4837536759
 31
0.0
  0
LINE
  5
48
330
3F
100
AcDbEntity
  8
MEGA_002111
  6
HIDDEN2
 62
     7
 48
25.4
100
AcDbLine
 10
89.5357156668
 20
203.4837536759
 30
0.0
 11
89.6712363515
 21
203.4837536759
 31
0.0
  0
LINE
  5
49
330
3F
100
AcDbEntity
  8
MEGA_002111
  6
HIDDEN2
 62
     7
 48
25.4
100
AcDbLine
 10
90.7882121004
 20
203.4837536759
 30
0.0
 11
89.8081835698
 21
203.4837536759
 31
0.0
  0
LINE
  5
4A
330
3F
100
AcDbEntity
  8
MEGA_002111
  6
HIDDEN2
 62
     7
 48
25.4
100
AcDbLine
 10
90.9729481917
 20
203.4837536759
 30
0.0
 11
90.7882121004
 21
203.4837536759
 31
0.0
  0
LINE
  5
4B
330
3F
100
AcDbEntity
  8
MEGA_002111
  6
HIDDEN2
 62
     7
 48
25.4
100
AcDbLine
 10
90.9230195184
 20
203.4837536759
 30
0.0
 11
91.0635330705
 21
203.4837536759
 31
0.0
  0
LINE
  5
4C
330
3F
100
AcDbEntity
  8
MEGA_002111
  6
HIDDEN2
 62
     7
 48
25.4
100
AcDbLine
 10
114.4298001376
 20
183.7257217688
 30
0.0
 11
114.4298001376
 21
183.9288917976
 31
0.0
  0
LINE
  5
4D
330
3F
100
AcDbEntity
  8
MEGA_002111
  6
HIDDEN2
 62
     7
 48
25.4
100
AcDbLine
 10
114.4298001376
 20
182.4303327198
 30
0.0
 11
114.4298001376
 21
182.6637621146
 31
0.0
  0
LINE
  5
4E
330
3F
100
AcDbEntity
  8
MEGA_002111
  6
HIDDEN2
 62
     7
 48
25.4
100
AcDbLine
 10
114.4298001376
 20
182.6637621146
 30
0.0
 11
114.4298001376
 21
183.7934451117
 31
0.0
  0
LINE
  5
4F
330
3F
100
AcDbEntity
  8
MEGA_002111
  6
HIDDEN2
 62
     7
 48
25.4
100
AcDbLine
 10
114.4298001376
 20
182.8813413653
 30
0.0
 11
114.2298001376
 21
182.8813413653
 31
0.0
  0
LINE
  5
50
330
3F
100
AcDbEntity
  8
MEGA_002111
  6
HIDDEN2
 62
     7
 48
25.4
100
AcDbLine
 10
114.4298001376
 20
182.727162691
 30
0.0
 11
114.2298001376
 21
182.727162691
 31
0.0
  0
LINE
  5
51
330
3F
100
AcDbEntity
  8
MEGA_002111
  6
HIDDEN2
 62
     7
 48
25.4
100
AcDbLine
 10
114.4298001376
 20
183.7487765238
 30
0.0
 11
114.2298001376
 21
183.7487765238
 31
0.0
  0
LINE
  5
52
330
3F
100
AcDbEntity
  8
MEGA_002111
  6
HIDDEN2
 62
     7
 48
25.4
100
AcDbLine
 10
114.4298001376
 20
183.5326381953
 30
0.0
 11
114.2298001376
 21
183.5326381953
 31
0.0
  0
LINE
  5
53
330
3F
100
AcDbEntity
  8
MEGA_002111
  6
HIDDEN2
 62
     7
 48
25.4
100
AcDbLine
 10
114.4298001376
 20
182.6551165815
 30
0.0
 11
114.2298001376
 21
182.6551165815
 31
0.0
  0
LINE
  5
54
330
3F
100
AcDbEntity
  8
MEGA_002111
  6
HIDDEN2
 62
     7
 48
25.4
100
AcDbLine
 10
114.4298001376
 20
182.6637621146
 30
0.0
 11
114.2298001376
 21
182.6637621146
 31
0.0
  0
LINE
  5
55
330
3F
100
AcDbEntity
  8
MEGA_002111
  6
HIDDEN2
 62
     7
 48
25.4
100
AcDbLine
 10
114.4298001376
 20
183.7934451117
 30
0.0
 11
114.2298001376
 21
183.7934451117
 31
0.0
  0
LINE
  5
56
330
3F
100
AcDbEntity
  8
MEGA_002111
  6
HIDDEN2
 62
     7
 48
25.4
100
AcDbLine
 10
114.4298001376
 20
183.7257217688
 30
0.0
 11
114.2298001376
 21
183.7257217688
 31
0.0
  0
ARC
  5
57
330
3F
100
AcDbEntity
  8
MEGA_002111
  6
CONTINUOUS
 62
     7
 48
25.4
100
AcDbCircle
 10
81.7298001376
 20
128.7837536759
 30
0.0
 40
0.5
100
AcDbArc
 50
270.0
 51
360.0
  0
LINE
  5
58
330
3F
100
AcDbEntity
  8
MEGA_002111
  6
CONTINUOUS
 62
     7
 48
25.4
100
AcDbLine
 10
106.7995638943
 20
122.5337536759
 30
0.0
 11
106.6939681832
 21
122.5337536759
 31
0.0
  0
LINE
  5
59
330
3F
100
AcDbEntity
  8
MEGA_002111
  6
CONTINUOUS
 62
     7
 48
25.4
100
AcDbLine
 10
104.6886397068
 20
122.5337536759
 30
0.0
 11
106.6939681832
 21
122.5337536759
 31
0.0
  0
ARC
  5
5A
330
3F
100
AcDbEntity
  8
MEGA_002111
  6
CONTINUOUS
 62
     7
 48
25.4
100
AcDbCircle
 10
98.7298001376
 20
128.7837536759
 30
0.0
 40
0.5
100
AcDbArc
 50
180.0
 51
270.0
  0
ARC
  5
5B
330
3F
100
AcDbEntity
  8
MEGA_002111
  6
CONTINUOUS
 62
     7
 48
25.4
100
AcDbCircle
 10
112.6090392044
 20
190.2513127579
 30
0.0
 40
1.548089506700023
100
AcDbArc
 50
189.7987922514
 51
213.4127862561
  0
LINE
  5
5C
330
3F
100
AcDbEntity
  8
MEGA_002111
  6
CONTINUOUS
 62
     7
 48
25.4
100
AcDbLine
 10
101.2298001376
 20
168.2837536759
 30
0.0
 11
98.2298001376
 21
168.2837536759
 31
0.0
  0
ARC
  5
5D
330
3F
100
AcDbEntity
  8
MEGA_002111
  6
CONTINUOUS
 62
     7
 48
25.4
100
AcDbCircle
 10
75.3376338858
 20
179.3254124625
 30
0.0
 40
7.61172865330002
100
AcDbArc
 50
192.679288656
 51
195.5586826816
  0
LINE
  5
5E
330
3F
100
AcDbEntity
  8
MEGA_002111
  6
CONTINUOUS
 62
     7
 48
25.4
100
AcDbLine
 10
98.6966472486
 20
198.2837536759
 30
0.0
 11
101.2298001376
 21
198.2837536759
 31
0.0
  0
ARC
  5
5F
330
3F
100
AcDbEntity
  8
MEGA_002111
  6
CONTINUOUS
 62
     7
 48
25.4
100
AcDbCircle
 10
87.8473336569
 20
76.7837536759
 30
0.0
 40
0.5
100
AcDbArc
 50
183.8437833142
 51
270.0
  0
ARC
  5
60
330
3F
100
AcDbEntity
  8
MEGA_002111
  6
CONTINUOUS
 62
     7
 48
25.4
100
AcDbCircle
 10
92.6122666183
 20
76.7837536759
 30
0.0
 40
0.5
100
AcDbArc
 50
270.0
 51
356.1562166858
  0
ARC
  5
61
330
3F
100
AcDbEntity
  8
MEGA_002111
  6
HIDDEN2
 62
     7
 48
25.4
100
AcDbCircle
 10
94.8773105252
 20
212.7837536759
 30
0.0
 40
0.5
100
AcDbArc
 50
90.0
 51
179.714
  0
ARC
  5
62
330
3F
100
AcDbEntity
  8
MEGA_002111
  6
HIDDEN2
 62
     7
 48
25.4
100
AcDbCircle
 10
85.58228975
 20
212.7837536759
 30
0.0
 40
0.5
100
AcDbArc
 50
0.286
 51
90.0
  0
ELLIPSE
  5
63
330
3F
100
AcDbEntity
  8
MEGA_002111
  6
HIDDEN2
 62
     7
 48
25.4
100
AcDbEllipse
 10
123.7297501092
 20
186.9312638138
 30
0.0
 11
0.002495810488806201
 21
-0.4999937708919033
 31
0.0
210
0.0
220
0.0
230
1.0
 40
0.9999654745
 41
0.0000000000000075
 42
0.6085618386301755
  0
ARC
  5
64
330
3F
100
AcDbEntity
  8
MEGA_002111
  6
HIDDEN2
 62
     7
 48
25.4
100
AcDbCircle
 10
123.7298001376
 20
186.9312640635
 30
0.0
 40
0.5
100
AcDbArc
 50
270.286
 51
360.0
  0
ELLIPSE
  5
65
330
3F
100
AcDbEntity
  8
MEGA_002111
  6
HIDDEN2
 62
     7
 48
25.4
100
AcDbEllipse
 10
123.7297501092
 20
186.9312638138
 30
0.0
 11
0.0024958103861383
 21
-0.499993770891702
 31
0.0
210
0.0
220
0.0
230
1.0
 40
0.9999654745
 41
0.0000000000001102
 42
0.4070484005359423
  0
LINE
  5
66
330
3F
100
AcDbEntity
  8
MEGA_002111
  6
HIDDEN2
 62
     7
 48
25.4
100
AcDbLine
 10
89.612748477
 20
203.5087536759
 30
0.0
 11
89.612748477
 21
203.2587536759
 31
0.0
  0
ELLIPSE
  5
67
330
3F
100
AcDbEntity
  8
MEGA_002111
  6
HIDDEN2
 62
     7
 48
25.4
100
AcDbEllipse
 10
123.7297501092
 20
179.636243538
 30
0.0
 11
-0.0024958103929454
 21
-0.4999937708909595
 31
0.0
210
0.0
220
0.0
230
1.0
 40
0.9999654745
 41
2.749053815953949
 42
3.141592653589769
  0
ARC
  5
68
330
3F
100
AcDbEntity
  8
MEGA_002111
  6
CONTINUOUS
 62
     7
 48
25.4
100
AcDbCircle
 10
123.7298001376
 20
179.6362432883
 30
0.0
 40
0.5
100
AcDbArc
 50
0.0
 51
89.714
  0
LINE
  5
69
330
3F
100
AcDbEntity
  8
MEGA_002111
  6
HIDDEN2
 62
     7
 48
25.4
100
AcDbLine
 10
89.5357156668
 20
203.5087536759
 30
0.0
 11
89.5357156668
 21
203.2587536759
 31
0.0
  0
LINE
  5
6A
330
3F
100
AcDbEntity
  8
MEGA_002111
  6
HIDDEN2
 62
     7
 48
25.4
100
AcDbLine
 10
90.9729481917
 20
203.2837536759
 30
0.0
 11
90.9729481917
 21
203.4837536759
 31
0.0
  0
LINE
  5
6B
330
3F
100
AcDbEntity
  8
MEGA_002111
  6
HIDDEN2
 62
     7
 48
25.4
100
AcDbLine
 10
90.7696671646
 20
203.2587536759
 30
0.0
 11
90.7696671646
 21
203.5087536759
 31
0.0
  0
LINE
  5
6C
330
3F
100
AcDbEntity
  8
MEGA_002111
  6
HIDDEN2
 62
     7
 48
25.4
100
AcDbLine
 10
91.0635330705
 20
203.2587536759
 30
0.0
 11
91.0635330705
 21
203.5087536759
 31
0.0
  0
ARC
  5
6D
330
3F
100
AcDbEntity
  8
MEGA_002111
  6
CONTINUOUS
 62
     7
 48
25.4
100
AcDbCircle
 10
56.7298001376
 20
187.4312640635
 30
0.0
 40
0.5
100
AcDbArc
 50
180.0
 51
269.714
  0
LINE
  5
6E
330
3F
100
AcDbEntity
  8
MEGA_002111
  6
HIDDEN2
 62
     7
 48
25.4
100
AcDbLine
 10
114.4298001376
 20
183.9288917976
 30
0.0
 11
114.2298001376
 21
183.9288917976
 31
0.0
  0
LINE
  5
6F
330
3F
100
AcDbEntity
  8
MEGA_002111
  6
HIDDEN2
 62
     7
 48
25.4
100
AcDbLine
 10
114.4548001376
 20
183.6320618264
 30
0.0
 11
114.2048001376
 21
183.6320618264
 31
0.0
  0
LINE
  5
70
330
3F
100
AcDbEntity
  8
MEGA_002111
  6
HIDDEN2
 62
     7
 48
25.4
100
AcDbLine
 10
114.2048001376
 20
182.4303327198
 30
0.0
 11
114.4548001376
 21
182.4303327198
 31
0.0
  0
ARC
  5
71
330
3F
100
AcDbEntity
  8
MEGA_002111
  6
CONTINUOUS
 62
     7
 48
25.4
100
AcDbCircle
 10
100.7224704915
 20
178.9198047999
 30
0.0
 40
3.986809733200005
100
AcDbArc
 50
229.1559642537
 51
243.9633449239
  0
ARC
  5
72
330
3F
100
AcDbEntity
  8
MEGA_002111
  6
CONTINUOUS
 62
     7
 48
25.4
100
AcDbCircle
 10
79.7371371745
 20
178.9197936082
 30
0.0
 40
3.986796433099983
100
AcDbArc
 50
296.0366302388
 51
310.8440605836
  0
ARC
  5
73
330
3F
100
AcDbEntity
  8
MEGA_002111
  6
CONTINUOUS
 62
     7
 48
25.4
100
AcDbCircle
 10
78.7298001376
 20
188.2837536759
 30
0.0
 40
3.0
100
AcDbArc
 50
90.0
 51
180.0
  0
SPLINE
  5
74
330
3F
100
AcDbEntity
  8
MEGA_002111
  6
CONTINUOUS
 62
     7
 48
25.4
100
AcDbSpline
210
0.0
220
0.0
230
1.0
 70
     8
 71
     3
 72
    17
 73
    13
 74
     0
 42
0.0000000001
 43
0.0000000001
 40
0.0
 40
0.0
 40
0.0
 40
0.0
 40
0.4999999999999978
 40
0.4999999999999978
 40
0.4999999999999978
 40
0.7499999999999957
 40
0.7499999999999957
 40
0.7499999999999957
 40
0.8749999999999979
 40
0.8749999999999979
 40
0.8749999999999979
 40
1.0
 40
1.0
 40
1.0
 40
1.0
 10
81.48712421652083
 20
175.3376027768308
 30
0.0
 10
81.21023067273364
 20
175.2021864307808
 30
0.0
 10
80.92849797839673
 20
175.0752276267965
 30
0.0
 10
80.64879757283522
 20
174.9464020132015
 30
0.0
 10
80.50894737005443
 20
174.881989206404
 30
0.0
 10
80.36936730754074
 20
174.8174752822071
 30
0.0
 10
80.23761935717356
 20
174.7426176515682
 30
0.0
 10
80.17174538198995
 20
174.7051888362488
 30
0.0
 10
80.10772147098338
 20
174.6653188353788
 30
0.0
 10
80.04999488365172
 20
174.6169832268407
 30
0.0
 10
79.99226829632006
 20
174.5686476183028
 30
0.0
 10
79.93788600594476
 20
174.5097982101083
 30
0.0
 10
79.92129492338884
 20
174.4349800963787
 30
0.0
  0
ARC
  5
75
330
3F
100
AcDbEntity
  8
MEGA_002111
  6
CONTINUOUS
 62
     7
 48
25.4
100
AcDbCircle
 10
32.992392915
 20
184.8499761155
 30
0.0
 40
48.07071859029998
100
AcDbArc
 50
346.8716201507
 51
347.4870730705
  0
ARC
  5
76
330
3F
100
AcDbEntity
  8
MEGA_002111
  6
CONTINUOUS
 62
     7
 48
25.4
100
AcDbCircle
 10
147.4672073563
 20
184.8499761146
 30
0.0
 40
48.07071858620003
100
AcDbArc
 50
192.5129269295
 51
193.1283798494
  0
ARC
  5
77
330
3F
100
AcDbEntity
  8
MEGA_002111
  6
CONTINUOUS
 62
     7
 48
25.4
100
AcDbCircle
 10
79.7298001376
 20
178.9309037776
 30
0.0
 40
4.0
100
AcDbArc
 50
180.0
 51
296.061205355
  0
ARC
  5
78
330
3F
100
AcDbEntity
  8
MEGA_002111
  6
CONTINUOUS
 62
     7
 48
25.4
100
AcDbCircle
 10
90.2298001376
 20
194.2837536759
 30
0.0
 40
20.0
100
AcDbArc
 50
246.7798956454
 51
293.2201043546
  0
LINE
  5
79
330
3F
100
AcDbEntity
  8
MEGA_002111
  6
CONTINUOUS
 62
     7
 48
25.4
100
AcDbLine
 10
124.2298001376
 20
185.9192171972
 30
0.0
 11
124.2298001376
 21
180.6482901546
 31
0.0
  0
LINE
  5
7A
330
3F
100
AcDbEntity
  8
MEGA_002111
  6
CONTINUOUS
 62
     7
 48
25.4
100
AcDbLine
 10
124.2298001376
 20
179.6362432883
 30
0.0
 11
124.2298001376
 21
178.7837536759
 31
0.0
  0
LINE
  5
7B
330
3F
100
AcDbEntity
  8
MEGA_002111
  6
CONTINUOUS
 62
     7
 48
25.4
100
AcDbLine
 10
124.2298001376
 20
186.9312640635
 30
0.0
 11
124.2298001376
 21
187.7837536759
 31
0.0
  0
LINE
  5
7C
330
3F
100
AcDbEntity
  8
MEGA_002111
  6
CONTINUOUS
 62
     7
 48
25.4
100
AcDbLine
 10
124.2298001376
 20
185.9192171972
 30
0.0
 11
124.2297000809
 21
185.9354309987
 31
0.0
  0
LINE
  5
7D
330
3F
100
AcDbEntity
  8
MEGA_002111
  6
CONTINUOUS
 62
     7
 48
25.4
100
AcDbLine
 10
123.2298001376
 20
188.7837536759
 30
0.0
 11
112.5553065087
 21
188.7837536759
 31
0.0
  0
LINE
  5
7E
330
3F
100
AcDbEntity
  8
MEGA_002111
  6
HIDDEN2
 62
     7
 48
25.4
100
AcDbLine
 10
123.7322459197
 20
186.4312700429
 30
0.0
 11
115.2248085167
 21
186.3888036113
 31
0.0
  0
LINE
  5
7F
330
3F
100
AcDbEntity
  8
MEGA_002111
  6
HIDDEN2
 62
     7
 48
25.4
100
AcDbLine
 10
86.0822835209
 20
212.7862494864
 30
0.0
 11
86.1247502023
 21
204.278762055
 31
0.0
  0
LINE
  5
80
330
3F
100
AcDbEntity
  8
MEGA_002111
  6
HIDDEN2
 62
     7
 48
25.4
100
AcDbLine
 10
94.334850073
 20
204.278762055
 30
0.0
 11
94.3773167544
 21
212.7862494864
 31
0.0
  0
LINE
  5
81
330
3F
100
AcDbEntity
  8
MEGA_002111
  6
HIDDEN2
 62
     7
 48
25.4
100
AcDbLine
 10
56.7718455177
 20
179.6364593947
 30
0.0
 11
65.2347917585
 21
179.6787037406
 31
0.0
  0
LINE
  5
82
330
3F
100
AcDbEntity
  8
MEGA_002111
  6
HIDDEN2
 62
     7
 48
25.4
100
AcDbLine
 10
87.1247377441
 20
203.2837536759
 30
0.0
 11
93.3348625312
 21
203.2837536759
 31
0.0
  0
LINE
  5
83
330
3F
100
AcDbEntity
  8
MEGA_002111
  6
HIDDEN2
 62
     7
 48
25.4
100
AcDbLine
 10
114.2298001376
 20
185.3888160695
 30
0.0
 11
114.2298001376
 21
181.1786912824
 31
0.0
  0
LINE
  5
84
330
3F
100
AcDbEntity
  8
MEGA_002111
  6
CONTINUOUS
 62
     7
 48
25.4
100
AcDbLine
 10
83.2298001376
 20
212.2837536759
 30
0.0
 11
83.2298001376
 21
199.7837536759
 31
0.0
  0
LINE
  5
85
330
3F
100
AcDbEntity
  8
MEGA_002111
  6
HIDDEN2
 62
     7
 48
25.4
100
AcDbLine
 10
66.2298001376
 20
180.6786912824
 30
0.0
 11
66.2298001376
 21
185.8888160695
 31
0.0
  0
LINE
  5
86
330
3F
100
AcDbEntity
  8
MEGA_002111
  6
HIDDEN2
 62
     7
 48
25.4
100
AcDbLine
 10
111.077456723
 20
190.0229867327
 30
0.0
 11
111.0835340229
 21
189.9878453746
 31
0.0
  0
LINE
  5
87
330
3F
100
AcDbEntity
  8
MEGA_002111
  6
CONTINUOUS
 62
     7
 48
25.4
100
AcDbLine
 10
111.0811025725
 20
176.5656023665
 30
0.0
 11
111.0835340229
 21
176.5796619772
 31
0.0
  0
LINE
  5
88
330
3F
100
AcDbEntity
  8
MEGA_002111
  6
CONTINUOUS
 62
     7
 48
25.4
100
AcDbLine
 10
69.4687822602
 20
176.1103659239
 30
0.0
 11
69.4617314152
 21
176.14253126
 31
0.0
  0
LINE
  5
89
330
3F
100
AcDbEntity
  8
MEGA_002111
  6
CONTINUOUS
 62
     7
 48
25.4
100
AcDbLine
 10
69.4617314152
 20
190.4249760918
 30
0.0
 11
69.4689155794
 21
190.4577496182
 31
0.0
  0
LINE
  5
8A
330
3F
100
AcDbEntity
  8
MEGA_002111
  6
CONTINUOUS
 62
     7
 48
25.4
100
AcDbLine
 10
82.2298001376
 20
168.2837536759
 30
0.0
 11
79.2298001376
 21
168.2837536759
 31
0.0
  0
ARC
  5
8B
330
3F
100
AcDbEntity
  8
MEGA_002111
  6
CONTINUOUS
 62
     7
 48
25.4
100
AcDbCircle
 10
112.5445808245
 20
176.292162355
 30
0.0
 40
1.486989115500023
100
AcDbArc
 50
89.5739718924
 51
167.5440425077
  0
ARC
  5
8C
330
3F
100
AcDbEntity
  8
MEGA_002111
  6
HIDDEN2
 62
     7
 48
25.4
100
AcDbCircle
 10
68.0166428394
 20
175.7924007098
 30
0.0
 40
1.486074679299975
100
AcDbArc
 50
15.2449753258
 51
90.5980297085
  0
LINE
  5
8D
330
3F
100
AcDbEntity
  8
MEGA_002111
  6
CONTINUOUS
 62
     7
 48
25.4
100
AcDbLine
 10
101.1098001376
 20
127.4837536759
 30
0.0
 11
79.3498001376
 21
127.4837536759
 31
0.0
  0
LINE
  5
8E
330
3F
100
AcDbEntity
  8
MEGA_002111
  6
CONTINUOUS
 62
     7
 48
25.4
100
AcDbLine
 10
100.3098001376
 20
108.2837536759
 30
0.0
 11
80.1498001376
 21
108.2837536759
 31
0.0
  0
LINE
  5
8F
330
3F
100
AcDbEntity
  8
MEGA_002111
  6
CONTINUOUS
 62
     7
 48
25.4
100
AcDbLine
 10
79.3498001376
 20
109.0837536759
 30
0.0
 11
101.1098001376
 21
109.0837536759
 31
0.0
  0
LINE
  5
90
330
3F
100
AcDbEntity
  8
MEGA_002111
  6
CONTINUOUS
 62
     7
 48
25.4
100
AcDbLine
 10
80.1498001376
 20
128.2837536759
 30
0.0
 11
100.3098001376
 21
128.2837536759
 31
0.0
  0
LINE
  5
91
330
3F
100
AcDbEntity
  8
MEGA_002111
  6
HIDDEN2
 62
     7
 48
25.4
100
AcDbLine
 10
65.2347917585
 20
186.8888036113
 30
0.0
 11
56.7718455177
 21
186.9310479571
 31
0.0
  0
LINE
  5
92
330
3F
100
AcDbEntity
  8
MEGA_002111
  6
HIDDEN2
 62
     7
 48
25.4
100
AcDbLine
 10
115.2248085167
 20
180.1787037406
 30
0.0
 11
123.7322459197
 21
180.1362373089
 31
0.0
  0
ARC
  5
93
330
3F
100
AcDbEntity
  8
MEGA_002111
  6
HIDDEN2
 62
     7
 48
25.4
100
AcDbCircle
 10
115.2298001376
 20
185.3888160695
 30
0.0
 40
1.0
100
AcDbArc
 50
90.286
 51
180.0
  0
ARC
  5
94
330
3F
100
AcDbEntity
  8
MEGA_002111
  6
CONTINUOUS
 62
     7
 48
25.4
100
AcDbCircle
 10
98.7298001376
 20
199.7837536759
 30
0.0
 40
1.5
100
AcDbArc
 50
180.0
 51
270.0
  0
ARC
  5
95
330
3F
100
AcDbEntity
  8
MEGA_002111
  6
HIDDEN2
 62
     7
 48
25.4
100
AcDbCircle
 10
87.1247377441
 20
204.2837536759
 30
0.0
 40
1.0
100
AcDbArc
 50
180.286
 51
270.0
  0
LINE
  5
96
330
3F
100
AcDbEntity
  8
MEGA_002111
  6
CONTINUOUS
 62
     7
 48
25.4
100
AcDbLine
 10
90.2298001376
 20
68.2837536759
 30
0.0
 11
88.7298001376
 21
68.2837536759
 31
0.0
  0
LINE
  5
97
330
3F
100
AcDbEntity
  8
MEGA_002111
  6
CONTINUOUS
 62
     7
 48
25.4
100
AcDbLine
 10
57.2298001376
 20
177.2837536759
 30
0.0
 11
68.0012349359
 21
177.2837536759
 31
0.0
  0
LINE
  5
98
330
3F
100
AcDbEntity
  8
MEGA_002111
  6
CONTINUOUS
 62
     7
 48
25.4
100
AcDbLine
 10
91.7298001376
 20
68.2837536759
 30
0.0
 11
90.2298001376
 21
68.2837536759
 31
0.0
  0
LINE
  5
99
330
3F
100
AcDbEntity
  8
MEGA_002111
  6
CONTINUOUS
 62
     7
 48
25.4
100
AcDbLine
 10
91.7298001376
 20
68.2837536759
 30
0.0
 11
91.7298001376
 21
76.2837536759
 31
0.0
  0
LINE
  5
9A
330
3F
100
AcDbEntity
  8
MEGA_002111
  6
CONTINUOUS
 62
     7
 48
25.4
100
AcDbLine
 10
90.2298001376
 20
68.2837536759
 30
0.0
 11
90.2298001376
 21
76.2837536759
 31
0.0
  0
LINE
  5
9B
330
3F
100
AcDbEntity
  8
MEGA_002111
  6
CONTINUOUS
 62
     7
 48
25.4
100
AcDbLine
 10
88.7298001376
 20
68.2837536759
 30
0.0
 11
88.7298001376
 21
76.2837536759
 31
0.0
  0
LINE
  5
9C
330
3F
100
AcDbEntity
  8
MEGA_002111
  6
CONTINUOUS
 62
     7
 48
25.4
100
AcDbLine
 10
98.2298001376
 20
168.6223158481
 30
0.0
 11
98.2298001376
 21
128.7837536759
 31
0.0
  0
SPLINE
  5
9D
330
3F
100
AcDbEntity
  8
MEGA_002111
  6
CONTINUOUS
 62
     7
 48
25.4
100
AcDbSpline
210
0.0
220
0.0
230
1.0
 70
     8
 71
     3
 72
    35
 73
    31
 74
     0
 42
0.0000000001
 43
0.0000000001
 40
0.0
 40
0.0
 40
0.0
 40
0.0
 40
0.0342905146667439
 40
0.0342905146667439
 40
0.0342905146667439
 40
0.0919978038679268
 40
0.0919978038679268
 40
0.0919978038679268
 40
0.1541062997859885
 40
0.1541062997859885
 40
0.1541062997859885
 40
0.2466591436856797
 40
0.2466591436856797
 40
0.2466591436856797
 40
0.393607704955489
 40
0.393607704955489
 40
0.393607704955489
 40
0.5150745140848166
 40
0.5150745140848166
 40
0.5150745140848166
 40
0.651081258969155
 40
0.651081258969155
 40
0.651081258969155
 40
0.7939435673390396
 40
0.7939435673390396
 40
0.7939435673390396
 40
0.9648995032849944
 40
0.9648995032849944
 40
0.9648995032849944
 40
1.0
 40
1.0
 40
1.0
 40
1.0
 10
94.86342593831182
 20
213.2825314140128
 30
0.0
 10
94.8494761106159
 20
213.2827328564942
 30
0.0
 10
94.83758236467288
 20
213.2829187851134
 30
0.0
 10
94.8265760033844
 20
213.2825280479625
 30
0.0
 10
94.80805346792232
 20
213.2818704788945
 30
0.0
 10
94.79204412206576
 20
213.2795797168111
 30
0.0
 10
94.77869615997719
 20
213.2775950626107
 30
0.0
 10
94.76433017848046
 20
213.2754590432445
 30
0.0
 10
94.75304701707182
 20
213.2736776046577
 30
0.0
 10
94.74368909618896
 20
213.2721453930261
 30
0.0
 10
94.72974410882628
 20
213.2698621217623
 30
0.0
 10
94.72007438122022
 20
213.2681322930201
 30
0.0
 10
94.70921246550962
 20
213.2664943677675
 30
0.0
 10
94.69196671898206
 20
213.2638937911757
 30
0.0
 10
94.67171561644683
 20
213.2615248917019
 30
0.0
 10
94.64588281198249
 20
213.2599219567736
 30
0.0
 10
94.62452956903795
 20
213.2585969802695
 30
0.0
 10
94.59936258496876
 20
213.2577953549806
 30
0.0
 10
94.56766981516051
 20
213.2582410059165
 30
0.0
 10
94.53218332721464
 20
213.2587400025854
 30
0.0
 10
94.48851523522228
 20
213.2608027527417
 30
0.0
 10
94.44142514288994
 20
213.2635956582735
 30
0.0
 10
94.39196142476575
 20
213.2665293431556
 30
0.0
 10
94.3387220327086
 20
213.2702686470745
 30
0.0
 10
94.2822218086496
 20
213.2744791707531
 30
0.0
 10
94.21461091256805
 20
213.2795176866814
 30
0.0
 10
94.14233061230193
 20
213.285230973808
 30
0.0
 10
94.0740934834608
 20
213.2835431793735
 30
0.0
 10
94.06008310643892
 20
213.2831966431584
 30
0.0
 10
94.04624317286454
 20
213.2825381078406
 30
0.0
 10
94.03010054226103
 20
213.2817787056161
 30
0.0
  0
SPLINE
  5
9E
330
3F
100
AcDbEntity
  8
MEGA_002111
  6
CONTINUOUS
 62
     7
 48
25.4
100
AcDbSpline
210
0.0
220
0.0
230
1.0
 70
     8
 71
     3
 72
    32
 73
    28
 74
     0
 42
0.0000000001
 43
0.0000000001
 40
0.0
 40
0.0
 40
0.0
 40
0.0
 40
0.0018853806852012
 40
0.0018853806852012
 40
0.0018853806852012
 40
0.1730818266108241
 40
0.1730818266108241
 40
0.1730818266108241
 40
0.328974580040743
 40
0.328974580040743
 40
0.328974580040743
 40
0.4497933855131192
 40
0.4497933855131192
 40
0.4497933855131192
 40
0.5729996881172602
 40
0.5729996881172602
 40
0.5729996881172602
 40
0.7111640149457489
 40
0.7111640149457489
 40
0.7111640149457489
 40
0.8706656484758403
 40
0.8706656484758403
 40
0.8706656484758403
 40
0.9494955918707897
 40
0.9494955918707897
 40
0.9494955918707897
 40
1.0
 40
1.0
 40
1.0
 40
1.0
 10
86.41853019495366
 20
213.2836317670975
 30
0.0
 10
86.41767067256035
 20
213.2836764706739
 30
0.0
 10
86.41692870030104
 20
213.2837150904232
 30
0.0
 10
86.41618611348173
 20
213.2837525971772
 30
0.0
 10
86.34875770220401
 20
213.2871582876246
 30
0.0
 10
86.27626223545192
 20
213.2813873171085
 30
0.0
 10
86.20801918265808
 20
213.2763952578479
 30
0.0
 10
86.14587655262285
 20
213.2718494516588
 30
0.0
 10
86.08726004919475
 20
213.2679495232534
 30
0.0
 10
86.03284359708053
 20
213.2645808541614
 30
0.0
 10
85.9906701759443
 20
213.2619700940922
 30
0.0
 10
85.95101949087369
 20
213.2596784317983
 30
0.0
 10
85.91710200328362
 20
213.2587029202093
 30
0.0
 10
85.88251427314303
 20
213.2577081315623
 30
0.0
 10
85.85388856639314
 20
213.2580820244086
 30
0.0
 10
85.82999832686672
 20
213.2591196092761
 30
0.0
 10
85.80320766119314
 20
213.2602831635077
 30
0.0
 10
85.78237209247097
 20
213.2622813450624
 30
0.0
 10
85.76543989590691
 20
213.2643773673613
 30
0.0
 10
85.74589278795791
 20
213.26679708733
 30
0.0
 10
85.73154777621639
 20
213.2693472014666
 30
0.0
 10
85.70240192958755
 20
213.2744139618551
 30
0.0
 10
85.68799727811727
 20
213.276918089404
 30
0.0
 10
85.66997737633054
 20
213.2800369326921
 30
0.0
 10
85.64692773742544
 20
213.2814684706201
 30
0.0
 10
85.63216040003613
 20
213.2823856218022
 30
0.0
 10
85.61532853154702
 20
213.2826101931718
 30
0.0
 10
85.59565875525476
 20
213.2829044154523
 30
0.0
  0
SPLINE
  5
9F
330
3F
100
AcDbEntity
  8
MEGA_002111
  6
CONTINUOUS
 62
     7
 48
25.4
100
AcDbSpline
210
0.0
220
0.0
230
1.0
 70
     8
 71
     3
 72
    26
 73
    22
 74
     0
 42
0.0000000001
 43
0.0000000001
 40
0.0
 40
0.0
 40
0.0
 40
0.0
 40
0.0818261084637276
 40
0.0818261084637276
 40
0.0818261084637276
 40
0.283991294374976
 40
0.283991294374976
 40
0.283991294374976
 40
0.444479730150333
 40
0.444479730150333
 40
0.444479730150333
 40
0.5974339796633422
 40
0.5974339796633422
 40
0.5974339796633422
 40
0.7196897039847519
 40
0.7196897039847519
 40
0.7196897039847519
 40
0.849916921942218
 40
0.849916921942218
 40
0.849916921942218
 40
0.9999999999999999
 40
0.9999999999999999
 40
0.9999999999999999
 40
0.9999999999999999
 10
124.2263846338406
 20
185.9698797661589
 30
0.0
 10
124.2263173941878
 20
186.0024873436289
 30
0.0
 10
124.2262575638088
 20
186.0303132547821
 30
0.0
 10
124.2251453797999
 20
186.0588019097286
 30
0.0
 10
124.2223975418403
 20
186.1291879311557
 30
0.0
 10
124.2132259240426
 20
186.2036194750162
 30
0.0
 10
124.204092432735
 20
186.2745060942845
 30
0.0
 10
124.1968418285989
 20
186.3307792977666
 30
0.0
 10
124.1896152515751
 20
186.384818508544
 30
0.0
 10
124.1833386163639
 20
186.4359767987674
 30
0.0
 10
124.177356640008
 20
186.4847334449998
 30
0.0
 10
124.1722375083019
 20
186.5308733131794
 30
0.0
 10
124.169362490481
 20
186.5694579405918
 30
0.0
 10
124.1670645001523
 20
186.6002984800798
 30
0.0
 10
124.1662002161581
 20
186.6263121715999
 30
0.0
 10
124.1664516331454
 20
186.6465346825689
 30
0.0
 10
124.1667194433849
 20
186.6680757707938
 30
0.0
 10
124.1682531930772
 20
186.6830458475575
 30
0.0
 10
124.1695810770585
 20
186.6924018326475
 30
0.0
 10
124.1711114246951
 20
186.7031843331308
 30
0.0
 10
124.1723683437267
 20
186.7065102579256
 30
0.0
 10
124.1721040018789
 20
186.7054566252546
 30
0.0
  0
SPLINE
  5
A0
330
3F
100
AcDbEntity
  8
MEGA_002111
  6
HIDDEN2
 62
     7
 48
25.4
100
AcDbSpline
210
0.0
220
0.0
230
1.0
 70
     8
 71
     3
 72
    26
 73
    22
 74
     0
 42
0.0000000001
 43
0.0000000001
 40
0.0
 40
0.0
 40
0.0
 40
0.0
 40
0.0114128674083318
 40
0.0114128674083318
 40
0.0114128674083318
 40
0.3660864185464836
 40
0.3660864185464836
 40
0.3660864185464836
 40
0.5675666109247023
 40
0.5675666109247023
 40
0.5675666109247023
 40
0.6569069590716342
 40
0.6569069590716342
 40
0.6569069590716342
 40
0.7325062144438693
 40
0.7325062144438693
 40
0.7325062144438693
 40
0.8446270626823681
 40
0.8446270626823681
 40
0.8446270626823681
 40
1.0
 40
1.0
 40
1.0
 40
1.0
 10
124.1721040018789
 20
186.7054566252546
 30
0.0
 10
124.1720944223615
 20
186.705418442528
 30
0.0
 10
124.1720828450115
 20
186.7053745082416
 30
0.0
 10
124.172069210442
 20
186.7053249688364
 30
0.0
 10
124.1716454938598
 20
186.7037854506668
 30
0.0
 10
124.16923500233
 20
186.6968327473909
 30
0.0
 10
124.162871051801
 20
186.6842358748162
 30
0.0
 10
124.1592558682815
 20
186.677079941419
 30
0.0
 10
124.1543648796257
 20
186.6681026004434
 30
0.0
 10
124.146469309703
 20
186.6557497932378
 30
0.0
 10
124.1429682560391
 20
186.6502723113906
 30
0.0
 10
124.138876437695
 20
186.6441311409787
 30
0.0
 10
124.1332550016087
 20
186.6363565051319
 30
0.0
 10
124.128498176825
 20
186.6297776558997
 30
0.0
 10
124.122646078322
 20
186.6220291734232
 30
0.0
 10
124.1156434861022
 20
186.6134832037271
 30
0.0
 10
124.1052579793179
 20
186.600808722125
 30
0.0
 10
124.0923418815004
 20
186.586380111858
 30
0.0
 10
124.0789410873291
 20
186.5734414738442
 30
0.0
 10
124.0603707608867
 20
186.5555115863641
 30
0.0
 10
124.040869652917
 20
186.5404429513747
 30
0.0
 10
124.01750680134
 20
186.5225093344301
 30
0.0
  0
ARC
  5
A1
330
3F
100
AcDbEntity
  8
MEGA_002111
  6
CONTINUOUS
 62
     7
 48
25.4
100
AcDbCircle
 10
123.2298001376
 20
187.7837536759
 30
0.0
 40
1.0
100
AcDbArc
 50
0.0
 51
90.0
  0
SPLINE
  5
A2
330
3F
100
AcDbEntity
  8
MEGA_002111
  6
HIDDEN2
 62
     7
 48
25.4
100
AcDbSpline
210
0.0
220
0.0
230
1.0
 70
     8
 71
     3
 72
    35
 73
    31
 74
     0
 42
0.0000000001
 43
0.0000000001
 40
0.0
 40
0.0
 40
0.0
 40
0.0
 40
0.055350893000966
 40
0.055350893000966
 40
0.055350893000966
 40
0.1839815355144273
 40
0.1839815355144273
 40
0.1839815355144273
 40
0.2911468608087189
 40
0.2911468608087189
 40
0.2911468608087189
 40
0.3748138001866717
 40
0.3748138001866717
 40
0.3748138001866717
 40
0.4303309193049558
 40
0.4303309193049558
 40
0.4303309193049558
 40
0.4874908335836001
 40
0.4874908335836001
 40
0.4874908335836001
 40
0.5794824733448596
 40
0.5794824733448596
 40
0.5794824733448596
 40
0.7585655365116444
 40
0.7585655365116444
 40
0.7585655365116444
 40
0.9663481845540971
 40
0.9663481845540971
 40
0.9663481845540971
 40
1.0
 40
1.0
 40
1.0
 40
1.0
 10
123.9222354345692
 20
180.0954641962237
 30
0.0
 10
123.9344687095023
 20
180.091059882227
 30
0.0
 10
123.9448905471477
 20
180.0872493838117
 30
0.0
 10
123.9552606906627
 20
180.0825676911186
 30
0.0
 10
123.9793599987488
 20
180.0716878460699
 30
0.0
 10
124.0031801290553
 20
180.0561030551844
 30
0.0
 10
124.0253647940796
 20
180.0395426975457
 30
0.0
 10
124.043847379546
 20
180.0257458597264
 30
0.0
 10
124.0611947947005
 20
180.0112718846866
 30
0.0
 10
124.0772494282537
 20
179.9957457549943
 30
0.0
 10
124.0897837255979
 20
179.983624075261
 30
0.0
 10
124.101530026323
 20
179.9708610696393
 30
0.0
 10
124.1114175699031
 20
179.9591213585436
 30
0.0
 10
124.1179784401681
 20
179.9513314842615
 30
0.0
 10
124.1237209045743
 20
179.9439921638549
 30
0.0
 10
124.1285804645984
 20
179.9374905269665
 30
0.0
 10
124.1335838228205
 20
179.9307965015359
 30
0.0
 10
124.1376512519083
 20
179.9249904685378
 30
0.0
 10
124.1412225639409
 20
179.9196728893131
 30
0.0
 10
124.1469701381654
 20
179.9111149192982
 30
0.0
 10
124.151432728331
 20
179.9038220848108
 30
0.0
 10
124.1550259667533
 20
179.8976359616761
 30
0.0
 10
124.1620210387515
 20
179.8855932381964
 30
0.0
 10
124.1657214717327
 20
179.8777446909307
 30
0.0
 10
124.1680628862508
 20
179.8724347441924
 30
0.0
 10
124.1707795323709
 20
179.8662738333015
 30
0.0
 10
124.171666668094
 20
179.8635303859586
 30
0.0
 10
124.1718515251335
 20
179.8627959142637
 30
0.0
 10
124.1718814639904
 20
179.8626769615689
 30
0.0
 10
124.171892982071
 20
179.8626107043238
 30
0.0
 10
124.1718871445387
 20
179.8626087217542
 30
0.0
  0
SPLINE
  5
A3
330
3F
100
AcDbEntity
  8
MEGA_002111
  6
CONTINUOUS
 62
     7
 48
25.4
100
AcDbSpline
210
0.0
220
0.0
230
1.0
 70
     8
 71
     3
 72
    26
 73
    22
 74
     0
 42
0.0000000001
 43
0.0000000001
 40
0.0
 40
0.0
 40
0.0
 40
0.0
 40
0.1272410657368068
 40
0.1272410657368068
 40
0.1272410657368068
 40
0.2715861927638545
 40
0.2715861927638545
 40
0.2715861927638545
 40
0.3867632315749321
 40
0.3867632315749321
 40
0.3867632315749321
 40
0.5143010731528643
 40
0.5143010731528643
 40
0.5143010731528643
 40
0.6789963935287156
 40
0.6789963935287156
 40
0.6789963935287156
 40
0.8740646322610105
 40
0.8740646322610105
 40
0.8740646322610105
 40
1.0
 40
1.0
 40
1.0
 40
1.0
 10
124.1718871445387
 20
179.8626087217542
 30
0.0
 10
124.1718491386338
 20
179.8625958140139
 30
0.0
 10
124.1710754619322
 20
179.8653073852126
 30
0.0
 10
124.169860069953
 20
179.8739389797924
 30
0.0
 10
124.1684813019537
 20
179.8837308548357
 30
0.0
 10
124.1665340842062
 20
179.9011412931751
 30
0.0
 10
124.1663932243435
 20
179.9268773868132
 30
0.0
 10
124.1662808282952
 20
179.9474129401558
 30
0.0
 10
124.1673185210159
 20
179.9732493492885
 30
0.0
 10
124.1696616143839
 20
180.0032349335941
 30
0.0
 10
124.1722561685926
 20
180.0364385715784
 30
0.0
 10
124.1764513497773
 20
180.0747297523978
 30
0.0
 10
124.1813441356595
 20
180.1152921181945
 30
0.0
 10
124.1876624089533
 20
180.1676721157499
 30
0.0
 10
124.1951439877686
 20
180.2238394760256
 30
0.0
 10
124.2027417019506
 20
180.2822830668906
 30
0.0
 10
124.2117405776957
 20
180.3515047564275
 30
0.0
 10
124.2209023737038
 20
180.4239196514163
 30
0.0
 10
124.2241232522626
 20
180.4931338923386
 30
0.0
 10
124.2262026401135
 20
180.5378183624501
 30
0.0
 10
124.2258058843969
 20
180.5811688165537
 30
0.0
 10
124.2253401443658
 20
180.6321109581141
 30
0.0
  0
ARC
  5
A4
330
3F
100
AcDbEntity
  8
MEGA_002111
  6
CONTINUOUS
 62
     7
 48
25.4
100
AcDbCircle
 10
57.2298001376
 20
188.2837536759
 30
0.0
 40
1.0
100
AcDbArc
 50
90.0
 51
180.0
  0
ARC
  5
A5
330
3F
100
AcDbEntity
  8
MEGA_002111
  6
CONTINUOUS
 62
     7
 48
25.4
100
AcDbCircle
 10
84.2298001376
 20
212.2837536759
 30
0.0
 40
1.0
100
AcDbArc
 50
90.0
 51
180.0
  0
SPLINE
  5
A6
330
3F
100
AcDbEntity
  8
MEGA_002111
  6
HIDDEN2
 62
     7
 48
25.4
100
AcDbSpline
210
0.0
220
0.0
230
1.0
 70
     8
 71
     3
 72
    32
 73
    28
 74
     0
 42
0.0000000001
 43
0.0000000001
 40
0.0
 40
0.0
 40
0.0
 40
0.0
 40
0.1183734987160598
 40
0.1183734987160598
 40
0.1183734987160598
 40
0.2403068777753881
 40
0.2403068777753881
 40
0.2403068777753881
 40
0.3679048142239393
 40
0.3679048142239393
 40
0.3679048142239393
 40
0.5079391612585081
 40
0.5079391612585081
 40
0.5079391612585081
 40
0.6802472430714041
 40
0.6802472430714041
 40
0.6802472430714041
 40
0.8549019626182423
 40
0.8549019626182423
 40
0.8549019626182423
 40
0.9471902609198764
 40
0.9471902609198764
 40
0.9471902609198764
 40
0.9924692319108275
 40
0.9924692319108275
 40
0.9924692319108275
 40
1.0
 40
1.0
 40
1.0
 40
1.0
 10
56.77211234252666
 20
186.931659949039
 30
0.0
 10
56.74007962520933
 20
186.9335550084377
 30
0.0
 10
56.71322601100138
 20
186.935132385011
 30
0.0
 10
56.6888043165163
 20
186.9398494394698
 30
0.0
 10
56.66364818137443
 20
186.9447083512668
 30
0.0
 10
56.64107243703559
 20
186.9528986213583
 30
0.0
 10
56.62385315298518
 20
186.9603647591
 30
0.0
 10
56.60583392700364
 20
186.9681777449814
 30
0.0
 10
56.59368040271617
 20
186.975197754882
 30
0.0
 10
56.58423091724374
 20
186.9815525493112
 30
0.0
 10
56.57386043191487
 20
186.9885267176497
 30
0.0
 10
56.56674677411938
 20
186.9946996800106
 30
0.0
 10
56.56050988123179
 20
187.000701126555
 30
0.0
 10
56.55283557080237
 20
187.0080857272908
 30
0.0
 10
56.54648873220148
 20
187.0152106433467
 30
0.0
 10
56.53765830781848
 20
187.0308546485514
 30
0.0
 10
56.52870762321987
 20
187.0467117070995
 30
0.0
 10
56.51720524504189
 20
187.0713214752339
 30
0.0
 10
56.51281638176653
 20
187.1038457438916
 30
0.0
 10
56.51049728770363
 20
187.1210317060901
 30
0.0
 10
56.51016436571116
 20
187.140427484407
 30
0.0
 10
56.51092995659973
 20
187.1516562978469
 30
0.0
 10
56.51130557483386
 20
187.1571654374384
 30
0.0
 10
56.51194561956668
 20
187.1607086811673
 30
0.0
 10
56.51220635651938
 20
187.1619329426274
 30
0.0
 10
56.5122497221145
 20
187.1621365609723
 30
0.0
 10
56.51228259525254
 20
187.1622760313531
 30
0.0
 10
56.51229619720088
 20
187.1623279296169
 30
0.0
  0
SPLINE
  5
A7
330
3F
100
AcDbEntity
  8
MEGA_002111
  6
CONTINUOUS
 62
     7
 48
25.4
100
AcDbSpline
210
0.0
220
0.0
230
1.0
 70
     8
 71
     3
 72
    26
 73
    22
 74
     0
 42
0.0000000001
 43
0.0000000001
 40
0.0
 40
0.0
 40
0.0
 40
0.0
 40
0.0230115417490583
 40
0.0230115417490583
 40
0.0230115417490583
 40
0.0559758847885313
 40
0.0559758847885313
 40
0.0559758847885313
 40
0.1184798015451805
 40
0.1184798015451805
 40
0.1184798015451805
 40
0.2141054011761782
 40
0.2141054011761782
 40
0.2141054011761782
 40
0.3933063236237007
 40
0.3933063236237007
 40
0.3933063236237007
 40
0.6513260770391541
 40
0.6513260770391541
 40
0.6513260770391541
 40
1.0
 40
1.0
 40
1.0
 40
1.0
 10
56.51229619720088
 20
187.1623279296169
 30
0.0
 10
56.51232927778616
 20
187.1624541486634
 30
0.0
 10
56.51224837207119
 20
187.1620623913026
 30
0.0
 10
56.51192719614584
 20
187.1608156961866
 30
0.0
 10
56.51146710731331
 20
187.159029788666
 30
0.0
 10
56.51051396123607
 20
187.1554894678392
 30
0.0
 10
56.50934589281359
 20
187.151531717472
 30
0.0
 10
56.50713111027239
 20
187.1440273998766
 30
0.0
 10
56.50414363435924
 20
187.1350223307484
 30
0.0
 10
56.50055763978429
 20
187.125001346135
 30
0.0
 10
56.49507137749399
 20
187.109670104314
 30
0.0
 10
56.48818420088808
 20
187.0919609741531
 30
0.0
 10
56.48079349206437
 20
187.0736336084225
 30
0.0
 10
56.4669434158937
 20
187.0392884031887
 30
0.0
 10
56.45132502565375
 20
187.0027720664616
 30
0.0
 10
56.43551783130313
 20
186.9651255913954
 30
0.0
 10
56.41275808022134
 20
186.910920880388
 30
0.0
 10
56.38960691467054
 20
186.8543732516544
 30
0.0
 10
56.36926040845769
 20
186.7987403310474
 30
0.0
 10
56.34176524172763
 20
186.7235610146692
 30
0.0
 10
56.319391763277
 20
186.6500520793697
 30
0.0
 10
56.29297569170705
 20
186.5628679117244
 30
0.0
  0
LINE
  5
A8
330
3F
100
AcDbEntity
  8
MEGA_002111
  6
CONTINUOUS
 62
     7
 48
25.4
100
AcDbLine
 10
112.5553065087
 20
177.7837536759
 30
0.0
 11
123.2298001376
 21
177.7837536759
 31
0.0
  0
LINE
  5
A9
330
3F
100
AcDbEntity
  8
MEGA_002111
  6
CONTINUOUS
 62
     7
 48
25.4
100
AcDbLine
 10
97.2298001376
 20
199.7837536759
 30
0.0
 11
97.2298001376
 21
212.2837536759
 31
0.0
  0
ARC
  5
AA
330
3F
100
AcDbEntity
  8
MEGA_002111
  6
HIDDEN2
 62
     7
 48
25.4
100
AcDbCircle
 10
67.0848294834
 20
175.5700107745
 30
0.0
 40
2.444477581700028
100
AcDbArc
 50
12.8623154341
 51
14.5679209933
  0
LINE
  5
AB
330
3F
100
AcDbEntity
  8
MEGA_002111
  6
HIDDEN2
 62
     7
 48
25.4
100
AcDbLine
 10
90.3024774357
 20
203.4837536759
 30
0.0
 11
90.3024774357
 21
203.2837536759
 31
0.0
  0
LINE
  5
AC
330
3F
100
AcDbEntity
  8
MEGA_002111
  6
HIDDEN2
 62
     7
 48
25.4
100
AcDbLine
 10
89.9201664514
 20
203.4837536759
 30
0.0
 11
89.9201664514
 21
203.2837536759
 31
0.0
  0
LINE
  5
AD
330
3F
100
AcDbEntity
  8
MEGA_002111
  6
HIDDEN2
 62
     7
 48
25.4
100
AcDbLine
 10
90.2204517581
 20
203.4837536759
 30
0.0
 11
90.2204517581
 21
203.2837536759
 31
0.0
  0
LINE
  5
AE
330
3F
100
AcDbEntity
  8
MEGA_002111
  6
HIDDEN2
 62
     7
 48
25.4
100
AcDbLine
 10
90.4073276496
 20
203.4837536759
 30
0.0
 11
90.4073276496
 21
203.2837536759
 31
0.0
  0
LINE
  5
AF
330
3F
100
AcDbEntity
  8
MEGA_002111
  6
HIDDEN2
 62
     7
 48
25.4
100
AcDbLine
 10
90.094916808
 20
203.4837536759
 30
0.0
 11
90.094916808
 21
203.2837536759
 31
0.0
  0
LINE
  5
B0
330
3F
100
AcDbEntity
  8
MEGA_002111
  6
HIDDEN2
 62
     7
 48
25.4
100
AcDbLine
 10
90.5506942688
 20
203.4837536759
 30
0.0
 11
90.5506942688
 21
203.2837536759
 31
0.0
  0
LINE
  5
B1
330
3F
100
AcDbEntity
  8
MEGA_002111
  6
HIDDEN2
 62
     7
 48
25.4
100
AcDbLine
 10
89.9986257951
 20
203.4837536759
 30
0.0
 11
89.9986257951
 21
203.2837536759
 31
0.0
  0
LINE
  5
B2
330
3F
100
AcDbEntity
  8
MEGA_002111
  6
HIDDEN2
 62
     7
 48
25.4
100
AcDbLine
 10
89.9265858522
 20
203.4837536759
 30
0.0
 11
89.9265858522
 21
203.2837536759
 31
0.0
  0
LINE
  5
B3
330
3F
100
AcDbEntity
  8
MEGA_002111
  6
HIDDEN2
 62
     7
 48
25.4
100
AcDbLine
 10
90.5328625997
 20
203.4837536759
 30
0.0
 11
90.5328625997
 21
203.2837536759
 31
0.0
  0
LINE
  5
B4
330
3F
100
AcDbEntity
  8
MEGA_002111
  6
HIDDEN2
 62
     7
 48
25.4
100
AcDbLine
 10
90.5806514728
 20
203.4837536759
 30
0.0
 11
90.5806514728
 21
203.2837536759
 31
0.0
  0
LINE
  5
B5
330
3F
100
AcDbEntity
  8
MEGA_002111
  6
HIDDEN2
 62
     7
 48
25.4
100
AcDbLine
 10
90.654831216
 20
203.4837536759
 30
0.0
 11
90.654831216
 21
203.2837536759
 31
0.0
  0
LINE
  5
B6
330
3F
100
AcDbEntity
  8
MEGA_002111
  6
HIDDEN2
 62
     7
 48
25.4
100
AcDbLine
 10
90.017170731
 20
203.4837536759
 30
0.0
 11
90.017170731
 21
203.2837536759
 31
0.0
  0
LINE
  5
B7
330
3F
100
AcDbEntity
  8
MEGA_002111
  6
HIDDEN2
 62
     7
 48
25.4
100
AcDbLine
 10
90.852406109
 20
203.4837536759
 30
0.0
 11
90.852406109
 21
203.2837536759
 31
0.0
  0
LINE
  5
B8
330
3F
100
AcDbEntity
  8
MEGA_002111
  6
HIDDEN2
 62
     7
 48
25.4
100
AcDbLine
 10
90.7882121004
 20
203.4837536759
 30
0.0
 11
90.7882121004
 21
203.2837536759
 31
0.0
  0
LINE
  5
B9
330
3F
100
AcDbEntity
  8
MEGA_002111
  6
HIDDEN2
 62
     7
 48
25.4
100
AcDbLine
 10
89.8081835698
 20
203.4837536759
 30
0.0
 11
89.8081835698
 21
203.2837536759
 31
0.0
  0
LINE
  5
BA
330
3F
100
AcDbEntity
  8
MEGA_002111
  6
HIDDEN2
 62
     7
 48
25.4
100
AcDbLine
 10
90.8474132417
 20
203.4837536759
 30
0.0
 11
90.8474132417
 21
203.2837536759
 31
0.0
  0
LINE
  5
BB
330
3F
100
AcDbEntity
  8
MEGA_002111
  6
HIDDEN2
 62
     7
 48
25.4
100
AcDbLine
 10
66.0298001376
 20
182.5655538147
 30
0.0
 11
66.2298001376
 21
182.5655538147
 31
0.0
  0
LINE
  5
BC
330
3F
100
AcDbEntity
  8
MEGA_002111
  6
HIDDEN2
 62
     7
 48
25.4
100
AcDbLine
 10
66.0298001376
 20
184.0488180327
 30
0.0
 11
66.0298001376
 21
182.5655538147
 31
0.0
  0
LINE
  5
BD
330
3F
100
AcDbEntity
  8
MEGA_002111
  6
HIDDEN2
 62
     7
 48
25.4
100
AcDbLine
 10
66.0298001376
 20
183.5563713502
 30
0.0
 11
66.2298001376
 21
183.5563713502
 31
0.0
  0
LINE
  5
BE
330
3F
100
AcDbEntity
  8
MEGA_002111
  6
HIDDEN2
 62
     7
 48
25.4
100
AcDbLine
 10
66.0298001376
 20
182.8773132933
 30
0.0
 11
66.2298001376
 21
182.8773132933
 31
0.0
  0
LINE
  5
BF
330
3F
100
AcDbEntity
  8
MEGA_002111
  6
HIDDEN2
 62
     7
 48
25.4
100
AcDbLine
 10
66.0298001376
 20
183.8540609237
 30
0.0
 11
66.2298001376
 21
183.8540609237
 31
0.0
  0
LINE
  5
C0
330
3F
100
AcDbEntity
  8
MEGA_002111
  6
HIDDEN2
 62
     7
 48
25.4
100
AcDbLine
 10
66.0298001376
 20
184.0488180327
 30
0.0
 11
66.2298001376
 21
184.0488180327
 31
0.0
  0
LINE
  5
C1
330
3F
100
AcDbEntity
  8
MEGA_002111
  6
CONTINUOUS
 62
     7
 48
25.4
100
AcDbLine
 10
68.0012349359
 20
189.2837536759
 30
0.0
 11
57.2298001376
 21
189.2837536759
 31
0.0
  0
ARC
  5
C2
330
3F
100
AcDbEntity
  8
MEGA_002111
  6
CONTINUOUS
 62
     7
 48
25.4
100
AcDbCircle
 10
68.0064277508
 20
190.7825423074
 30
0.0
 40
1.497943307599996
100
AcDbArc
 50
269.8432324516
 51
344.5384706332
  0
ARC
  5
C3
330
3F
100
AcDbEntity
  8
MEGA_002111
  6
CONTINUOUS
 62
     7
 48
25.4
100
AcDbCircle
 10
92.7298001376
 20
160.2837536759
 30
0.0
 40
3.0
100
AcDbArc
 50
0.0
 51
90.0
  0
LINE
  5
C4
330
3F
100
AcDbEntity
  8
MEGA_002111
  6
CONTINUOUS
 62
     7
 48
25.4
100
AcDbLine
 10
95.7298001376
 20
136.2837536759
 30
0.0
 11
95.7298001376
 21
160.2837536759
 31
0.0
  0
ARC
  5
C5
330
3F
100
AcDbEntity
  8
MEGA_002111
  6
CONTINUOUS
 62
     7
 48
25.4
100
AcDbCircle
 10
92.7298001376
 20
136.2837536759
 30
0.0
 40
3.0
100
AcDbArc
 50
270.0
 51
360.0
  0
LINE
  5
C6
330
3F
100
AcDbEntity
  8
MEGA_002111
  6
CONTINUOUS
 62
     7
 48
25.4
100
AcDbLine
 10
87.7298001376
 20
133.2837536759
 30
0.0
 11
92.7298001376
 21
133.2837536759
 31
0.0
  0
ARC
  5
C7
330
3F
100
AcDbEntity
  8
MEGA_002111
  6
CONTINUOUS
 62
     7
 48
25.4
100
AcDbCircle
 10
87.7298001376
 20
136.2837536759
 30
0.0
 40
3.0
100
AcDbArc
 50
180.0
 51
270.0
  0
ARC
  5
C8
330
3F
100
AcDbEntity
  8
MEGA_002111
  6
CONTINUOUS
 62
     7
 48
25.4
100
AcDbCircle
 10
87.7298001376
 20
160.2837536759
 30
0.0
 40
3.0
100
AcDbArc
 50
90.0
 51
180.0
  0
LINE
  5
C9
330
3F
100
AcDbEntity
  8
MEGA_002111
  6
CONTINUOUS
 62
     7
 48
25.4
100
AcDbLine
 10
92.7298001376
 20
163.2837536759
 30
0.0
 11
87.7298001376
 21
163.2837536759
 31
0.0
  0
LINE
  5
CA
330
3F
100
AcDbEntity
  8
MEGA_002111
  6
CONTINUOUS
 62
     7
 48
25.4
100
AcDbLine
 10
84.7298001376
 20
160.2837536759
 30
0.0
 11
84.7298001376
 21
136.2837536759
 31
0.0
  0
LINE
  5
CB
330
3F
100
AcDbEntity
  8
MEGA_002111
  6
CONTINUOUS
 62
     7
 48
25.4
100
AcDbLine
 10
103.3519300283
 20
122.5337536759
 30
0.0
 11
104.6886397068
 21
122.5337536759
 31
0.0
  0
LINE
  5
CC
330
3F
100
AcDbEntity
  8
MEGA_002111
  6
CONTINUOUS
 62
     7
 48
25.4
100
AcDbLine
 10
104.6886397068
 20
114.0337536759
 30
0.0
 11
106.6939681832
 21
114.0337536759
 31
0.0
  0
LINE
  5
CD
330
3F
100
AcDbEntity
  8
MEGA_002111
  6
CONTINUOUS
 62
     7
 48
25.4
100
AcDbLine
 10
100.5718287836
 20
122.5337536759
 30
0.0
 11
103.3519300283
 21
122.5337536759
 31
0.0
  0
LINE
  5
CE
330
3F
100
AcDbEntity
  8
MEGA_002111
  6
CONTINUOUS
 62
     7
 48
25.4
100
AcDbLine
 10
106.7995638943
 20
114.0337536759
 30
0.0
 11
106.6939681832
 21
114.0337536759
 31
0.0
  0
LINE
  5
CF
330
3F
100
AcDbEntity
  8
MEGA_002111
  6
CONTINUOUS
 62
     7
 48
25.4
100
AcDbLine
 10
103.3519300283
 20
114.0337536759
 30
0.0
 11
104.6886397068
 21
114.0337536759
 31
0.0
  0
LINE
  5
D0
330
3F
100
AcDbEntity
  8
MEGA_002111
  6
CONTINUOUS
 62
     7
 48
25.4
100
AcDbLine
 10
100.5718287836
 20
114.0337536759
 30
0.0
 11
103.3519300283
 21
114.0337536759
 31
0.0
  0
ARC
  5
D1
330
3F
100
AcDbEntity
  8
MEGA_002111
  6
CONTINUOUS
 62
     7
 48
25.4
100
AcDbCircle
 10
123.2298001376
 20
178.7837536759
 30
0.0
 40
1.0
100
AcDbArc
 50
270.0
 51
360.0
  0
LINE
  5
D2
330
3F
100
AcDbEntity
  8
MEGA_002111
  6
CONTINUOUS
 62
     7
 48
25.4
100
AcDbLine
 10
101.1098001376
 20
127.4837536759
 30
0.0
 11
100.3098001376
 21
128.2837536759
 31
0.0
  0
LINE
  5
D3
330
3F
100
AcDbEntity
  8
MEGA_002111
  6
CONTINUOUS
 62
     7
 48
25.4
100
AcDbLine
 10
79.3498001376
 20
127.4837536759
 30
0.0
 11
79.3498001376
 21
109.0837536759
 31
0.0
  0
ARC
  5
D4
330
3F
100
AcDbEntity
  8
MEGA_002111
  6
CONTINUOUS
 62
     7
 48
25.4
100
AcDbCircle
 10
57.2298001376
 20
178.2837536759
 30
0.0
 40
1.0
100
AcDbArc
 50
180.0
 51
270.0
  0
ARC
  5
D5
330
3F
100
AcDbEntity
  8
MEGA_002111
  6
CONTINUOUS
 62
     7
 48
25.4
100
AcDbCircle
 10
96.2298001376
 20
212.2837536759
 30
0.0
 40
1.0
100
AcDbArc
 50
0.0
 51
90.0
  0
ARC
  5
D6
330
3F
100
AcDbEntity
  8
MEGA_002111
  6
CONTINUOUS
 62
     7
 48
25.4
100
AcDbCircle
 10
81.7298001376
 20
199.7837536759
 30
0.0
 40
1.5
100
AcDbArc
 50
270.0
 51
360.0
  0
SPLINE
  5
D7
330
3F
100
AcDbEntity
  8
MEGA_002111
  6
CONTINUOUS
 62
     7
 48
25.4
100
AcDbSpline
210
0.0
220
0.0
230
1.0
 70
     8
 71
     3
 72
    26
 73
    22
 74
     0
 42
0.0000000001
 43
0.0000000001
 40
0.0
 40
0.0
 40
0.0
 40
0.0
 40
0.2801353605397078
 40
0.2801353605397078
 40
0.2801353605397078
 40
0.6037847100475534
 40
0.6037847100475534
 40
0.6037847100475534
 40
0.78566306366802
 40
0.78566306366802
 40
0.78566306366802
 40
0.8864185117785884
 40
0.8864185117785884
 40
0.8864185117785884
 40
0.9469530004482967
 40
0.9469530004482967
 40
0.9469530004482967
 40
0.9910201727131632
 40
0.9910201727131632
 40
0.9910201727131632
 40
1.0
 40
1.0
 40
1.0
 40
1.0
 10
56.29330832582979
 20
180.0048113905492
 30
0.0
 10
56.31405953446372
 20
179.9339906111924
 30
0.0
 10
56.33159351623157
 20
179.8740979508138
 30
0.0
 10
56.35302973352252
 20
179.812871115597
 30
0.0
 10
56.37779568155826
 20
179.7421337929251
 30
0.0
 10
56.40777030257155
 20
179.6696156242776
 30
0.0
 10
56.43621052544989
 20
179.6013377360491
 30
0.0
 10
56.45219282518749
 20
179.5629682169427
 30
0.0
 10
56.4676905615189
 20
179.525937779706
 30
0.0
 10
56.48179614159093
 20
179.4905904237394
 30
0.0
 10
56.48961023278282
 20
179.4710089913201
 30
0.0
 10
56.49699709270323
 20
179.4519440705684
 30
0.0
 10
56.50251916698129
 20
179.4361431678207
 30
0.0
 10
56.50583686293808
 20
179.4266498889332
 30
0.0
 10
56.50848143098885
 20
179.4183348160306
 30
0.0
 10
56.51013644912145
 20
179.4125163966672
 30
0.0
 10
56.5113412494056
 20
179.4082807734047
 30
0.0
 10
56.51202165013159
 20
179.4053682203471
 30
0.0
 10
56.51220017971126
 20
179.4045403211261
 30
0.0
 10
56.51223655973531
 20
179.4043716152248
 30
0.0
 10
56.51225209975402
 20
179.4042894737687
 30
0.0
 10
56.51225040383762
 20
179.4042929414315
 30
0.0
  0
SPLINE
  5
D8
330
3F
100
AcDbEntity
  8
MEGA_002111
  6
HIDDEN2
 62
     7
 48
25.4
100
AcDbSpline
210
0.0
220
0.0
230
1.0
 70
     8
 71
     3
 72
    32
 73
    28
 74
     0
 42
0.0000000001
 43
0.0000000001
 40
0.0
 40
0.0
 40
0.0
 40
0.0
 40
0.0262592910773341
 40
0.0262592910773341
 40
0.0262592910773341
 40
0.0672466632032942
 40
0.0672466632032942
 40
0.0672466632032942
 40
0.1219615993885569
 40
0.1219615993885569
 40
0.1219615993885569
 40
0.2904565783285856
 40
0.2904565783285856
 40
0.2904565783285856
 40
0.45644824555939
 40
0.45644824555939
 40
0.45644824555939
 40
0.6581493630379315
 40
0.6581493630379315
 40
0.6581493630379315
 40
0.7938474797380115
 40
0.7938474797380115
 40
0.7938474797380115
 40
0.930319212832929
 40
0.930319212832929
 40
0.930319212832929
 40
1.0
 40
1.0
 40
1.0
 40
1.0
 10
56.51225040383762
 20
179.4042929414315
 30
0.0
 10
56.51224425717605
 20
179.404305509592
 30
0.0
 10
56.5120116958337
 20
179.4054426562114
 30
0.0
 10
56.51172431213924
 20
179.4076588975246
 30
0.0
 10
56.51127574319676
 20
179.411118164843
 30
0.0
 10
56.510693609515
 20
179.4172064510841
 30
0.0
 10
56.51047176153912
 20
179.4239240132173
 30
0.0
 10
56.51017561184196
 20
179.4328914332878
 30
0.0
 10
56.51052149710451
 20
179.4429802331839
 30
0.0
 10
56.51152512343099
 20
179.4527131521371
 30
0.0
 10
56.51461579681072
 20
179.4826857352815
 30
0.0
 10
56.52394406399286
 20
179.5092833721367
 30
0.0
 10
56.53327611478354
 20
179.5279972843413
 30
0.0
 10
56.54246952030323
 20
179.5464331659728
 30
0.0
 10
56.55166659784139
 20
179.5572178380928
 30
0.0
 10
56.55871390919831
 20
179.5650311625106
 30
0.0
 10
56.56727729433469
 20
179.5745253515417
 30
0.0
 10
56.57266647235376
 20
179.5796322387781
 30
0.0
 10
56.58958128404473
 20
179.5894455260267
 30
0.0
 10
56.60096103304907
 20
179.5960475945473
 30
0.0
 10
56.61755748183367
 20
179.6047798605572
 30
0.0
 10
56.63976305954838
 20
179.6134978562977
 30
0.0
 10
56.6620952314959
 20
179.622265553424
 30
0.0
 10
56.69010067008523
 20
179.6310188171073
 30
0.0
 10
56.72131830384586
 20
179.6331508881434
 30
0.0
 10
56.73725764340431
 20
179.6342394973721
 30
0.0
 10
56.75403440157195
 20
179.6336019630628
 30
0.0
 10
56.77376060498979
 20
179.6328404295514
 30
0.0
  0
ARC
  5
D9
330
3F
100
AcDbEntity
  8
MEGA_002111
  6
CONTINUOUS
 62
     7
 48
25.4
100
AcDbCircle
 10
57.6229330513
 20
180.4288796882
 30
0.0
 40
1.392151109700023
100
AcDbArc
 50
177.540653444
 51
197.6894435755
  0
ARC
  5
DA
330
3F
100
AcDbEntity
  8
MEGA_002111
  6
CONTINUOUS
 62
     7
 48
25.4
100
AcDbCircle
 10
57.8018012218
 20
186.1295961727
 30
0.0
 40
1.569142473099987
100
AcDbArc
 50
163.9824200897
 51
181.9512158472
  0
LINE
  5
DB
330
3F
100
AcDbEntity
  8
MEGA_002111
  6
CONTINUOUS
 62
     7
 48
25.4
100
AcDbLine
 10
69.2538626503
 20
189.9232082721
 30
0.0
 11
69.4617314152
 21
190.4249760918
 31
0.0
  0
LINE
  5
DC
330
3F
100
AcDbEntity
  8
MEGA_002111
  6
CONTINUOUS
 62
     7
 48
25.4
100
AcDbLine
 10
87.3484583905
 20
76.7502354939
 30
0.0
 11
85.2611418848
 21
107.8172718579
 31
0.0
  0
LINE
  5
DD
330
3F
100
AcDbEntity
  8
MEGA_002111
  6
CONTINUOUS
 62
     7
 48
25.4
100
AcDbLine
 10
95.1984583905
 20
107.8172718579
 30
0.0
 11
93.1111418848
 21
76.7502354939
 31
0.0
  0
ARC
  5
DE
330
3F
100
AcDbEntity
  8
MEGA_002111
  6
CONTINUOUS
 62
     7
 48
25.4
100
AcDbCircle
 10
84.7622666183
 20
107.7837536759
 30
0.0
 40
0.5
100
AcDbArc
 50
3.8437833142
 51
90.0
  0
LINE
  5
DF
330
3F
100
AcDbEntity
  8
MEGA_002111
  6
CONTINUOUS
 62
     7
 48
25.4
100
AcDbLine
 10
92.6122666183
 20
76.2837536759
 30
0.0
 11
87.8473336569
 21
76.2837536759
 31
0.0
  0
ARC
  5
E0
330
3F
100
AcDbEntity
  8
MEGA_002111
  6
CONTINUOUS
 62
     7
 48
25.4
100
AcDbCircle
 10
95.6973336569
 20
107.7837536759
 30
0.0
 40
0.5
100
AcDbArc
 50
90.0
 51
176.1562166858
  0
LINE
  5
E1
330
3F
100
AcDbEntity
  8
MEGA_002111
  6
CONTINUOUS
 62
     7
 48
25.4
100
AcDbLine
 10
79.2298001376
 20
198.2837536759
 30
0.0
 11
81.7629530267
 21
198.2837536759
 31
0.0
  0
ARC
  5
E2
330
3F
100
AcDbEntity
  8
MEGA_002111
  6
CONTINUOUS
 62
     7
 48
25.4
100
AcDbCircle
 10
79.2298001376
 20
188.2837536759
 30
0.0
 40
10.0
100
AcDbArc
 50
90.0
 51
167.6359637468
  0
ARC
  5
E3
330
3F
100
AcDbEntity
  8
MEGA_002111
  6
HIDDEN2
 62
     7
 48
25.4
100
AcDbCircle
 10
66.8751461861
 20
191.6865538834
 30
0.0
 40
2.961026808700012
100
AcDbArc
 50
290.4877211246
 51
323.45041161
  0
LINE
  5
E4
330
3F
100
AcDbEntity
  8
MEGA_002111
  6
HIDDEN2
 62
     7
 48
25.4
100
AcDbLine
 10
89.8994817153
 20
203.4837536759
 30
0.0
 11
89.8994817153
 21
203.2837536759
 31
0.0
  0
LINE
  5
E5
330
3F
100
AcDbEntity
  8
MEGA_002111
  6
HIDDEN2
 62
     7
 48
25.4
100
AcDbLine
 10
89.8260152388
 20
203.5087536759
 30
0.0
 11
89.8260152388
 21
203.2587536759
 31
0.0
  0
LINE
  5
E6
330
3F
100
AcDbEntity
  8
MEGA_002111
  6
HIDDEN2
 62
     7
 48
25.4
100
AcDbLine
 10
90.6962006882
 20
203.2587536759
 30
0.0
 11
90.6962006882
 21
203.5087536759
 31
0.0
  0
SPLINE
  5
E7
330
3F
100
AcDbEntity
  8
MEGA_002111
  6
CONTINUOUS
 62
     7
 48
25.4
100
AcDbSpline
210
0.0
220
0.0
230
1.0
 70
     8
 71
     3
 72
    11
 73
     7
 74
     0
 42
0.0000000001
 43
0.0000000001
 40
0.0
 40
0.0
 40
0.0
 40
0.0
 40
0.5
 40
0.5
 40
0.5
 40
1.0
 40
1.0
 40
1.0
 40
1.0
 10
82.6298001376632
 20
168.2837536758724
 30
0.0
 10
82.7213112540211
 20
168.2837536758724
 30
0.0
 10
82.82118899197083
 20
168.2521830688353
 30
0.0
 10
82.92186297422499
 20
168.2144288918066
 30
0.0
 10
83.02253695647904
 20
168.1766747147778
 30
0.0
 10
83.1267718621676
 20
168.1298285534812
 30
0.0
 10
83.22980013766318
 20
168.0837536758724
 30
0.0
  0
SPLINE
  5
E8
330
3F
100
AcDbEntity
  8
MEGA_002111
  6
CONTINUOUS
 62
     7
 48
25.4
100
AcDbSpline
210
0.0
220
0.0
230
1.0
 70
     8
 71
     3
 72
    11
 73
     7
 74
     0
 42
0.0000000001
 43
0.0000000001
 40
0.0
 40
0.0
 40
0.0
 40
0.0
 40
0.5
 40
0.5
 40
0.5
 40
1.0
 40
1.0
 40
1.0
 40
1.0
 10
97.22980013766319
 20
168.0837536758724
 30
0.0
 10
97.33282841315882
 20
168.1298285534812
 30
0.0
 10
97.43706331884727
 20
168.1766747147778
 30
0.0
 10
97.53773730110143
 20
168.2144288918066
 30
0.0
 10
97.63841128335554
 20
168.2521830688353
 30
0.0
 10
97.73828902130521
 20
168.2837536758724
 30
0.0
 10
97.82980013766324
 20
168.2837536758724
 30
0.0
  0
LINE
  5
E9
330
3F
100
AcDbEntity
  8
MEGA_002111
  6
CONTINUOUS
 62
     7
 48
25.4
100
AcDbLine
 10
82.2298001376
 20
128.7837536759
 30
0.0
 11
82.2298001376
 21
168.6223158481
 31
0.0
  0
LINE
  5
EA
330
3F
100
AcDbEntity
  8
MEGA_002111
  6
CONTINUOUS
 62
     7
 48
25.4
100
AcDbLine
 10
82.5683623099
 20
168.2837536759
 30
0.0
 11
82.6298001376
 21
168.2837536759
 31
0.0
  0
SPLINE
  5
EB
330
3F
100
AcDbEntity
  8
MEGA_002111
  6
CONTINUOUS
 62
     7
 48
25.4
100
AcDbSpline
210
0.0
220
0.0
230
1.0
 70
     8
 71
     3
 72
    17
 73
    13
 74
     0
 42
0.0000000001
 43
0.0000000001
 40
0.0
 40
0.0
 40
0.0
 40
0.0
 40
0.2499999999999996
 40
0.2499999999999996
 40
0.2499999999999996
 40
0.4999999999999991
 40
0.4999999999999991
 40
0.4999999999999991
 40
0.7499999999999987
 40
0.7499999999999987
 40
0.7499999999999987
 40
1.0
 40
1.0
 40
1.0
 40
1.0
 10
82.26155430111132
 20
168.7837536758724
 30
0.0
 10
82.26155430111132
 20
168.7103988682264
 30
0.0
 10
82.26539645406972
 20
168.6381066660441
 30
0.0
 10
82.27479363751961
 20
168.5730056765212
 30
0.0
 10
82.2841908209695
 20
168.5079046869983
 30
0.0
 10
82.29962284848912
 20
168.4499502736209
 30
0.0
 10
82.32378552694397
 20
168.4052935159532
 30
0.0
 10
82.34794820539875
 20
168.3606367582856
 30
0.0
 10
82.38116412502066
 20
168.3289982075631
 30
0.0
 10
82.4228177125802
 20
168.3098509286842
 30
0.0
 10
82.46447130013979
 20
168.2907036498052
 30
0.0
 10
82.51348544828696
 20
168.2837536758724
 30
0.0
 10
82.56836230989705
 20
168.2837536758724
 30
0.0
  0
LINE
  5
EC
330
3F
100
AcDbEntity
  8
MEGA_002111
  6
CONTINUOUS
 62
     7
 48
25.4
100
AcDbLine
 10
82.2615543011
 20
169.2837536759
 30
0.0
 11
82.2615543011
 21
168.7837536759
 31
0.0
  0
ARC
  5
ED
330
3F
100
AcDbEntity
  8
MEGA_002111
  6
CONTINUOUS
 62
     7
 48
25.4
100
AcDbCircle
 10
60.9046891587
 20
169.9775682776
 30
0.0
 40
21.36813205240003
100
AcDbArc
 50
356.3636316914
 51
358.1393021769
  0
ARC
  5
EE
330
3F
100
AcDbEntity
  8
MEGA_002111
  6
CONTINUOUS
 62
     7
 48
25.4
100
AcDbCircle
 10
119.526006411
 20
169.9761806268
 30
0.0
 40
21.33919753589998
100
AcDbArc
 50
181.8594938816
 51
183.63757225
  0
ARC
  5
EF
330
3F
100
AcDbEntity
  8
MEGA_002111
  6
CONTINUOUS
 62
     7
 48
25.4
100
AcDbCircle
 10
112.6091241441
 20
176.316160954
 30
0.0
 40
1.54817893249998
100
AcDbArc
 50
146.5879055584
 51
170.200515934
  0
SPLINE
  5
F0
330
3F
100
AcDbEntity
  8
MEGA_002111
  6
CONTINUOUS
 62
     7
 48
25.4
100
AcDbSpline
210
0.0
220
0.0
230
1.0
 70
     8
 71
     3
 72
    17
 73
    13
 74
     0
 42
0.0000000001
 43
0.0000000001
 40
0.0
 40
0.0
 40
0.0
 40
0.0
 40
0.2499999999999994
 40
0.2499999999999994
 40
0.2499999999999994
 40
0.4999999999999989
 40
0.4999999999999989
 40
0.4999999999999989
 40
0.7499999999999994
 40
0.7499999999999994
 40
0.7499999999999994
 40
1.0
 40
1.0
 40
1.0
 40
1.0
 10
97.89123796542931
 20
168.2837536758724
 30
0.0
 10
97.94612069228464
 20
168.2837536758724
 30
0.0
 10
97.99467987118953
 20
168.2905791953877
 30
0.0
 10
98.03645715080356
 20
168.3097016619315
 30
0.0
 10
98.07823443041764
 20
168.3288241284754
 30
0.0
 10
98.11141363175024
 20
168.3603571990042
 30
0.0
 10
98.13561030048373
 20
168.4049163397275
 30
0.0
 10
98.15980696921727
 20
168.4494754804508
 30
0.0
 10
98.17532088453862
 20
168.5074610299667
 30
0.0
 10
98.18475652157088
 20
168.5726589361238
 30
0.0
 10
98.19419215860314
 20
168.6378568422809
 30
0.0
 10
98.19804597421499
 20
168.7102778330612
 30
0.0
 10
98.19804597421505
 20
168.7837536758724
 30
0.0
  0
LINE
  5
F1
330
3F
100
AcDbEntity
  8
MEGA_002111
  6
CONTINUOUS
 62
     7
 48
25.4
100
AcDbLine
 10
98.1980459742
 20
168.7837536759
 30
0.0
 11
98.1980459742
 21
169.2837536759
 31
0.0
  0
LINE
  5
F2
330
3F
100
AcDbEntity
  8
MEGA_002111
  6
CONTINUOUS
 62
     7
 48
25.4
100
AcDbLine
 10
97.8298001376
 20
168.2837536759
 30
0.0
 11
97.8912379654
 21
168.2837536759
 31
0.0
  0
ARC
  5
F3
330
3F
100
AcDbEntity
  8
MEGA_002111
  6
CONTINUOUS
 62
     7
 48
25.4
100
AcDbCircle
 10
101.2298001376
 20
178.2837536759
 30
0.0
 40
10.0
100
AcDbArc
 50
270.0
 51
350.1883900981
  0
LINE
  5
F4
330
3F
100
AcDbEntity
  8
MEGA_002111
  6
CONTINUOUS
 62
     7
 48
25.4
100
AcDbLine
 10
82.6298001376
 20
168.2837536759
 30
0.0
 11
97.8298001376
 21
168.2837536759
 31
0.0
  0
ARC
  5
F5
330
3F
100
AcDbEntity
  8
MEGA_002111
  6
CONTINUOUS
 62
     7
 48
25.4
100
AcDbCircle
 10
79.2298001376
 20
178.2837536759
 30
0.0
 40
10.0
100
AcDbArc
 50
192.3640362532
 51
270.0
  0
LINE
  5
F6
330
3F
100
AcDbEntity
  8
MEGA_002111
  6
CONTINUOUS
 62
     7
 48
25.4
100
AcDbLine
 10
69.4617314152
 20
176.14253126
 30
0.0
 11
69.2538626503
 21
176.6442990797
 31
0.0
  0
ARC
  5
F7
330
3F
100
AcDbEntity
  8
MEGA_002111
  6
CONTINUOUS
 62
     7
 48
25.4
100
AcDbCircle
 10
66.8751461861
 20
174.8809534684
 30
0.0
 40
2.961026808700012
100
AcDbArc
 50
36.54958839
 51
69.5122788754
  0
ARC
  5
F8
330
3F
100
AcDbEntity
  8
MEGA_002111
  6
CONTINUOUS
 62
     7
 48
25.4
100
AcDbCircle
 10
101.7298001376
 20
188.2837536759
 30
0.0
 40
3.0
100
AcDbArc
 50
0.0
 51
90.0
  0
LINE
  5
F9
330
3F
100
AcDbEntity
  8
MEGA_002111
  6
CONTINUOUS
 62
     7
 48
25.4
100
AcDbLine
 10
104.7298001376
 20
178.9309037776
 30
0.0
 11
104.7298001376
 21
188.2837536759
 31
0.0
  0
LINE
  5
FA
330
3F
100
AcDbEntity
  8
MEGA_002111
  6
CONTINUOUS
 62
     7
 48
25.4
100
AcDbLine
 10
101.7298001376
 20
191.2837536759
 30
0.0
 11
78.7298001376
 21
191.2837536759
 31
0.0
  0
LINE
  5
FB
330
3F
100
AcDbEntity
  8
MEGA_002111
  6
CONTINUOUS
 62
     7
 48
25.4
100
AcDbLine
 10
75.7298001376
 20
188.2837536759
 30
0.0
 11
75.7298001376
 21
178.9309037776
 31
0.0
  0
ARC
  5
FC
330
3F
100
AcDbEntity
  8
MEGA_002111
  6
CONTINUOUS
 62
     7
 48
25.4
100
AcDbCircle
 10
100.7298001376
 20
178.9309037776
 30
0.0
 40
4.0
100
AcDbArc
 50
243.938794645
 51
360.0
  0
SPLINE
  5
FD
330
3F
100
AcDbEntity
  8
MEGA_002111
  6
CONTINUOUS
 62
     7
 48
25.4
100
AcDbSpline
210
0.0
220
0.0
230
1.0
 70
     8
 71
     3
 72
    17
 73
    13
 74
     0
 42
0.0000000001
 43
0.0000000001
 40
0.0
 40
0.0
 40
0.0
 40
0.0
 40
0.1249999999999988
 40
0.1249999999999988
 40
0.1249999999999988
 40
0.2499999999999977
 40
0.2499999999999977
 40
0.2499999999999977
 40
0.4999999999999998
 40
0.4999999999999998
 40
0.4999999999999998
 40
1.0
 40
1.0
 40
1.0
 40
1.0
 10
100.5383053519375
 20
174.4349800963787
 30
0.0
 10
100.5219585511977
 20
174.5086966120226
 30
0.0
 10
100.4699896321579
 20
174.5658323102646
 30
0.0
 10
100.4128482240467
 20
174.6142517635992
 30
0.0
 10
100.3557068159356
 20
174.6626712169338
 30
0.0
 10
100.2906830300637
 20
174.7034673715644
 30
0.0
 10
100.2245093946676
 20
174.7411788589852
 30
0.0
 10
100.0921621238754
 20
174.816601833827
 30
0.0
 10
99.95230671738715
 20
174.8812152546589
 30
0.0
 10
99.81221366628613
 20
174.9457520842644
 30
0.0
 10
99.53202756408408
 20
175.0748257434756
 30
0.0
 10
99.24982388025822
 20
175.2019642637317
 30
0.0
 10
98.9724760588056
 20
175.3376027768308
 30
0.0
  0
ARC
  5
FE
330
3F
100
AcDbEntity
  8
MEGA_002111
  6
HIDDEN2
 62
     7
 48
25.4
100
AcDbCircle
 10
65.2298001376
 20
185.8888160695
 30
0.0
 40
1.0
100
AcDbArc
 50
0.0
 51
89.714
  0
ARC
  5
FF
330
3F
100
AcDbEntity
  8
MEGA_002111
  6
HIDDEN2
 62
     7
 48
25.4
100
AcDbCircle
 10
65.2298001376
 20
180.6786912824
 30
0.0
 40
1.0
100
AcDbArc
 50
270.286
 51
360.0
  0
LINE
  5
100
330
3F
100
AcDbEntity
  8
MEGA_002111
  6
CONTINUOUS
 62
     7
 48
25.4
100
AcDbLine
 10
106.7995638943
 20
114.0337536759
 30
0.0
 11
106.7995638943
 21
122.5337536759
 31
0.0
  0
LINE
  5
101
330
3F
100
AcDbEntity
  8
MEGA_002111
  6
CONTINUOUS
 62
     7
 48
25.4
100
AcDbLine
 10
80.1498001376
 20
128.2837536759
 30
0.0
 11
79.3498001376
 21
127.4837536759
 31
0.0
  0
ARC
  5
102
330
3F
100
AcDbEntity
  8
MEGA_002111
  6
HIDDEN2
 62
     7
 48
25.4
100
AcDbCircle
 10
56.7298001376
 20
179.1362432883
 30
0.0
 40
0.5
100
AcDbArc
 50
90.286
 51
180.0
  0
LINE
  5
103
330
3F
100
AcDbEntity
  8
MEGA_002111
  6
CONTINUOUS
 62
     7
 48
25.4
100
AcDbLine
 10
101.1098001376
 20
122.5337536759
 30
0.0
 11
101.1098001376
 21
127.4837536759
 31
0.0
  0
LINE
  5
104
330
3F
100
AcDbEntity
  8
MEGA_002111
  6
CONTINUOUS
 62
     7
 48
25.4
100
AcDbLine
 10
56.2298001376
 20
187.4312640635
 30
0.0
 11
56.2298001376
 21
188.2837536759
 31
0.0
  0
LINE
  5
105
330
3F
100
AcDbEntity
  8
MEGA_002111
  6
CONTINUOUS
 62
     7
 48
25.4
100
AcDbLine
 10
56.2298001376
 20
180.4912355319
 30
0.0
 11
56.2298001376
 21
186.0762718199
 31
0.0
  0
LINE
  5
106
330
3F
100
AcDbEntity
  8
MEGA_002111
  6
CONTINUOUS
 62
     7
 48
25.4
100
AcDbLine
 10
86.4185061484
 20
213.2837536759
 30
0.0
 11
94.0410941268
 21
213.2837536759
 31
0.0
  0
LINE
  5
107
330
3F
100
AcDbEntity
  8
MEGA_002111
  6
CONTINUOUS
 62
     7
 48
25.4
100
AcDbLine
 10
56.2298001376
 20
179.1362432883
 30
0.0
 11
56.2298001376
 21
178.2837536759
 31
0.0
  0
LINE
  5
108
330
3F
100
AcDbEntity
  8
MEGA_002111
  6
HIDDEN2
 62
     7
 48
25.4
100
AcDbLine
 10
56.7273043272
 20
179.6362370592
 30
0.0
 11
56.7718455177
 21
179.6364593947
 31
0.0
  0
LINE
  5
109
330
3F
100
AcDbEntity
  8
MEGA_002111
  6
CONTINUOUS
 62
     7
 48
25.4
100
AcDbLine
 10
96.2298001376
 20
213.2837536759
 30
0.0
 11
94.863808999
 21
213.2837536759
 31
0.0
  0
LINE
  5
10A
330
3F
100
AcDbEntity
  8
MEGA_002111
  6
CONTINUOUS
 62
     7
 48
25.4
100
AcDbLine
 10
84.2298001376
 20
213.2837536759
 30
0.0
 11
85.5957912762
 21
213.2837536759
 31
0.0
  0
ARC
  5
10B
330
3F
100
AcDbEntity
  8
MEGA_002111
  6
HIDDEN2
 62
     7
 48
25.4
100
AcDbCircle
 10
93.3348625312
 20
204.2837536759
 30
0.0
 40
1.0
100
AcDbArc
 50
270.0
 51
359.714
  0
ARC
  5
10C
330
3F
100
AcDbEntity
  8
MEGA_002111
  6
CONTINUOUS
 62
     7
 48
25.4
100
AcDbCircle
 10
101.2298001376
 20
188.2837536759
 30
0.0
 40
10.0
100
AcDbArc
 50
9.8116099019
 51
90.0
  0
LINE
  5
10D
330
3F
100
AcDbEntity
  8
MEGA_002111
  6
HIDDEN2
 62
     7
 48
25.4
100
AcDbLine
 10
56.7718455177
 20
186.9310479571
 30
0.0
 11
56.7273043272
 21
186.9312702926
 31
0.0
  0
ARC
  5
10E
330
3F
100
AcDbEntity
  8
MEGA_002111
  6
HIDDEN2
 62
     7
 48
25.4
100
AcDbCircle
 10
115.2298001376
 20
181.1786912824
 30
0.0
 40
1.0
100
AcDbArc
 50
180.0
 51
269.714
  0
LINE
  5
10F
330
3F
100
AcDbEntity
  8
MEGA_002111
  6
HIDDEN2
 62
     7
 48
25.4
100
AcDbLine
 10
114.4298001376
 20
182.7358082241
 30
0.0
 11
114.2298001376
 21
182.7358082241
 31
0.0
  0
LINE
  5
110
330
3F
100
AcDbEntity
  8
MEGA_002111
  6
HIDDEN2
 62
     7
 48
25.4
100
AcDbLine
 10
114.4298001376
 20
182.8799004431
 30
0.0
 11
114.2298001376
 21
182.8799004431
 31
0.0
  0
LINE
  5
111
330
3F
100
AcDbEntity
  8
MEGA_002111
  6
CONTINUOUS
 62
     7
 48
25.4
100
AcDbLine
 10
101.1098001376
 20
109.0837536759
 30
0.0
 11
101.1098001376
 21
114.0337536759
 31
0.0
  0
ENDBLK
  5
113
330
3F
100
AcDbEntity
  8
0
100
AcDbBlockEnd
  0
BLOCK
  5
14F
330
114
100
AcDbEntity
  8
0
100
AcDbBlockBegin
  2
SE4
 70
     0
 71
     0
 10
0.0
 20
0.0
 30
0.0
  3
SE4
  1

  0
LINE
  5
116
330
114
100
AcDbEntity
  8
MEGA_002111
  6
CONTINUOUS
 62
     7
 48
25.4
100
AcDbLine
 10
110.0981606344
 20
262.3223592475
 30
0.0
 11
110.4852047295
 21
262.3223592475
 31
0.0
  0
LINE
  5
117
330
114
100
AcDbEntity
  8
MEGA_002111
  6
CONTINUOUS
 62
     7
 48
25.4
100
AcDbLine
 10
70.0936944569
 20
262.3223592475
 30
0.0
 11
70.4385382875
 21
262.3223592475
 31
0.0
  0
LINE
  5
118
330
114
100
AcDbEntity
  8
MEGA_002111
  6
CONTINUOUS
 62
     7
 48
25.4
100
AcDbLine
 10
106.6959685477
 20
262.3223592475
 30
0.0
 11
110.0981606344
 21
262.3223592475
 31
0.0
  0
LINE
  5
119
330
114
100
AcDbEntity
  8
MEGA_002111
  6
CONTINUOUS
 62
     7
 48
25.4
100
AcDbLine
 10
110.4852047295
 20
258.8223592475
 30
0.0
 11
110.0981606344
 21
258.8223592475
 31
0.0
  0
LINE
  5
11A
330
114
100
AcDbEntity
  8
MEGA_002111
  6
CONTINUOUS
 62
     7
 48
25.4
100
AcDbLine
 10
110.0981606344
 20
258.8223592475
 30
0.0
 11
106.6959685477
 21
258.8223592475
 31
0.0
  0
ARC
  5
11B
330
114
100
AcDbEntity
  8
MEGA_002111
  6
CONTINUOUS
 62
     7
 48
25.4
100
AcDbCircle
 10
107.2298001376
 20
253.8223592475
 30
0.0
 40
5.0
100
AcDbArc
 50
57.5382550328
 51
90.0
  0
ARC
  5
11C
330
114
100
AcDbEntity
  8
MEGA_002111
  6
CONTINUOUS
 62
     7
 48
25.4
100
AcDbCircle
 10
73.2298001376
 20
267.3223592475
 30
0.0
 40
5.0
100
AcDbArc
 50
236.7763748076
 51
270.0
  0
ARC
  5
11D
330
114
100
AcDbEntity
  8
MEGA_002111
  6
CONTINUOUS
 62
     7
 48
25.4
100
AcDbCircle
 10
73.2298001376
 20
253.8223592475
 30
0.0
 40
5.0
100
AcDbArc
 50
123.2236251924
 51
163.0422362198
  0
ARC
  5
11E
330
114
100
AcDbEntity
  8
MEGA_002111
  6
CONTINUOUS
 62
     7
 48
25.4
100
AcDbCircle
 10
73.2298001376
 20
253.8223592475
 30
0.0
 40
5.0
100
AcDbArc
 50
90.0
 51
123.2236251924
  0
ARC
  5
11F
330
114
100
AcDbEntity
  8
MEGA_002111
  6
CONTINUOUS
 62
     7
 48
25.4
100
AcDbCircle
 10
123.7298001376
 20
256.9248488599
 30
0.0
 40
0.5
100
AcDbArc
 50
0.0
 51
89.714
  0
ELLIPSE
  5
120
330
114
100
AcDbEntity
  8
MEGA_002111
  6
CONTINUOUS
 62
     7
 48
25.4
100
AcDbEllipse
 10
56.7743413282
 20
263.7196597578
 30
0.0
 11
0.4823096993745793
 21
-0.1318231917729227
 31
0.0
210
0.0
220
0.0
230
1.0
 40
0.0013160381
 41
3.144887339712849
 42
3.168720554402443
  0
LINE
  5
121
330
114
100
AcDbEntity
  8
MEGA_002111
  6
CONTINUOUS
 62
     7
 48
25.4
100
AcDbLine
 10
124.2298001376
 20
265.0723592475
 30
0.0
 11
124.2298001376
 21
264.2198696351
 31
0.0
  0
LINE
  5
122
330
114
100
AcDbEntity
  8
MEGA_002111
  6
CONTINUOUS
 62
     7
 48
25.4
100
AcDbLine
 10
124.2298001376
 20
256.0723592475
 30
0.0
 11
124.2298001376
 21
256.9248488599
 31
0.0
  0
LINE
  5
123
330
114
100
AcDbEntity
  8
MEGA_002111
  6
CONTINUOUS
 62
     7
 48
25.4
100
AcDbLine
 10
124.2298001376
 20
263.2078227688
 30
0.0
 11
124.2298001376
 21
257.9368957262
 31
0.0
  0
ARC
  5
124
330
114
100
AcDbEntity
  8
MEGA_002111
  6
CONTINUOUS
 62
     7
 48
25.4
100
AcDbCircle
 10
112.7889469984
 20
265.0744007475
 30
0.0
 40
0.9963877958999775
100
AcDbArc
 50
89.8547434238
 51
158.3848161086
  0
LINE
  5
125
330
114
100
AcDbEntity
  8
MEGA_002111
  6
CONTINUOUS
 62
     7
 48
25.4
100
AcDbLine
 10
123.2298001376
 20
266.0723592475
 30
0.0
 11
112.7914617928
 21
266.0723592475
 31
0.0
  0
CIRCLE
  5
126
330
114
100
AcDbEntity
  8
MEGA_002111
  6
CONTINUOUS
 62
     7
 48
25.4
100
AcDbCircle
 10
90.2298001376
 20
260.5723592475
 30
0.0
 40
10.08000000000004
  0
CIRCLE
  5
127
330
114
100
AcDbEntity
  8
MEGA_002111
  6
CONTINUOUS
 62
     7
 48
25.4
100
AcDbCircle
 10
90.2298001376
 20
260.5723592475
 30
0.0
 40
10.88
  0
ARC
  5
128
330
114
100
AcDbEntity
  8
MEGA_002111
  6
CONTINUOUS
 62
     7
 48
25.4
100
AcDbCircle
 10
112.7907021005
 20
256.0712913715
 30
0.0
 40
0.9983750902999873
100
AcDbArc
 50
201.6300398118
 51
270.0389319031
  0
ARC
  5
129
330
114
100
AcDbEntity
  8
MEGA_002111
  6
CONTINUOUS
 62
     7
 48
25.4
100
AcDbCircle
 10
67.490679996
 20
255.5723592476
 30
0.0
 40
1.0
100
AcDbArc
 50
270.0320867192
 51
343.4543672906
  0
LINE
  5
12A
330
114
100
AcDbEntity
  8
MEGA_002111
  6
CONTINUOUS
 62
     7
 48
25.4
100
AcDbLine
 10
57.2298001376
 20
254.5723592475
 30
0.0
 11
67.4909588988
 21
254.5723592475
 31
0.0
  0
LINE
  5
12B
330
114
100
AcDbEntity
  8
MEGA_002111
  6
CONTINUOUS
 62
     7
 48
25.4
100
AcDbLine
 10
90.2298001376
 20
262.3044100551
 30
0.0
 11
88.7298001376
 21
261.4383846513
 31
0.0
  0
LINE
  5
12C
330
114
100
AcDbEntity
  8
MEGA_002111
  6
CONTINUOUS
 62
     7
 48
25.4
100
AcDbLine
 10
91.7298001376
 20
259.7063338437
 30
0.0
 11
91.7298001376
 21
261.4383846513
 31
0.0
  0
LINE
  5
12D
330
114
100
AcDbEntity
  8
MEGA_002111
  6
CONTINUOUS
 62
     7
 48
25.4
100
AcDbLine
 10
91.7298001376
 20
261.4383846513
 30
0.0
 11
90.2298001376
 21
262.3044100551
 31
0.0
  0
LINE
  5
12E
330
114
100
AcDbEntity
  8
MEGA_002111
  6
CONTINUOUS
 62
     7
 48
25.4
100
AcDbLine
 10
88.7298001376
 20
261.4383846513
 30
0.0
 11
88.7298001376
 21
259.7063338437
 31
0.0
  0
LINE
  5
12F
330
114
100
AcDbEntity
  8
MEGA_002111
  6
CONTINUOUS
 62
     7
 48
25.4
100
AcDbLine
 10
88.7298001376
 20
259.7063338437
 30
0.0
 11
90.2298001376
 21
258.8403084399
 31
0.0
  0
LINE
  5
130
330
114
100
AcDbEntity
  8
MEGA_002111
  6
CONTINUOUS
 62
     7
 48
25.4
100
AcDbLine
 10
90.2298001376
 20
258.8403084399
 30
0.0
 11
91.7298001376
 21
259.7063338437
 31
0.0
  0
ARC
  5
131
330
114
100
AcDbEntity
  8
MEGA_002111
  6
CONTINUOUS
 62
     7
 48
25.4
100
AcDbCircle
 10
123.2298001376
 20
265.0723592475
 30
0.0
 40
1.0
100
AcDbArc
 50
0.0
 51
90.0
  0
SPLINE
  5
132
330
114
100
AcDbEntity
  8
MEGA_002111
  6
CONTINUOUS
 62
     7
 48
25.4
100
AcDbSpline
210
0.0
220
0.0
230
1.0
 70
     8
 71
     3
 72
    44
 73
    40
 74
     0
 42
0.0000000001
 43
0.0000000001
 40
0.0
 40
0.0
 40
0.0
 40
0.0
 40
0.0124640557998033
 40
0.0124640557998033
 40
0.0124640557998033
 40
0.1308404684109573
 40
0.1308404684109573
 40
0.1308404684109573
 40
0.2458101687815895
 40
0.2458101687815895
 40
0.2458101687815895
 40
0.3552865172851228
 40
0.3552865172851228
 40
0.3552865172851228
 40
0.4443384740950838
 40
0.4443384740950838
 40
0.4443384740950838
 40
0.5312524324898008
 40
0.5312524324898008
 40
0.5312524324898008
 40
0.6130415055891285
 40
0.6130415055891285
 40
0.6130415055891285
 40
0.6770929459495838
 40
0.6770929459495838
 40
0.6770929459495838
 40
0.7434881082572818
 40
0.7434881082572818
 40
0.7434881082572818
 40
0.8136292991411018
 40
0.8136292991411018
 40
0.8136292991411018
 40
0.8874276275466353
 40
0.8874276275466353
 40
0.8874276275466353
 40
0.9680202740638461
 40
0.9680202740638461
 40
0.9680202740638461
 40
0.9999999999999999
 40
0.9999999999999999
 40
0.9999999999999999
 40
0.9999999999999999
 10
124.2293021103963
 20
263.2240171092574
 30
0.0
 10
124.2294183571896
 20
263.2291481894799
 30
0.0
 10
124.2295172019168
 20
263.2335610613888
 30
0.0
 10
124.2295759568225
 20
263.2380132533829
 30
0.0
 10
124.230133977026
 20
263.2802976048802
 30
0.0
 10
124.2270758533388
 20
263.3261286692486
 30
0.0
 10
124.2235551703941
 20
263.3707148270765
 30
0.0
 10
124.2201358079186
 20
263.4140178558902
 30
0.0
 10
124.2162801267426
 20
263.4561466005551
 30
0.0
 10
124.2117247177562
 20
263.4979733330796
 30
0.0
 10
124.2073869701568
 20
263.537801548095
 30
0.0
 10
124.2024147644623
 20
263.5773559222762
 30
0.0
 10
124.1974109909693
 20
263.6159664230293
 30
0.0
 10
124.1933407435864
 20
263.6473735780219
 30
0.0
 10
124.1892496085033
 20
263.6781561932615
 30
0.0
 10
124.1854676691153
 20
263.7078087750217
 30
0.0
 10
124.1817765281857
 20
263.7367494446007
 30
0.0
 10
124.1783799145617
 20
263.7646136900216
 30
0.0
 10
124.1755445124449
 20
263.7909931612653
 30
0.0
 10
124.1728762999358
 20
263.8158171658524
 30
0.0
 10
124.1707050664756
 20
263.8393263334326
 30
0.0
 10
124.1691596891329
 20
263.8608379364886
 30
0.0
 10
124.1679494584634
 20
263.8776843086015
 30
0.0
 10
124.1671230602804
 20
263.8933055905746
 30
0.0
 10
124.1667115217021
 20
263.9067230849391
 30
0.0
 10
124.1662849244149
 20
263.9206315421273
 30
0.0
 10
124.1663041026547
 20
263.9321719823488
 30
0.0
 10
124.1666162855727
 20
263.942463601909
 30
0.0
 10
124.1669460819147
 20
263.9533358767403
 30
0.0
 10
124.1676028784058
 20
263.9628144381831
 30
0.0
 10
124.1683029965298
 20
263.9700947523554
 30
0.0
 10
124.1690396185715
 20
263.9777546595998
 30
0.0
 10
124.1698241975675
 20
263.9829811118322
 30
0.0
 10
124.1704502301155
 20
263.9865564013517
 30
0.0
 10
124.1711338989862
 20
263.9904608535344
 30
0.0
 10
124.1716284840653
 20
263.9923961155527
 30
0.0
 10
124.1719067649176
 20
263.9933469956598
 30
0.0
 10
124.1720171887066
 20
263.9937243115383
 30
0.0
 10
124.1720935541422
 20
263.9939466307836
 30
0.0
 10
124.1721037948071
 20
263.9939642703257
 30
0.0
  0
SPLINE
  5
133
330
114
100
AcDbEntity
  8
MEGA_002111
  6
CONTINUOUS
 62
     7
 48
25.4
100
AcDbSpline
210
0.0
220
0.0
230
1.0
 70
     8
 71
     3
 72
    44
 73
    40
 74
     0
 42
0.0000000001
 43
0.0000000001
 40
0.0
 40
0.0
 40
0.0
 40
0.0
 40
0.0057846394658893
 40
0.0057846394658893
 40
0.0057846394658893
 40
0.0856473560772182
 40
0.0856473560772182
 40
0.0856473560772182
 40
0.1685372104105238
 40
0.1685372104105238
 40
0.1685372104105238
 40
0.2482955395819156
 40
0.2482955395819156
 40
0.2482955395819156
 40
0.3130610335281285
 40
0.3130610335281285
 40
0.3130610335281285
 40
0.3827268404819171
 40
0.3827268404819171
 40
0.3827268404819171
 40
0.4577061405634334
 40
0.4577061405634334
 40
0.4577061405634334
 40
0.5446428302814569
 40
0.5446428302814569
 40
0.5446428302814569
 40
0.6346174051796369
 40
0.6346174051796369
 40
0.6346174051796369
 40
0.7393090750452684
 40
0.7393090750452684
 40
0.7393090750452684
 40
0.8583094871723023
 40
0.8583094871723023
 40
0.8583094871723023
 40
0.9882203091345981
 40
0.9882203091345981
 40
0.9882203091345981
 40
1.0
 40
1.0
 40
1.0
 40
1.0
 10
124.1719030806719
 20
257.1512502744582
 30
0.0
 10
124.1719047051398
 20
257.1512387231281
 30
0.0
 10
124.171905125589
 20
257.1512307582642
 30
0.0
 10
124.1719044508864
 20
257.1512261965473
 30
0.0
 10
124.1718951359443
 20
257.151163217497
 30
0.0
 10
124.1716770789718
 20
257.1517488972082
 30
0.0
 10
124.171064242977
 20
257.1551732508502
 30
0.0
 10
124.170428177883
 20
257.1587274021066
 30
0.0
 10
124.1693668389557
 20
257.1653395014201
 30
0.0
 10
124.1684619567596
 20
257.1740126782974
 30
0.0
 10
124.1675912604283
 20
257.1823581881539
 30
0.0
 10
124.1668654224673
 20
257.1926119849497
 30
0.0
 10
124.1665549149953
 20
257.204949529633
 30
0.0
 10
124.1663027761905
 20
257.2149678836256
 30
0.0
 10
124.1663244976876
 20
257.2263602177151
 30
0.0
 10
124.1667507900149
 20
257.2398927282029
 30
0.0
 10
124.1672093366448
 20
257.2544491409745
 30
0.0
 10
124.1681359917956
 20
257.2714818440104
 30
0.0
 10
124.1695023138138
 20
257.2897392913831
 30
0.0
 10
124.1709728468211
 20
257.3093892557649
 30
0.0
 10
124.172952672186
 20
257.3304579145652
 30
0.0
 10
124.1753791562161
 20
257.3528222856052
 30
0.0
 10
124.1781926059148
 20
257.3787532343301
 30
0.0
 10
124.1816065365146
 20
257.4064261182593
 30
0.0
 10
124.1852573358127
 20
257.4350211236809
 30
0.0
 10
124.1890357073604
 20
257.4646153429382
 30
0.0
 10
124.1930677909502
 20
257.4951972542318
 30
0.0
 10
124.1971041421145
 20
257.5264278129138
 30
0.0
 10
124.2018007171639
 20
257.5627667380265
 30
0.0
 10
124.2065030700564
 20
257.5999838629132
 30
0.0
 10
124.2106721812337
 20
257.6374746550775
 30
0.0
 10
124.215411106011
 20
257.6800895042268
 30
0.0
 10
124.2194610663693
 20
257.7230579397735
 30
0.0
 10
124.223073077939
 20
257.767227882128
 30
0.0
 10
124.2270162524504
 20
257.8154474925879
 30
0.0
 10
124.2304374911938
 20
257.8650990270414
 30
0.0
 10
124.229634296618
 20
257.9108285530435
 30
0.0
 10
124.2295614667824
 20
257.9149750873475
 30
0.0
 10
124.2294539036837
 20
257.9190893749238
 30
0.0
 10
124.2293278055308
 20
257.9238706287181
 30
0.0
  0
ARC
  5
134
330
114
100
AcDbEntity
  8
MEGA_002111
  6
CONTINUOUS
 62
     7
 48
25.4
100
AcDbCircle
 10
58.0046206003
 20
257.7595538791
 30
0.0
 40
1.774338452200027
100
AcDbArc
 50
179.3595373824
 51
195.226051441
  0
ARC
  5
135
330
114
100
AcDbEntity
  8
MEGA_002111
  6
CONTINUOUS
 62
     7
 48
25.4
100
AcDbCircle
 10
57.2298001376
 20
265.5723592475
 30
0.0
 40
1.0
100
AcDbArc
 50
90.0
 51
180.0
  0
LINE
  5
136
330
114
100
AcDbEntity
  8
MEGA_002111
  6
CONTINUOUS
 62
     7
 48
25.4
100
AcDbLine
 10
112.7914617928
 20
255.0723592475
 30
0.0
 11
123.2298001376
 21
255.0723592475
 31
0.0
  0
LINE
  5
137
330
114
100
AcDbEntity
  8
MEGA_002111
  6
CONTINUOUS
 62
     7
 48
25.4
100
AcDbLine
 10
67.4909588988
 20
266.5723592475
 30
0.0
 11
57.2298001376
 21
266.5723592475
 31
0.0
  0
ARC
  5
138
330
114
100
AcDbEntity
  8
MEGA_002111
  6
CONTINUOUS
 62
     7
 48
25.4
100
AcDbCircle
 10
105.3039348333
 20
262.1723592475
 30
0.0
 40
1.399999999999977
100
AcDbArc
 50
6.8407891092
 51
116.0717614769
  0
LINE
  5
139
330
114
100
AcDbEntity
  8
MEGA_002111
  6
CONTINUOUS
 62
     7
 48
25.4
100
AcDbLine
 10
104.6886397068
 20
257.7148172373
 30
0.0
 11
103.3519300283
 21
258.3688478335
 31
0.0
  0
ARC
  5
13A
330
114
100
AcDbEntity
  8
MEGA_002111
  6
CONTINUOUS
 62
     7
 48
25.4
100
AcDbCircle
 10
105.3039348333
 20
258.9723592475
 30
0.0
 40
1.399999999999977
100
AcDbArc
 50
243.9282385231
 51
353.1592108908
  0
ARC
  5
13B
330
114
100
AcDbEntity
  8
MEGA_002111
  6
CONTINUOUS
 62
     7
 48
25.4
100
AcDbCircle
 10
91.966696891
 20
260.5723592475
 30
0.0
 40
14.83286700330001
100
AcDbArc
 50
353.1592108908
 51
6.8407891092
  0
ARC
  5
13C
330
114
100
AcDbEntity
  8
MEGA_002111
  6
CONTINUOUS
 62
     7
 48
25.4
100
AcDbCircle
 10
102.4729369906
 20
264.5723592475
 30
0.0
 40
2.0
100
AcDbArc
 50
198.0929220208
 51
296.0717614769
  0
LINE
  5
13D
330
114
100
AcDbEntity
  8
MEGA_002111
  6
CONTINUOUS
 62
     7
 48
25.4
100
AcDbLine
 10
103.3519300283
 20
262.7758706615
 30
0.0
 11
104.6886397068
 21
263.4299012577
 31
0.0
  0
ARC
  5
13E
330
114
100
AcDbEntity
  8
MEGA_002111
  6
CONTINUOUS
 62
     7
 48
25.4
100
AcDbCircle
 10
102.4729369906
 20
256.5723592475
 30
0.0
 40
2.0
100
AcDbArc
 50
63.9282385231
 51
161.9070779792
  0
ARC
  5
13F
330
114
100
AcDbEntity
  8
MEGA_002111
  6
CONTINUOUS
 62
     7
 48
25.4
100
AcDbCircle
 10
123.2298001376
 20
256.0723592475
 30
0.0
 40
1.0
100
AcDbArc
 50
270.0
 51
360.0
  0
ARC
  5
140
330
114
100
AcDbEntity
  8
MEGA_002111
  6
CONTINUOUS
 62
     7
 48
25.4
100
AcDbCircle
 10
57.2298001376
 20
255.5723592475
 30
0.0
 40
1.0
100
AcDbArc
 50
180.0
 51
270.0
  0
SPLINE
  5
141
330
114
100
AcDbEntity
  8
MEGA_002111
  6
CONTINUOUS
 62
     7
 48
25.4
100
AcDbSpline
210
0.0
220
0.0
230
1.0
 70
     8
 71
     3
 72
    32
 73
    28
 74
     0
 42
0.0000000001
 43
0.0000000001
 40
0.0
 40
0.0
 40
0.0
 40
0.0
 40
0.1211369976415138
 40
0.1211369976415138
 40
0.1211369976415138
 40
0.314353109299801
 40
0.314353109299801
 40
0.314353109299801
 40
0.5051563416154394
 40
0.5051563416154394
 40
0.5051563416154394
 40
0.6561443996370022
 40
0.6561443996370022
 40
0.6561443996370022
 40
0.7796316737280817
 40
0.7796316737280817
 40
0.7796316737280817
 40
0.8575486058525933
 40
0.8575486058525933
 40
0.8575486058525933
 40
0.9237236854720096
 40
0.9237236854720096
 40
0.9237236854720096
 40
0.9736960443884464
 40
0.9736960443884464
 40
0.9736960443884464
 40
0.9999999999999999
 40
0.9999999999999999
 40
0.9999999999999999
 40
0.9999999999999999
 10
56.29298354359885
 20
257.2934579014462
 30
0.0
 10
56.30132790952519
 20
257.2626073757082
 30
0.0
 10
56.30845844114618
 20
257.2364424643479
 30
0.0
 10
56.31661725726966
 20
257.209567934168
 30
0.0
 10
56.32963074413
 20
257.1667024816219
 30
0.0
 10
56.345260282888
 20
257.122031692464
 30
0.0
 10
56.36133519754527
 20
257.0786024057234
 30
0.0
 10
56.37720936895618
 20
257.0357154631379
 30
0.0
 10
56.39351786203012
 20
256.9940392088617
 30
0.0
 10
56.41021041128897
 20
256.952977716018
 30
0.0
 10
56.42341970321474
 20
256.9204845816581
 30
0.0
 10
56.43686949150018
 20
256.8883764115101
 30
0.0
 10
56.44983504167244
 20
256.8572141233523
 30
0.0
 10
56.46043906207543
 20
256.831727697012
 30
0.0
 10
56.47071917708624
 20
256.8068739682407
 30
0.0
 10
56.48040887737326
 20
256.7826722145684
 30
0.0
 10
56.48652280065103
 20
256.7674016013652
 30
0.0
 10
56.49240166515812
 20
256.7523905556476
 30
0.0
 10
56.49738803565113
 20
256.7389268818154
 30
0.0
 10
56.50162297477657
 20
256.7274921440309
 30
0.0
 10
56.5052141441485
 20
256.7171735495497
 30
0.0
 10
56.50779605078338
 20
256.7089246027143
 30
0.0
 10
56.50974578723695
 20
256.7026953796547
 30
0.0
 10
56.51111998437614
 20
256.6976463880088
 30
0.0
 10
56.51176699252647
 20
256.6950122084087
 30
0.0
 10
56.51210755827191
 20
256.6936256550264
 30
0.0
 10
56.51224664504873
 20
256.6929081627108
 30
0.0
 10
56.51224535788574
 20
256.6929161708069
 30
0.0
  0
ARC
  5
142
330
114
100
AcDbEntity
  8
MEGA_002111
  6
CONTINUOUS
 62
     7
 48
25.4
100
AcDbCircle
 10
57.9159662806
 20
263.3978967665
 30
0.0
 40
1.684945052300009
100
AcDbArc
 50
164.3957838628
 51
181.1223790519
  0
SPLINE
  5
143
330
114
100
AcDbEntity
  8
MEGA_002111
  6
CONTINUOUS
 62
     7
 48
25.4
100
AcDbSpline
210
0.0
220
0.0
230
1.0
 70
     8
 71
     3
 72
    35
 73
    31
 74
     0
 42
0.0000000001
 43
0.0000000001
 40
0.0
 40
0.0
 40
0.0
 40
0.0
 40
0.0076754420245522
 40
0.0076754420245522
 40
0.0076754420245522
 40
0.0407224638790191
 40
0.0407224638790191
 40
0.0407224638790191
 40
0.0752441234054095
 40
0.0752441234054095
 40
0.0752441234054095
 40
0.1423421134250174
 40
0.1423421134250174
 40
0.1423421134250174
 40
0.225958552476725
 40
0.225958552476725
 40
0.225958552476725
 40
0.335448132518096
 40
0.335448132518096
 40
0.335448132518096
 40
0.4755792802874941
 40
0.4755792802874941
 40
0.4755792802874941
 40
0.646205341050535
 40
0.646205341050535
 40
0.646205341050535
 40
0.8516492871096101
 40
0.8516492871096101
 40
0.8516492871096101
 40
1.0
 40
1.0
 40
1.0
 40
1.0
 10
56.51229819702358
 20
264.4509524588841
 30
0.0
 10
56.51228854703849
 20
264.4509133759196
 30
0.0
 10
56.51226439622475
 20
264.4508096542139
 30
0.0
 10
56.51222318809196
 20
264.4506372229222
 30
0.0
 10
56.5120457642953
 20
264.4498948108701
 30
0.0
 10
56.51155213556797
 20
264.4478786752173
 30
0.0
 10
56.51071108754297
 20
264.4448678984555
 30
0.0
 10
56.50983250993036
 20
264.4417227735865
 30
0.0
 10
56.50857481588212
 20
264.4374922605581
 30
0.0
 10
56.50708520641318
 20
264.4328197337484
 30
0.0
 10
56.50418992841505
 20
264.4237379815518
 30
0.0
 10
56.50041852693894
 20
264.4129864022687
 30
0.0
 10
56.49610751681689
 20
264.4014256287632
 30
0.0
 10
56.49073520514225
 20
264.3870187782312
 30
0.0
 10
56.4845248950181
 20
264.3713552697326
 30
0.0
 10
56.47793068549834
 20
264.3551933050468
 30
0.0
 10
56.46929605289247
 20
264.3340304004054
 30
0.0
 10
56.46000318725636
 20
264.3120128439195
 30
0.0
 10
56.45054556854529
 20
264.2895233562709
 30
0.0
 10
56.43844115674052
 20
264.2607399988431
 30
0.0
 10
56.42606687325885
 20
264.2311836005831
 30
0.0
 10
56.41391956365199
 20
264.2013312438027
 30
0.0
 10
56.3991287935764
 20
264.1649825081858
 30
0.0
 10
56.38467453293317
 20
264.1281949871191
 30
0.0
 10
56.3704190726102
 20
264.0904337662652
 30
0.0
 10
56.35325464879032
 20
264.0449670058799
 30
0.0
 10
56.33637843762618
 20
263.9980886149641
 30
0.0
 10
56.32228520234978
 20
263.9529401733644
 30
0.0
 10
56.31210850189072
 20
263.9203385629218
 30
0.0
 10
56.30338291707027
 20
263.8886389928157
 30
0.0
 10
56.29314867522667
 20
263.8512036752658
 30
0.0
  0
ARC
  5
144
330
114
100
AcDbEntity
  8
MEGA_002111
  6
CONTINUOUS
 62
     7
 48
25.4
100
AcDbCircle
 10
107.2298001376
 20
267.3223592475
 30
0.0
 40
5.0
100
AcDbArc
 50
302.4617449672
 51
337.9756865239
  0
ARC
  5
145
330
114
100
AcDbEntity
  8
MEGA_002111
  6
CONTINUOUS
 62
     7
 48
25.4
100
AcDbCircle
 10
107.2298001376
 20
267.3223592475
 30
0.0
 40
5.0
100
AcDbArc
 50
270.0
 51
302.4617449672
  0
LINE
  5
146
330
114
100
AcDbEntity
  8
MEGA_002111
  6
CONTINUOUS
 62
     7
 48
25.4
100
AcDbLine
 10
70.4385382875
 20
258.8223592475
 30
0.0
 11
70.0936944569
 21
258.8223592475
 31
0.0
  0
LINE
  5
147
330
114
100
AcDbEntity
  8
MEGA_002111
  6
CONTINUOUS
 62
     7
 48
25.4
100
AcDbLine
 10
79.2298001376
 20
258.8223592475
 30
0.0
 11
70.4385382875
 21
258.8223592475
 31
0.0
  0
LINE
  5
148
330
114
100
AcDbEntity
  8
MEGA_002111
  6
CONTINUOUS
 62
     7
 48
25.4
100
AcDbLine
 10
79.4914622774
 20
258.8223592475
 30
0.0
 11
79.2298001376
 21
258.8223592475
 31
0.0
  0
LINE
  5
149
330
114
100
AcDbEntity
  8
MEGA_002111
  6
CONTINUOUS
 62
     7
 48
25.4
100
AcDbLine
 10
79.2298001376
 20
262.3223592475
 30
0.0
 11
79.4914622774
 21
262.3223592475
 31
0.0
  0
LINE
  5
14A
330
114
100
AcDbEntity
  8
MEGA_002111
  6
CONTINUOUS
 62
     7
 48
25.4
100
AcDbLine
 10
70.4385382875
 20
262.3223592475
 30
0.0
 11
79.2298001376
 21
262.3223592475
 31
0.0
  0
ARC
  5
14B
330
114
100
AcDbEntity
  8
MEGA_002111
  6
CONTINUOUS
 62
     7
 48
25.4
100
AcDbCircle
 10
56.7298001376
 20
264.7198696351
 30
0.0
 40
0.5
100
AcDbArc
 50
180.0
 51
269.714
  0
LINE
  5
14C
330
114
100
AcDbEntity
  8
MEGA_002111
  6
CONTINUOUS
 62
     7
 48
25.4
100
AcDbLine
 10
56.2298001376
 20
265.5723592475
 30
0.0
 11
56.2298001376
 21
264.7198696351
 31
0.0
  0
LINE
  5
14D
330
114
100
AcDbEntity
  8
MEGA_002111
  6
CONTINUOUS
 62
     7
 48
25.4
100
AcDbLine
 10
56.2298001376
 20
257.7798411035
 30
0.0
 11
56.2298001376
 21
263.3648773915
 31
0.0
  0
LINE
  5
14E
330
114
100
AcDbEntity
  8
MEGA_002111
  6
CONTINUOUS
 62
     7
 48
25.4
100
AcDbLine
 10
56.2298001376
 20
256.4248488599
 30
0.0
 11
56.2298001376
 21
255.5723592475
 31
0.0
  0
ENDBLK
  5
150
330
114
100
AcDbEntity
  8
0
100
AcDbBlockEnd
  0
BLOCK
  5
15B
330
151
100
AcDbEntity
  8
0
100
AcDbBlockBegin
  2
SE5
 70
     0
 71
     0
 10
0.0
 20
0.0
 30
0.0
  3
SE5
  1

  0
POLYLINE
  5
153
330
151
100
AcDbEntity
  8
STANDARD
  6
CONTINUOUS
 62
     7
 48
25.4
100
AcDb2dPolyline
 66
     1
 10
0.0
 20
0.0
 30
0.0
 70
     1
  0
VERTEX
  5
203
330
153
100
AcDbEntity
  8
STANDARD
  6
CONTINUOUS
 62
     7
100
AcDbVertex
100
AcDb2dVertex
 10
98.1098001116
 20
45.1568120383
 30
0.0
  0
VERTEX
  5
204
330
153
100
AcDbEntity
  8
STANDARD
  6
CONTINUOUS
 62
     7
100
AcDbVertex
100
AcDb2dVertex
 10
101.1098001377
 20
45.6568120426
 30
0.0
  0
VERTEX
  5
205
330
153
100
AcDbEntity
  8
STANDARD
  6
CONTINUOUS
 62
     7
100
AcDbVertex
100
AcDb2dVertex
 10
98.1098001116
 20
46.156812047
 30
0.0
  0
VERTEX
  5
206
330
153
100
AcDbEntity
  8
STANDARD
  6
CONTINUOUS
 62
     7
100
AcDbVertex
100
AcDb2dVertex
 10
98.1098001116
 20
45.1568120383
 30
0.0
  0
SEQEND
  5
202
330
153
100
AcDbEntity
  8
STANDARD
  6
CONTINUOUS
 62
     7
 48
25.4
  0
LINE
  5
154
330
151
100
AcDbEntity
  8
STANDARD
  6
CONTINUOUS
 62
     7
 48
25.4
100
AcDbLine
 10
79.3498001376
 20
109.0837536759
 30
0.0
 11
79.3498001376
 21
44.1568120297
 31
0.0
  0
LINE
  5
155
330
151
100
AcDbEntity
  8
STANDARD
  6
CONTINUOUS
 62
     7
 48
25.4
100
AcDbLine
 10
101.1098001376
 20
111.5587536759
 30
0.0
 11
101.1098001376
 21
44.1568120297
 31
0.0
  0
LINE
  5
156
330
151
100
AcDbEntity
  8
STANDARD
  6
CONTINUOUS
 62
     7
 48
25.4
100
AcDbLine
 10
79.3498001376
 20
45.6568120427
 30
0.0
 11
101.1098000536
 21
45.6568120427
 31
0.0
  0
TEXT
  5
158
330
151
100
AcDbEntity
  8
STANDARD
  6
CONTINUOUS
 62
     7
 48
25.4
100
AcDbText
 10
88.3682875906
 20
46.4068120427
 30
0.0
 40
3.0
  1
21,76
  7
SEACAD_SEISO_TTF
 11
88.3682875906
 21
49.4068120427
 31
0.0
100
AcDbText
 73
     3
  0
TEXT
  5
15A
330
151
100
AcDbEntity
  8
STANDARD
  6
CONTINUOUS
 62
     7
 48
25.4
100
AcDbText
 10
84.7276762369
 20
46.4068120427
 30
0.0
 40
3.0
  1
O
  7
SEACAD_SEMECI1_TTF
 11
84.7276762369
 21
49.4068120427
 31
0.0
100
AcDbText
 73
     3
  0
ENDBLK
  5
15C
330
151
100
AcDbEntity
  8
0
100
AcDbBlockEnd
  0
BLOCK
  5
165
330
15D
100
AcDbEntity
  8
0
100
AcDbBlockBegin
  2
SE6
 70
     0
 71
     0
 10
0.0
 20
0.0
 30
0.0
  3
SE6
  1

  0
POLYLINE
  5
15F
330
15D
100
AcDbEntity
  8
STANDARD
  6
CONTINUOUS
 62
     7
 48
25.4
100
AcDb2dPolyline
 66
     1
 10
0.0
 20
0.0
 30
0.0
 70
     1
  0
VERTEX
  5
208
330
15F
100
AcDbEntity
  8
STANDARD
  6
CONTINUOUS
 62
     7
100
AcDbVertex
100
AcDb2dVertex
 10
148.960324639
 20
111.2837537019
 30
0.0
  0
VERTEX
  5
209
330
15F
100
AcDbEntity
  8
STANDARD
  6
CONTINUOUS
 62
     7
100
AcDbVertex
100
AcDb2dVertex
 10
148.4603246347
 20
108.2837536759
 30
0.0
  0
VERTEX
  5
20A
330
15F
100
AcDbEntity
  8
STANDARD
  6
CONTINUOUS
 62
     7
100
AcDbVertex
100
AcDb2dVertex
 10
147.9603246303
 20
111.2837537019
 30
0.0
  0
VERTEX
  5
20B
330
15F
100
AcDbEntity
  8
STANDARD
  6
CONTINUOUS
 62
     7
100
AcDbVertex
100
AcDb2dVertex
 10
148.960324639
 20
111.2837537019
 30
0.0
  0
SEQEND
  5
207
330
15F
100
AcDbEntity
  8
STANDARD
  6
CONTINUOUS
 62
     7
 48
25.4
  0
POLYLINE
  5
160
330
15D
100
AcDbEntity
  8
STANDARD
  6
CONTINUOUS
 62
     7
 48
25.4
100
AcDb2dPolyline
 66
     1
 10
0.0
 20
0.0
 30
0.0
 70
     1
  0
VERTEX
  5
20D
330
160
100
AcDbEntity
  8
STANDARD
  6
CONTINUOUS
 62
     7
100
AcDbVertex
100
AcDb2dVertex
 10
148.960324639
 20
125.2837536498
 30
0.0
  0
VERTEX
  5
20E
330
160
100
AcDbEntity
  8
STANDARD
  6
CONTINUOUS
 62
     7
100
AcDbVertex
100
AcDb2dVertex
 10
148.4603246347
 20
128.2837536759
 30
0.0
  0
VERTEX
  5
20F
330
160
100
AcDbEntity
  8
STANDARD
  6
CONTINUOUS
 62
     7
100
AcDbVertex
100
AcDb2dVertex
 10
147.9603246303
 20
125.2837536498
 30
0.0
  0
VERTEX
  5
210
330
160
100
AcDbEntity
  8
STANDARD
  6
CONTINUOUS
 62
     7
100
AcDbVertex
100
AcDb2dVertex
 10
148.960324639
 20
125.2837536498
 30
0.0
  0
SEQEND
  5
20C
330
160
100
AcDbEntity
  8
STANDARD
  6
CONTINUOUS
 62
     7
 48
25.4
  0
LINE
  5
161
330
15D
100
AcDbEntity
  8
STANDARD
  6
CONTINUOUS
 62
     7
 48
25.4
100
AcDbLine
 10
100.3098001376
 20
108.2837536759
 30
0.0
 11
149.9603246477
 21
108.2837536759
 31
0.0
  0
LINE
  5
162
330
15D
100
AcDbEntity
  8
STANDARD
  6
CONTINUOUS
 62
     7
 48
25.4
100
AcDbLine
 10
100.3098001376
 20
128.2837536759
 30
0.0
 11
149.9603246477
 21
128.2837536759
 31
0.0
  0
LINE
  5
163
330
15D
100
AcDbEntity
  8
STANDARD
  6
CONTINUOUS
 62
     7
 48
25.4
100
AcDbLine
 10
148.4603246346
 20
108.2837536759
 30
0.0
 11
148.4603246346
 21
128.2837532289
 31
0.0
  0
TEXT
  5
164
330
15D
100
AcDbEntity
  8
STANDARD
  6
CONTINUOUS
 62
     7
 48
25.4
100
AcDbText
 10
147.7103246346
 20
116.4769352706
 30
0.0
 40
3.0
  1
20
 50
90.0
  7
SEACAD_SEISO_TTF
 11
144.7103246346
 21
116.4769352706
 31
0.0
100
AcDbText
 73
     3
  0
ENDBLK
  5
166
330
15D
100
AcDbEntity
  8
0
100
AcDbBlockEnd
  0
BLOCK
  5
16F
330
167
100
AcDbEntity
  8
0
100
AcDbBlockBegin
  2
SE7
 70
     0
 71
     0
 10
0.0
 20
0.0
 30
0.0
  3
SE7
  1

  0
POLYLINE
  5
169
330
167
100
AcDbEntity
  8
STANDARD
  6
CONTINUOUS
 62
     7
 48
25.4
100
AcDb2dPolyline
 66
     1
 10
0.0
 20
0.0
 30
0.0
 70
     1
  0
VERTEX
  5
212
330
169
100
AcDbEntity
  8
STANDARD
  6
CONTINUOUS
 62
     7
100
AcDbVertex
100
AcDb2dVertex
 10
138.1476613391
 20
125.5337537019
 30
0.0
  0
VERTEX
  5
213
330
169
100
AcDbEntity
  8
STANDARD
  6
CONTINUOUS
 62
     7
100
AcDbVertex
100
AcDb2dVertex
 10
137.6476613348
 20
122.5337536759
 30
0.0
  0
VERTEX
  5
214
330
169
100
AcDbEntity
  8
STANDARD
  6
CONTINUOUS
 62
     7
100
AcDbVertex
100
AcDb2dVertex
 10
137.1476613304
 20
125.5337537019
 30
0.0
  0
VERTEX
  5
215
330
169
100
AcDbEntity
  8
STANDARD
  6
CONTINUOUS
 62
     7
100
AcDbVertex
100
AcDb2dVertex
 10
138.1476613391
 20
125.5337537019
 30
0.0
  0
SEQEND
  5
211
330
169
100
AcDbEntity
  8
STANDARD
  6
CONTINUOUS
 62
     7
 48
25.4
  0
POLYLINE
  5
16A
330
167
100
AcDbEntity
  8
STANDARD
  6
CONTINUOUS
 62
     7
 48
25.4
100
AcDb2dPolyline
 66
     1
 10
0.0
 20
0.0
 30
0.0
 70
     1
  0
VERTEX
  5
217
330
16A
100
AcDbEntity
  8
STANDARD
  6
CONTINUOUS
 62
     7
100
AcDbVertex
100
AcDb2dVertex
 10
138.1476613391
 20
111.0337536498
 30
0.0
  0
VERTEX
  5
218
330
16A
100
AcDbEntity
  8
STANDARD
  6
CONTINUOUS
 62
     7
100
AcDbVertex
100
AcDb2dVertex
 10
137.6476613348
 20
114.0337536759
 30
0.0
  0
VERTEX
  5
219
330
16A
100
AcDbEntity
  8
STANDARD
  6
CONTINUOUS
 62
     7
100
AcDbVertex
100
AcDb2dVertex
 10
137.1476613304
 20
111.0337536498
 30
0.0
  0
VERTEX
  5
21A
330
16A
100
AcDbEntity
  8
STANDARD
  6
CONTINUOUS
 62
     7
100
AcDbVertex
100
AcDb2dVertex
 10
138.1476613391
 20
111.0337536498
 30
0.0
  0
SEQEND
  5
216
330
16A
100
AcDbEntity
  8
STANDARD
  6
CONTINUOUS
 62
     7
 48
25.4
  0
LINE
  5
16B
330
167
100
AcDbEntity
  8
STANDARD
  6
CONTINUOUS
 62
     7
 48
25.4
100
AcDbLine
 10
106.6939681311
 20
122.5337536759
 30
0.0
 11
139.1476613478
 21
122.5337536759
 31
0.0
  0
LINE
  5
16C
330
167
100
AcDbEntity
  8
STANDARD
  6
CONTINUOUS
 62
     7
 48
25.4
100
AcDbLine
 10
106.6939681311
 20
114.0337536759
 30
0.0
 11
139.1476613478
 21
114.0337536759
 31
0.0
  0
LINE
  5
16D
330
167
100
AcDbEntity
  8
STANDARD
  6
CONTINUOUS
 62
     7
 48
25.4
100
AcDbLine
 10
137.6476613347
 20
128.5337537281
 30
0.0
 11
137.6476613347
 21
108.0337540931
 31
0.0
  0
TEXT
  5
16E
330
167
100
AcDbEntity
  8
STANDARD
  6
CONTINUOUS
 62
     7
 48
25.4
100
AcDbText
 10
136.8976613347
 20
116.2042079904
 30
0.0
 40
3.0
  1
8,5
 50
90.0
  7
SEACAD_SEISO_TTF
 11
133.8976613347
 21
116.2042079904
 31
0.0
100
AcDbText
 73
     3
  0
ENDBLK
  5
170
330
167
100
AcDbEntity
  8
0
100
AcDbBlockEnd
  0
BLOCK
  5
179
330
171
100
AcDbEntity
  8
0
100
AcDbBlockBegin
  2
SE8
 70
     0
 71
     0
 10
0.0
 20
0.0
 30
0.0
  3
SE8
  1

  0
POLYLINE
  5
173
330
171
100
AcDbEntity
  8
STANDARD
  6
CONTINUOUS
 62
     7
 48
25.4
100
AcDb2dPolyline
 66
     1
 10
0.0
 20
0.0
 30
0.0
 70
     1
  0
VERTEX
  5
21C
330
173
100
AcDbEntity
  8
STANDARD
  6
CONTINUOUS
 62
     7
100
AcDbVertex
100
AcDb2dVertex
 10
148.960324801
 20
210.2837536498
 30
0.0
  0
VERTEX
  5
21D
330
173
100
AcDbEntity
  8
STANDARD
  6
CONTINUOUS
 62
     7
100
AcDbVertex
100
AcDb2dVertex
 10
148.4603247966
 20
213.2837536759
 30
0.0
  0
VERTEX
  5
21E
330
173
100
AcDbEntity
  8
STANDARD
  6
CONTINUOUS
 62
     7
100
AcDbVertex
100
AcDb2dVertex
 10
147.9603247923
 20
210.2837536498
 30
0.0
  0
VERTEX
  5
21F
330
173
100
AcDbEntity
  8
STANDARD
  6
CONTINUOUS
 62
     7
100
AcDbVertex
100
AcDb2dVertex
 10
148.960324801
 20
210.2837536498
 30
0.0
  0
SEQEND
  5
21B
330
173
100
AcDbEntity
  8
STANDARD
  6
CONTINUOUS
 62
     7
 48
25.4
  0
POLYLINE
  5
174
330
171
100
AcDbEntity
  8
STANDARD
  6
CONTINUOUS
 62
     7
 48
25.4
100
AcDb2dPolyline
 66
     1
 10
0.0
 20
0.0
 30
0.0
 70
     1
  0
VERTEX
  5
221
330
174
100
AcDbEntity
  8
STANDARD
  6
CONTINUOUS
 62
     7
100
AcDbVertex
100
AcDb2dVertex
 10
148.960324801
 20
171.2837537019
 30
0.0
  0
VERTEX
  5
222
330
174
100
AcDbEntity
  8
STANDARD
  6
CONTINUOUS
 62
     7
100
AcDbVertex
100
AcDb2dVertex
 10
148.4603247966
 20
168.2837536759
 30
0.0
  0
VERTEX
  5
223
330
174
100
AcDbEntity
  8
STANDARD
  6
CONTINUOUS
 62
     7
100
AcDbVertex
100
AcDb2dVertex
 10
147.9603247923
 20
171.2837537019
 30
0.0
  0
VERTEX
  5
224
330
174
100
AcDbEntity
  8
STANDARD
  6
CONTINUOUS
 62
     7
100
AcDbVertex
100
AcDb2dVertex
 10
148.960324801
 20
171.2837537019
 30
0.0
  0
SEQEND
  5
220
330
174
100
AcDbEntity
  8
STANDARD
  6
CONTINUOUS
 62
     7
 48
25.4
  0
LINE
  5
175
330
171
100
AcDbEntity
  8
STANDARD
  6
CONTINUOUS
 62
     7
 48
25.4
100
AcDbLine
 10
94.0410941268
 20
213.2837536759
 30
0.0
 11
149.9603248096
 21
213.2837536759
 31
0.0
  0
LINE
  5
176
330
171
100
AcDbEntity
  8
STANDARD
  6
CONTINUOUS
 62
     7
 48
25.4
100
AcDbLine
 10
101.2298001376
 20
168.2837536759
 30
0.0
 11
149.9603248096
 21
168.2837536759
 31
0.0
  0
LINE
  5
177
330
171
100
AcDbEntity
  8
STANDARD
  6
CONTINUOUS
 62
     7
 48
25.4
100
AcDbLine
 10
148.4603247966
 20
213.2837536759
 30
0.0
 11
148.4603247966
 21
168.2837518878
 31
0.0
  0
TEXT
  5
178
330
171
100
AcDbEntity
  8
STANDARD
  6
CONTINUOUS
 62
     7
 48
25.4
100
AcDbText
 10
147.7103247966
 20
189.0451164182
 30
0.0
 40
3.0
  1
45
 50
90.0
  7
SEACAD_SEISO_TTF
 11
144.7103247966
 21
189.0451164182
 31
0.0
100
AcDbText
 73
     3
  0
ENDBLK
  5
17A
330
171
100
AcDbEntity
  8
0
100
AcDbBlockEnd
  0
BLOCK
  5
183
330
17B
100
AcDbEntity
  8
0
100
AcDbBlockBegin
  2
SE9
 70
     0
 71
     0
 10
0.0
 20
0.0
 30
0.0
  3
SE9
  1

  0
POLYLINE
  5
17D
330
17B
100
AcDbEntity
  8
STANDARD
  6
CONTINUOUS
 62
     7
 48
25.4
100
AcDb2dPolyline
 66
     1
 10
0.0
 20
0.0
 30
0.0
 70
     1
  0
VERTEX
  5
226
330
17D
100
AcDbEntity
  8
STANDARD
  6
CONTINUOUS
 62
     7
100
AcDbVertex
100
AcDb2dVertex
 10
148.9603269469
 20
165.2837536498
 30
0.0
  0
VERTEX
  5
227
330
17D
100
AcDbEntity
  8
STANDARD
  6
CONTINUOUS
 62
     7
100
AcDbVertex
100
AcDb2dVertex
 10
148.4603269426
 20
168.2837536759
 30
0.0
  0
VERTEX
  5
228
330
17D
100
AcDbEntity
  8
STANDARD
  6
CONTINUOUS
 62
     7
100
AcDbVertex
100
AcDb2dVertex
 10
147.9603269382
 20
165.2837536498
 30
0.0
  0
VERTEX
  5
229
330
17D
100
AcDbEntity
  8
STANDARD
  6
CONTINUOUS
 62
     7
100
AcDbVertex
100
AcDb2dVertex
 10
148.9603269469
 20
165.2837536498
 30
0.0
  0
SEQEND
  5
225
330
17D
100
AcDbEntity
  8
STANDARD
  6
CONTINUOUS
 62
     7
 48
25.4
  0
POLYLINE
  5
17E
330
17B
100
AcDbEntity
  8
STANDARD
  6
CONTINUOUS
 62
     7
 48
25.4
100
AcDb2dPolyline
 66
     1
 10
0.0
 20
0.0
 30
0.0
 70
     1
  0
VERTEX
  5
22B
330
17E
100
AcDbEntity
  8
STANDARD
  6
CONTINUOUS
 62
     7
100
AcDbVertex
100
AcDb2dVertex
 10
148.9603269469
 20
131.2837537019
 30
0.0
  0
VERTEX
  5
22C
330
17E
100
AcDbEntity
  8
STANDARD
  6
CONTINUOUS
 62
     7
100
AcDbVertex
100
AcDb2dVertex
 10
148.4603269426
 20
128.2837536759
 30
0.0
  0
VERTEX
  5
22D
330
17E
100
AcDbEntity
  8
STANDARD
  6
CONTINUOUS
 62
     7
100
AcDbVertex
100
AcDb2dVertex
 10
147.9603269382
 20
131.2837537019
 30
0.0
  0
VERTEX
  5
22E
330
17E
100
AcDbEntity
  8
STANDARD
  6
CONTINUOUS
 62
     7
100
AcDbVertex
100
AcDb2dVertex
 10
148.9603269469
 20
131.2837537019
 30
0.0
  0
SEQEND
  5
22A
330
17E
100
AcDbEntity
  8
STANDARD
  6
CONTINUOUS
 62
     7
 48
25.4
  0
LINE
  5
17F
330
17B
100
AcDbEntity
  8
STANDARD
  6
CONTINUOUS
 62
     7
 48
25.4
100
AcDbLine
 10
101.2298001376
 20
168.2837536759
 30
0.0
 11
149.9603269556
 21
168.2837536759
 31
0.0
  0
LINE
  5
180
330
17B
100
AcDbEntity
  8
STANDARD
  6
CONTINUOUS
 62
     7
 48
25.4
100
AcDbLine
 10
100.3098001376
 20
128.2837536759
 30
0.0
 11
149.9603269556
 21
128.2837536759
 31
0.0
  0
LINE
  5
181
330
17B
100
AcDbEntity
  8
STANDARD
  6
CONTINUOUS
 62
     7
 48
25.4
100
AcDbLine
 10
148.4603269425
 20
168.2837536759
 30
0.0
 11
148.4603269425
 21
128.28375457
 31
0.0
  0
TEXT
  5
182
330
17B
100
AcDbEntity
  8
STANDARD
  6
CONTINUOUS
 62
     7
 48
25.4
100
AcDbText
 10
147.7103269425
 20
146.5110268502
 30
0.0
 40
3.0
  1
40
 50
90.0
  7
SEACAD_SEISO_TTF
 11
144.7103269425
 21
146.5110268502
 31
0.0
100
AcDbText
 73
     3
  0
ENDBLK
  5
184
330
17B
100
AcDbEntity
  8
0
100
AcDbBlockEnd
  0
BLOCK
  5
18D
330
185
100
AcDbEntity
  8
0
100
AcDbBlockBegin
  2
SE10
 70
     0
 71
     0
 10
0.0
 20
0.0
 30
0.0
  3
SE10
  1

  0
POLYLINE
  5
187
330
185
100
AcDbEntity
  8
STANDARD
  6
CONTINUOUS
 62
     7
 48
25.4
100
AcDb2dPolyline
 66
     1
 10
0.0
 20
0.0
 30
0.0
 70
     1
  0
VERTEX
  5
230
330
187
100
AcDbEntity
  8
STANDARD
  6
CONTINUOUS
 62
     7
100
AcDbVertex
100
AcDb2dVertex
 10
148.960324639
 20
105.2837536498
 30
0.0
  0
VERTEX
  5
231
330
187
100
AcDbEntity
  8
STANDARD
  6
CONTINUOUS
 62
     7
100
AcDbVertex
100
AcDb2dVertex
 10
148.4603246347
 20
108.2837536759
 30
0.0
  0
VERTEX
  5
232
330
187
100
AcDbEntity
  8
STANDARD
  6
CONTINUOUS
 62
     7
100
AcDbVertex
100
AcDb2dVertex
 10
147.9603246303
 20
105.2837536498
 30
0.0
  0
VERTEX
  5
233
330
187
100
AcDbEntity
  8
STANDARD
  6
CONTINUOUS
 62
     7
100
AcDbVertex
100
AcDb2dVertex
 10
148.960324639
 20
105.2837536498
 30
0.0
  0
SEQEND
  5
22F
330
187
100
AcDbEntity
  8
STANDARD
  6
CONTINUOUS
 62
     7
 48
25.4
  0
POLYLINE
  5
188
330
185
100
AcDbEntity
  8
STANDARD
  6
CONTINUOUS
 62
     7
 48
25.4
100
AcDb2dPolyline
 66
     1
 10
0.0
 20
0.0
 30
0.0
 70
     1
  0
VERTEX
  5
235
330
188
100
AcDbEntity
  8
STANDARD
  6
CONTINUOUS
 62
     7
100
AcDbVertex
100
AcDb2dVertex
 10
148.960324639
 20
79.2837537019
 30
0.0
  0
VERTEX
  5
236
330
188
100
AcDbEntity
  8
STANDARD
  6
CONTINUOUS
 62
     7
100
AcDbVertex
100
AcDb2dVertex
 10
148.4603246347
 20
76.2837536759
 30
0.0
  0
VERTEX
  5
237
330
188
100
AcDbEntity
  8
STANDARD
  6
CONTINUOUS
 62
     7
100
AcDbVertex
100
AcDb2dVertex
 10
147.9603246303
 20
79.2837537019
 30
0.0
  0
VERTEX
  5
238
330
188
100
AcDbEntity
  8
STANDARD
  6
CONTINUOUS
 62
     7
100
AcDbVertex
100
AcDb2dVertex
 10
148.960324639
 20
79.2837537019
 30
0.0
  0
SEQEND
  5
234
330
188
100
AcDbEntity
  8
STANDARD
  6
CONTINUOUS
 62
     7
 48
25.4
  0
LINE
  5
189
330
185
100
AcDbEntity
  8
STANDARD
  6
CONTINUOUS
 62
     7
 48
25.4
100
AcDbLine
 10
100.3098001376
 20
108.2837536759
 30
0.0
 11
149.9603246477
 21
108.2837536759
 31
0.0
  0
LINE
  5
18A
330
185
100
AcDbEntity
  8
STANDARD
  6
CONTINUOUS
 62
     7
 48
25.4
100
AcDbLine
 10
90.2298001376
 20
76.2837536759
 30
0.0
 11
149.9603246477
 21
76.2837536759
 31
0.0
  0
LINE
  5
18B
330
185
100
AcDbEntity
  8
STANDARD
  6
CONTINUOUS
 62
     7
 48
25.4
100
AcDbLine
 10
148.4603246346
 20
108.2837536759
 30
0.0
 11
148.4603246346
 21
76.283752156
 31
0.0
  0
TEXT
  5
18C
330
185
100
AcDbEntity
  8
STANDARD
  6
CONTINUOUS
 62
     7
 48
25.4
100
AcDbText
 10
147.7103246346
 20
90.5792074614
 30
0.0
 40
3.0
  1
32
 50
90.0
  7
SEACAD_SEISO_TTF
 11
144.7103246346
 21
90.5792074614
 31
0.0
100
AcDbText
 73
     3
  0
ENDBLK
  5
18E
330
185
100
AcDbEntity
  8
0
100
AcDbBlockEnd
  0
BLOCK
  5
197
330
18F
100
AcDbEntity
  8
0
100
AcDbBlockBegin
  2
SE11
 70
     0
 71
     0
 10
0.0
 20
0.0
 30
0.0
  3
SE11
  1

  0
POLYLINE
  5
191
330
18F
100
AcDbEntity
  8
STANDARD
  6
CONTINUOUS
 62
     7
 48
25.4
100
AcDb2dPolyline
 66
     1
 10
0.0
 20
0.0
 30
0.0
 70
     1
  0
VERTEX
  5
23A
330
191
100
AcDbEntity
  8
STANDARD
  6
CONTINUOUS
 62
     7
100
AcDbVertex
100
AcDb2dVertex
 10
148.9603275728
 20
65.2837536498
 30
0.0
  0
VERTEX
  5
23B
330
191
100
AcDbEntity
  8
STANDARD
  6
CONTINUOUS
 62
     7
100
AcDbVertex
100
AcDb2dVertex
 10
148.4603275684
 20
68.2837536759
 30
0.0
  0
VERTEX
  5
23C
330
191
100
AcDbEntity
  8
STANDARD
  6
CONTINUOUS
 62
     7
100
AcDbVertex
100
AcDb2dVertex
 10
147.9603275641
 20
65.2837536498
 30
0.0
  0
VERTEX
  5
23D
330
191
100
AcDbEntity
  8
STANDARD
  6
CONTINUOUS
 62
     7
100
AcDbVertex
100
AcDb2dVertex
 10
148.9603275728
 20
65.2837536498
 30
0.0
  0
SEQEND
  5
239
330
191
100
AcDbEntity
  8
STANDARD
  6
CONTINUOUS
 62
     7
 48
25.4
  0
POLYLINE
  5
192
330
18F
100
AcDbEntity
  8
STANDARD
  6
CONTINUOUS
 62
     7
 48
25.4
100
AcDb2dPolyline
 66
     1
 10
0.0
 20
0.0
 30
0.0
 70
     1
  0
VERTEX
  5
23F
330
192
100
AcDbEntity
  8
STANDARD
  6
CONTINUOUS
 62
     7
100
AcDbVertex
100
AcDb2dVertex
 10
148.9603275728
 20
79.2837537019
 30
0.0
  0
VERTEX
  5
240
330
192
100
AcDbEntity
  8
STANDARD
  6
CONTINUOUS
 62
     7
100
AcDbVertex
100
AcDb2dVertex
 10
148.4603275684
 20
76.2837536759
 30
0.0
  0
VERTEX
  5
241
330
192
100
AcDbEntity
  8
STANDARD
  6
CONTINUOUS
 62
     7
100
AcDbVertex
100
AcDb2dVertex
 10
147.9603275641
 20
79.2837537019
 30
0.0
  0
VERTEX
  5
242
330
192
100
AcDbEntity
  8
STANDARD
  6
CONTINUOUS
 62
     7
100
AcDbVertex
100
AcDb2dVertex
 10
148.9603275728
 20
79.2837537019
 30
0.0
  0
SEQEND
  5
23E
330
192
100
AcDbEntity
  8
STANDARD
  6
CONTINUOUS
 62
     7
 48
25.4
  0
LINE
  5
193
330
18F
100
AcDbEntity
  8
STANDARD
  6
CONTINUOUS
 62
     7
 48
25.4
100
AcDbLine
 10
91.7298001376
 20
68.2837536759
 30
0.0
 11
149.9603275814
 21
68.2837536759
 31
0.0
  0
LINE
  5
194
330
18F
100
AcDbEntity
  8
STANDARD
  6
CONTINUOUS
 62
     7
 48
25.4
100
AcDbLine
 10
91.7298001376
 20
76.2837536759
 30
0.0
 11
149.9603275814
 21
76.2837536759
 31
0.0
  0
LINE
  5
195
330
18F
100
AcDbEntity
  8
STANDARD
  6
CONTINUOUS
 62
     7
 48
25.4
100
AcDbLine
 10
148.4603275684
 20
62.2837536238
 30
0.0
 11
148.4603275684
 21
82.283754108
 31
0.0
  0
TEXT
  5
196
330
18F
100
AcDbEntity
  8
STANDARD
  6
CONTINUOUS
 62
     7
 48
25.4
100
AcDbText
 10
147.7103275684
 20
71.3292084114
 30
0.0
 40
3.0
  1
8
 50
90.0
  7
SEACAD_SEISO_TTF
 11
144.7103275684
 21
71.3292084114
 31
0.0
100
AcDbText
 73
     3
  0
ENDBLK
  5
198
330
18F
100
AcDbEntity
  8
0
100
AcDbBlockEnd
  0
BLOCK
  5
1A5
330
199
100
AcDbEntity
  8
0
100
AcDbBlockBegin
  2
SE12
 70
     0
 71
     0
 10
0.0
 20
0.0
 30
0.0
  3
SE12
  1

  0
POLYLINE
  5
19B
330
199
100
AcDbEntity
  8
STANDARD
  6
CONTINUOUS
 62
     7
 48
25.4
100
AcDb2dPolyline
 66
     1
 10
0.0
 20
0.0
 30
0.0
 70
     1
  0
VERTEX
  5
244
330
19B
100
AcDbEntity
  8
STANDARD
  6
CONTINUOUS
 62
     7
100
AcDbVertex
100
AcDb2dVertex
 10
44.5381664125
 20
189.9310479832
 30
0.0
  0
VERTEX
  5
245
330
19B
100
AcDbEntity
  8
STANDARD
  6
CONTINUOUS
 62
     7
100
AcDbVertex
100
AcDb2dVertex
 10
45.0381664169
 20
186.9310479571
 30
0.0
  0
VERTEX
  5
246
330
19B
100
AcDbEntity
  8
STANDARD
  6
CONTINUOUS
 62
     7
100
AcDbVertex
100
AcDb2dVertex
 10
45.5381664212
 20
189.9310479832
 30
0.0
  0
VERTEX
  5
247
330
19B
100
AcDbEntity
  8
STANDARD
  6
CONTINUOUS
 62
     7
100
AcDbVertex
100
AcDb2dVertex
 10
44.5381664125
 20
189.9310479832
 30
0.0
  0
SEQEND
  5
243
330
19B
100
AcDbEntity
  8
STANDARD
  6
CONTINUOUS
 62
     7
 48
25.4
  0
POLYLINE
  5
19C
330
199
100
AcDbEntity
  8
STANDARD
  6
CONTINUOUS
 62
     7
 48
25.4
100
AcDb2dPolyline
 66
     1
 10
0.0
 20
0.0
 30
0.0
 70
     1
  0
VERTEX
  5
249
330
19C
100
AcDbEntity
  8
STANDARD
  6
CONTINUOUS
 62
     7
100
AcDbVertex
100
AcDb2dVertex
 10
44.5381664125
 20
176.6364593686
 30
0.0
  0
VERTEX
  5
24A
330
19C
100
AcDbEntity
  8
STANDARD
  6
CONTINUOUS
 62
     7
100
AcDbVertex
100
AcDb2dVertex
 10
45.0381664169
 20
179.6364593946
 30
0.0
  0
VERTEX
  5
24B
330
19C
100
AcDbEntity
  8
STANDARD
  6
CONTINUOUS
 62
     7
100
AcDbVertex
100
AcDb2dVertex
 10
45.5381664212
 20
176.6364593686
 30
0.0
  0
VERTEX
  5
24C
330
19C
100
AcDbEntity
  8
STANDARD
  6
CONTINUOUS
 62
     7
100
AcDbVertex
100
AcDb2dVertex
 10
44.5381664125
 20
176.6364593686
 30
0.0
  0
SEQEND
  5
248
330
19C
100
AcDbEntity
  8
STANDARD
  6
CONTINUOUS
 62
     7
 48
25.4
  0
LINE
  5
19D
330
199
100
AcDbEntity
  8
STANDARD
  6
CONTINUOUS
 62
     7
 48
25.4
100
AcDbLine
 10
56.7718455177
 20
186.9310479571
 30
0.0
 11
43.5381664038
 21
186.9310479571
 31
0.0
  0
LINE
  5
19E
330
199
100
AcDbEntity
  8
STANDARD
  6
CONTINUOUS
 62
     7
 48
25.4
100
AcDbLine
 10
56.7718455177
 20
179.6364593947
 30
0.0
 11
43.5381664038
 21
179.6364593947
 31
0.0
  0
LINE
  5
19F
330
199
100
AcDbEntity
  8
STANDARD
  6
CONTINUOUS
 62
     7
 48
25.4
100
AcDbLine
 10
45.0381664168
 20
192.9310480093
 30
0.0
 11
45.0381664168
 21
152.4750631263
 31
0.0
  0
TEXT
  5
1A0
330
199
100
AcDbEntity
  8
STANDARD
  6
CONTINUOUS
 62
     7
 48
25.4
100
AcDbText
 10
44.2881664168
 20
153.5250639316
 30
0.0
 40
3.0
  1
3x 
 50
90.0
  7
SEACAD_SEISO_TTF
 11
41.2881664168
 21
153.5250639316
 31
0.0
100
AcDbText
 73
     3
  0
TEXT
  5
1A1
330
199
100
AcDbEntity
  8
STANDARD
  6
CONTINUOUS
 62
     7
 48
25.4
100
AcDbText
 10
44.2881664168
 20
157.8205184771
 30
0.0
 40
3.0
  1
q
 50
90.0
  7
SEACAD_SEMECI1_TTF
 11
41.2881664168
 21
157.8205184771
 31
0.0
100
AcDbText
 73
     3
  0
TEXT
  5
1A2
330
199
100
AcDbEntity
  8
STANDARD
  6
CONTINUOUS
 62
     7
 48
25.4
100
AcDbText
 10
44.2881664168
 20
161.2266320142
 30
0.0
 40
3.0
  1
7,3/
 50
90.0
  7
SEACAD_SEISO_TTF
 11
41.2881664168
 21
161.2266320142
 31
0.0
100
AcDbText
 73
     3
  0
TEXT
  5
1A3
330
199
100
AcDbEntity
  8
STANDARD
  6
CONTINUOUS
 62
     7
 48
25.4
100
AcDbText
 10
44.2881664168
 20
166.3402683779
 30
0.0
 40
3.0
  1
q
 50
90.0
  7
SEACAD_SEMECI1_TTF
 11
41.2881664168
 21
166.3402683779
 31
0.0
100
AcDbText
 73
     3
  0
TEXT
  5
1A4
330
199
100
AcDbEntity
  8
STANDARD
  6
CONTINUOUS
 62
     7
 48
25.4
100
AcDbText
 10
44.2881664168
 20
169.746381915
 30
0.0
 40
3.0
  1
7,2
 50
90.0
  7
SEACAD_SEISO_TTF
 11
41.2881664168
 21
169.746381915
 31
0.0
100
AcDbText
 73
     3
  0
ENDBLK
  5
1A6
330
199
100
AcDbEntity
  8
0
100
AcDbBlockEnd
  0
BLOCK
  5
1B0
330
1A7
100
AcDbEntity
  8
0
100
AcDbBlockBegin
  2
SE13
 70
     0
 71
     0
 10
0.0
 20
0.0
 30
0.0
  3
SE13
  1

  0
POLYLINE
  5
1A9
330
1A7
100
AcDbEntity
  8
STANDARD
  6
CONTINUOUS
 62
     7
 48
25.4
100
AcDb2dPolyline
 66
     1
 10
0.0
 20
0.0
 30
0.0
 70
     1
  0
VERTEX
  5
24E
330
1A9
100
AcDbEntity
  8
STANDARD
  6
CONTINUOUS
 62
     7
100
AcDbVertex
100
AcDb2dVertex
 10
45.1777885391
 20
263.5723592214
 30
0.0
  0
VERTEX
  5
24F
330
1A9
100
AcDbEntity
  8
STANDARD
  6
CONTINUOUS
 62
     7
100
AcDbVertex
100
AcDb2dVertex
 10
45.6777885435
 20
266.5723592475
 30
0.0
  0
VERTEX
  5
250
330
1A9
100
AcDbEntity
  8
STANDARD
  6
CONTINUOUS
 62
     7
100
AcDbVertex
100
AcDb2dVertex
 10
46.1777885478
 20
263.5723592214
 30
0.0
  0
VERTEX
  5
251
330
1A9
100
AcDbEntity
  8
STANDARD
  6
CONTINUOUS
 62
     7
100
AcDbVertex
100
AcDb2dVertex
 10
45.1777885391
 20
263.5723592214
 30
0.0
  0
SEQEND
  5
24D
330
1A9
100
AcDbEntity
  8
STANDARD
  6
CONTINUOUS
 62
     7
 48
25.4
  0
POLYLINE
  5
1AA
330
1A7
100
AcDbEntity
  8
STANDARD
  6
CONTINUOUS
 62
     7
 48
25.4
100
AcDb2dPolyline
 66
     1
 10
0.0
 20
0.0
 30
0.0
 70
     1
  0
VERTEX
  5
253
330
1AA
100
AcDbEntity
  8
STANDARD
  6
CONTINUOUS
 62
     7
100
AcDbVertex
100
AcDb2dVertex
 10
45.1777885391
 20
257.5723592735
 30
0.0
  0
VERTEX
  5
254
330
1AA
100
AcDbEntity
  8
STANDARD
  6
CONTINUOUS
 62
     7
100
AcDbVertex
100
AcDb2dVertex
 10
45.6777885435
 20
254.5723592475
 30
0.0
  0
VERTEX
  5
255
330
1AA
100
AcDbEntity
  8
STANDARD
  6
CONTINUOUS
 62
     7
100
AcDbVertex
100
AcDb2dVertex
 10
46.1777885478
 20
257.5723592735
 30
0.0
  0
VERTEX
  5
256
330
1AA
100
AcDbEntity
  8
STANDARD
  6
CONTINUOUS
 62
     7
100
AcDbVertex
100
AcDb2dVertex
 10
45.1777885391
 20
257.5723592735
 30
0.0
  0
SEQEND
  5
252
330
1AA
100
AcDbEntity
  8
STANDARD
  6
CONTINUOUS
 62
     7
 48
25.4
  0
LINE
  5
1AB
330
1A7
100
AcDbEntity
  8
STANDARD
  6
CONTINUOUS
 62
     7
 48
25.4
100
AcDbLine
 10
57.2298001376
 20
266.5723592475
 30
0.0
 11
44.1777885304
 21
266.5723592475
 31
0.0
  0
LINE
  5
1AC
330
1A7
100
AcDbEntity
  8
STANDARD
  6
CONTINUOUS
 62
     7
 48
25.4
100
AcDbLine
 10
57.2298001376
 20
254.5723592475
 30
0.0
 11
44.1777885304
 21
254.5723592475
 31
0.0
  0
LINE
  5
1AD
330
1A7
100
AcDbEntity
  8
STANDARD
  6
CONTINUOUS
 62
     7
 48
25.4
100
AcDbLine
 10
45.6777885434
 20
266.5723592475
 30
0.0
 11
45.6777885434
 21
254.5723591432
 31
0.0
  0
TEXT
  5
1AE
330
1A7
100
AcDbEntity
  8
STANDARD
  6
CONTINUOUS
 62
     7
 48
25.4
100
AcDbText
 10
44.9277885434
 20
260.8585739631
 30
0.0
 40
3.0
  1
12
 50
90.0
  7
SEACAD_SEISO_TTF
 11
41.9277885434
 21
260.8585739631
 31
0.0
100
AcDbText
 73
     3
  0
TEXT
  5
1AF
330
1A7
100
AcDbEntity
  8
STANDARD
  6
CONTINUOUS
 62
     7
 48
25.4
100
AcDbText
 10
44.9277885434
 20
257.2179626094
 30
0.0
 40
3.0
  1
O
 50
90.0
  7
SEACAD_SEMECI1_TTF
 11
41.9277885434
 21
257.2179626094
 31
0.0
100
AcDbText
 73
     3
  0
ENDBLK
  5
1B1
330
1A7
100
AcDbEntity
  8
0
100
AcDbBlockEnd
  0
BLOCK
  5
1BA
330
1B2
100
AcDbEntity
  8
0
100
AcDbBlockBegin
  2
SE14
 70
     0
 71
     0
 10
0.0
 20
0.0
 30
0.0
  3
SE14
  1

  0
POLYLINE
  5
1B4
330
1B2
100
AcDbEntity
  8
STANDARD
  6
CONTINUOUS
 62
     7
 48
25.4
100
AcDb2dPolyline
 66
     1
 10
0.0
 20
0.0
 30
0.0
 70
     1
  0
VERTEX
  5
258
330
1B4
100
AcDbEntity
  8
STANDARD
  6
CONTINUOUS
 62
     7
100
AcDbVertex
100
AcDb2dVertex
 10
59.2298001637
 20
281.7588325073
 30
0.0
  0
VERTEX
  5
259
330
1B4
100
AcDbEntity
  8
STANDARD
  6
CONTINUOUS
 62
     7
100
AcDbVertex
100
AcDb2dVertex
 10
56.2298001377
 20
281.2588325029
 30
0.0
  0
VERTEX
  5
25A
330
1B4
100
AcDbEntity
  8
STANDARD
  6
CONTINUOUS
 62
     7
100
AcDbVertex
100
AcDb2dVertex
 10
59.2298001637
 20
280.7588324986
 30
0.0
  0
VERTEX
  5
25B
330
1B4
100
AcDbEntity
  8
STANDARD
  6
CONTINUOUS
 62
     7
100
AcDbVertex
100
AcDb2dVertex
 10
59.2298001637
 20
281.7588325073
 30
0.0
  0
SEQEND
  5
257
330
1B4
100
AcDbEntity
  8
STANDARD
  6
CONTINUOUS
 62
     7
 48
25.4
  0
POLYLINE
  5
1B5
330
1B2
100
AcDbEntity
  8
STANDARD
  6
CONTINUOUS
 62
     7
 48
25.4
100
AcDb2dPolyline
 66
     1
 10
0.0
 20
0.0
 30
0.0
 70
     1
  0
VERTEX
  5
25D
330
1B5
100
AcDbEntity
  8
STANDARD
  6
CONTINUOUS
 62
     7
100
AcDbVertex
100
AcDb2dVertex
 10
87.2567382894
 20
281.7588325073
 30
0.0
  0
VERTEX
  5
25E
330
1B5
100
AcDbEntity
  8
STANDARD
  6
CONTINUOUS
 62
     7
100
AcDbVertex
100
AcDb2dVertex
 10
90.2567383155
 20
281.2588325029
 30
0.0
  0
VERTEX
  5
25F
330
1B5
100
AcDbEntity
  8
STANDARD
  6
CONTINUOUS
 62
     7
100
AcDbVertex
100
AcDb2dVertex
 10
87.2567382894
 20
280.7588324986
 30
0.0
  0
VERTEX
  5
260
330
1B5
100
AcDbEntity
  8
STANDARD
  6
CONTINUOUS
 62
     7
100
AcDbVertex
100
AcDb2dVertex
 10
87.2567382894
 20
281.7588325073
 30
0.0
  0
SEQEND
  5
25C
330
1B5
100
AcDbEntity
  8
STANDARD
  6
CONTINUOUS
 62
     7
 48
25.4
  0
LINE
  5
1B6
330
1B2
100
AcDbEntity
  8
STANDARD
  6
CONTINUOUS
 62
     7
 48
25.4
100
AcDbLine
 10
56.2298001376
 20
263.3648773915
 30
0.0
 11
56.2298001376
 21
282.758832516
 31
0.0
  0
LINE
  5
1B7
330
1B2
100
AcDbEntity
  8
STANDARD
  6
CONTINUOUS
 62
     7
 48
25.4
100
AcDbLine
 10
90.2567383154
 20
261.2394587574
 30
0.0
 11
90.2567383154
 21
282.758832516
 31
0.0
  0
LINE
  5
1B8
330
1B2
100
AcDbEntity
  8
STANDARD
  6
CONTINUOUS
 62
     7
 48
25.4
100
AcDbLine
 10
56.2298001376
 20
281.258832503
 30
0.0
 11
90.2567395595
 21
281.258832503
 31
0.0
  0
TEXT
  5
1B9
330
1B2
100
AcDbEntity
  8
STANDARD
  6
CONTINUOUS
 62
     7
 48
25.4
100
AcDbText
 10
71.5728153031
 20
282.008832503
 30
0.0
 40
3.0
  1
34
  7
SEACAD_SEISO_TTF
 11
71.5728153031
 21
285.008832503
 31
0.0
100
AcDbText
 73
     3
  0
ENDBLK
  5
1BB
330
1B2
100
AcDbEntity
  8
0
100
AcDbBlockEnd
  0
BLOCK
  5
1C4
330
1BC
100
AcDbEntity
  8
0
100
AcDbBlockBegin
  2
SE15
 70
     0
 71
     0
 10
0.0
 20
0.0
 30
0.0
  3
SE15
  1

  0
POLYLINE
  5
1BE
330
1BC
100
AcDbEntity
  8
STANDARD
  6
CONTINUOUS
 62
     7
 48
25.4
100
AcDb2dPolyline
 66
     1
 10
0.0
 20
0.0
 30
0.0
 70
     1
  0
VERTEX
  5
262
330
1BE
100
AcDbEntity
  8
STANDARD
  6
CONTINUOUS
 62
     7
100
AcDbVertex
100
AcDb2dVertex
 10
93.2567383415
 20
281.7588316869
 30
0.0
  0
VERTEX
  5
263
330
1BE
100
AcDbEntity
  8
STANDARD
  6
CONTINUOUS
 62
     7
100
AcDbVertex
100
AcDb2dVertex
 10
90.2567383155
 20
281.2588316825
 30
0.0
  0
VERTEX
  5
264
330
1BE
100
AcDbEntity
  8
STANDARD
  6
CONTINUOUS
 62
     7
100
AcDbVertex
100
AcDb2dVertex
 10
93.2567383415
 20
280.7588316782
 30
0.0
  0
VERTEX
  5
265
330
1BE
100
AcDbEntity
  8
STANDARD
  6
CONTINUOUS
 62
     7
100
AcDbVertex
100
AcDb2dVertex
 10
93.2567383415
 20
281.7588316869
 30
0.0
  0
SEQEND
  5
261
330
1BE
100
AcDbEntity
  8
STANDARD
  6
CONTINUOUS
 62
     7
 48
25.4
  0
POLYLINE
  5
1BF
330
1BC
100
AcDbEntity
  8
STANDARD
  6
CONTINUOUS
 62
     7
 48
25.4
100
AcDb2dPolyline
 66
     1
 10
0.0
 20
0.0
 30
0.0
 70
     1
  0
VERTEX
  5
267
330
1BF
100
AcDbEntity
  8
STANDARD
  6
CONTINUOUS
 62
     7
100
AcDbVertex
100
AcDb2dVertex
 10
121.2298001116
 20
281.7588316869
 30
0.0
  0
VERTEX
  5
268
330
1BF
100
AcDbEntity
  8
STANDARD
  6
CONTINUOUS
 62
     7
100
AcDbVertex
100
AcDb2dVertex
 10
124.2298001377
 20
281.2588316825
 30
0.0
  0
VERTEX
  5
269
330
1BF
100
AcDbEntity
  8
STANDARD
  6
CONTINUOUS
 62
     7
100
AcDbVertex
100
AcDb2dVertex
 10
121.2298001116
 20
280.7588316782
 30
0.0
  0
VERTEX
  5
26A
330
1BF
100
AcDbEntity
  8
STANDARD
  6
CONTINUOUS
 62
     7
100
AcDbVertex
100
AcDb2dVertex
 10
121.2298001116
 20
281.7588316869
 30
0.0
  0
SEQEND
  5
266
330
1BF
100
AcDbEntity
  8
STANDARD
  6
CONTINUOUS
 62
     7
 48
25.4
  0
LINE
  5
1C0
330
1BC
100
AcDbEntity
  8
STANDARD
  6
CONTINUOUS
 62
     7
 48
25.4
100
AcDbLine
 10
90.2567383154
 20
244.5993357775
 30
0.0
 11
90.2567383154
 21
282.7588316956
 31
0.0
  0
LINE
  5
1C1
330
1BC
100
AcDbEntity
  8
STANDARD
  6
CONTINUOUS
 62
     7
 48
25.4
100
AcDbLine
 10
124.2298001376
 20
263.2078227688
 30
0.0
 11
124.2298001376
 21
282.7588316956
 31
0.0
  0
LINE
  5
1C2
330
1BC
100
AcDbEntity
  8
STANDARD
  6
CONTINUOUS
 62
     7
 48
25.4
100
AcDbLine
 10
90.2567383154
 20
281.2588316826
 30
0.0
 11
124.2297988637
 21
281.2588316826
 31
0.0
  0
TEXT
  5
1C3
330
1BC
100
AcDbEntity
  8
STANDARD
  6
CONTINUOUS
 62
     7
 48
25.4
100
AcDbText
 10
105.5728140441
 20
282.0088316826
 30
0.0
 40
3.0
  1
34
  7
SEACAD_SEISO_TTF
 11
105.5728140441
 21
285.0088316826
 31
0.0
100
AcDbText
 73
     3
  0
ENDBLK
  5
1C5
330
1BC
100
AcDbEntity
  8
0
100
AcDbBlockEnd
  0
BLOCK
  5
1D3
330
1C6
100
AcDbEntity
  8
0
100
AcDbBlockBegin
  2
SE16
 70
     0
 71
     0
 10
0.0
 20
0.0
 30
0.0
  3
SE16
  1

  0
POLYLINE
  5
1C8
330
1C6
100
AcDbEntity
  8
STANDARD
  6
CONTINUOUS
 62
     7
 48
25.4
100
AcDb2dPolyline
 66
     1
 10
0.0
 20
0.0
 30
0.0
 70
     1
  0
VERTEX
  5
26C
330
1C8
100
AcDbEntity
  8
STANDARD
  6
CONTINUOUS
 62
     7
100
AcDbVertex
100
AcDb2dVertex
 10
137.4284618889
 20
189.431270069
 30
0.0
  0
VERTEX
  5
26D
330
1C8
100
AcDbEntity
  8
STANDARD
  6
CONTINUOUS
 62
     7
100
AcDbVertex
100
AcDb2dVertex
 10
136.9284618846
 20
186.4312700429
 30
0.0
  0
VERTEX
  5
26E
330
1C8
100
AcDbEntity
  8
STANDARD
  6
CONTINUOUS
 62
     7
100
AcDbVertex
100
AcDb2dVertex
 10
136.4284618803
 20
189.431270069
 30
0.0
  0
VERTEX
  5
26F
330
1C8
100
AcDbEntity
  8
STANDARD
  6
CONTINUOUS
 62
     7
100
AcDbVertex
100
AcDb2dVertex
 10
137.4284618889
 20
189.431270069
 30
0.0
  0
SEQEND
  5
26B
330
1C8
100
AcDbEntity
  8
STANDARD
  6
CONTINUOUS
 62
     7
 48
25.4
  0
POLYLINE
  5
1C9
330
1C6
100
AcDbEntity
  8
STANDARD
  6
CONTINUOUS
 62
     7
 48
25.4
100
AcDb2dPolyline
 66
     1
 10
0.0
 20
0.0
 30
0.0
 70
     1
  0
VERTEX
  5
271
330
1C9
100
AcDbEntity
  8
STANDARD
  6
CONTINUOUS
 62
     7
100
AcDbVertex
100
AcDb2dVertex
 10
137.4284618889
 20
177.1362372828
 30
0.0
  0
VERTEX
  5
272
330
1C9
100
AcDbEntity
  8
STANDARD
  6
CONTINUOUS
 62
     7
100
AcDbVertex
100
AcDb2dVertex
 10
136.9284618846
 20
180.1362373089
 30
0.0
  0
VERTEX
  5
273
330
1C9
100
AcDbEntity
  8
STANDARD
  6
CONTINUOUS
 62
     7
100
AcDbVertex
100
AcDb2dVertex
 10
136.4284618803
 20
177.1362372828
 30
0.0
  0
VERTEX
  5
274
330
1C9
100
AcDbEntity
  8
STANDARD
  6
CONTINUOUS
 62
     7
100
AcDbVertex
100
AcDb2dVertex
 10
137.4284618889
 20
177.1362372828
 30
0.0
  0
SEQEND
  5
270
330
1C9
100
AcDbEntity
  8
STANDARD
  6
CONTINUOUS
 62
     7
 48
25.4
  0
LINE
  5
1CA
330
1C6
100
AcDbEntity
  8
STANDARD
  6
CONTINUOUS
 62
     7
 48
25.4
100
AcDbLine
 10
123.7322459197
 20
186.4312700429
 30
0.0
 11
138.4284618976
 21
186.4312700429
 31
0.0
  0
LINE
  5
1CB
330
1C6
100
AcDbEntity
  8
STANDARD
  6
CONTINUOUS
 62
     7
 48
25.4
100
AcDbLine
 10
123.7322459197
 20
180.1362373089
 30
0.0
 11
138.4284618976
 21
180.1362373089
 31
0.0
  0
LINE
  5
1CC
330
1C6
100
AcDbEntity
  8
STANDARD
  6
CONTINUOUS
 62
     7
 48
25.4
100
AcDbLine
 10
136.9284618846
 20
192.4312700951
 30
0.0
 11
136.9284618846
 21
142.9761200645
 31
0.0
  0
TEXT
  5
1CD
330
1C6
100
AcDbEntity
  8
STANDARD
  6
CONTINUOUS
 62
     7
 48
25.4
100
AcDbText
 10
136.1784618846
 20
152.0276878278
 30
0.0
 40
3.0
  1
6,3
 50
90.0
  7
SEACAD_SEISO_TTF
 11
133.1784618846
 21
152.0276878278
 31
0.0
100
AcDbText
 73
     3
  0
TEXT
  5
1CE
330
1C6
100
AcDbEntity
  8
STANDARD
  6
CONTINUOUS
 62
     7
 48
25.4
100
AcDbText
 10
136.1784618846
 20
144.0261197453
 30
0.0
 40
3.0
  1
3x 
 50
90.0
  7
SEACAD_SEISO_TTF
 11
133.1784618846
 21
144.0261197453
 31
0.0
100
AcDbText
 73
     3
  0
TEXT
  5
1CF
330
1C6
100
AcDbEntity
  8
STANDARD
  6
CONTINUOUS
 62
     7
 48
25.4
100
AcDbText
 10
136.1784618846
 20
148.3215742907
 30
0.0
 40
3.0
  1
q
 50
90.0
  7
SEACAD_SEMECI1_TTF
 11
133.1784618846
 21
148.3215742907
 31
0.0
100
AcDbText
 73
     3
  0
TEXT
  5
1D0
330
1C6
100
AcDbEntity
  8
STANDARD
  6
CONTINUOUS
 62
     7
 48
25.4
100
AcDbText
 10
136.1784618846
 20
156.2822332824
 30
0.0
 40
3.0
  1
/
 50
90.0
  7
SEACAD_SEISO_TTF
 11
133.1784618846
 21
156.2822332824
 31
0.0
100
AcDbText
 73
     3
  0
TEXT
  5
1D1
330
1C6
100
AcDbEntity
  8
STANDARD
  6
CONTINUOUS
 62
     7
 48
25.4
100
AcDbText
 10
136.1784618846
 20
157.3731423733
 30
0.0
 40
3.0
  1
q
 50
90.0
  7
SEACAD_SEMECI1_TTF
 11
133.1784618846
 21
157.3731423733
 31
0.0
100
AcDbText
 73
     3
  0
TEXT
  5
1D2
330
1C6
100
AcDbEntity
  8
STANDARD
  6
CONTINUOUS
 62
     7
 48
25.4
100
AcDbText
 10
136.1784618846
 20
160.7792559104
 30
0.0
 40
3.0
  1
6,2
 50
90.0
  7
SEACAD_SEISO_TTF
 11
133.1784618846
 21
160.7792559104
 31
0.0
100
AcDbText
 73
     3
  0
ENDBLK
  5
1D4
330
1C6
100
AcDbEntity
  8
0
100
AcDbBlockEnd
  0
BLOCK
  5
1E2
330
1D5
100
AcDbEntity
  8
0
100
AcDbBlockBegin
  2
SE17
 70
     0
 71
     0
 10
0.0
 20
0.0
 30
0.0
  3
SE17
  1

  0
POLYLINE
  5
1D7
330
1D5
100
AcDbEntity
  8
STANDARD
  6
CONTINUOUS
 62
     7
 48
25.4
100
AcDb2dPolyline
 66
     1
 10
0.0
 20
0.0
 30
0.0
 70
     1
  0
VERTEX
  5
276
330
1D7
100
AcDbEntity
  8
STANDARD
  6
CONTINUOUS
 62
     7
100
AcDbVertex
100
AcDb2dVertex
 10
83.0822834949
 20
230.1123203358
 30
0.0
  0
VERTEX
  5
277
330
1D7
100
AcDbEntity
  8
STANDARD
  6
CONTINUOUS
 62
     7
100
AcDbVertex
100
AcDb2dVertex
 10
86.0822835209
 20
229.6123203315
 30
0.0
  0
VERTEX
  5
278
330
1D7
100
AcDbEntity
  8
STANDARD
  6
CONTINUOUS
 62
     7
100
AcDbVertex
100
AcDb2dVertex
 10
83.0822834949
 20
229.1123203271
 30
0.0
  0
VERTEX
  5
279
330
1D7
100
AcDbEntity
  8
STANDARD
  6
CONTINUOUS
 62
     7
100
AcDbVertex
100
AcDb2dVertex
 10
83.0822834949
 20
230.1123203358
 30
0.0
  0
SEQEND
  5
275
330
1D7
100
AcDbEntity
  8
STANDARD
  6
CONTINUOUS
 62
     7
 48
25.4
  0
POLYLINE
  5
1D8
330
1D5
100
AcDbEntity
  8
STANDARD
  6
CONTINUOUS
 62
     7
 48
25.4
100
AcDb2dPolyline
 66
     1
 10
0.0
 20
0.0
 30
0.0
 70
     1
  0
VERTEX
  5
27B
330
1D8
100
AcDbEntity
  8
STANDARD
  6
CONTINUOUS
 62
     7
100
AcDbVertex
100
AcDb2dVertex
 10
97.3773167805
 20
230.1123203358
 30
0.0
  0
VERTEX
  5
27C
330
1D8
100
AcDbEntity
  8
STANDARD
  6
CONTINUOUS
 62
     7
100
AcDbVertex
100
AcDb2dVertex
 10
94.3773167544
 20
229.6123203315
 30
0.0
  0
VERTEX
  5
27D
330
1D8
100
AcDbEntity
  8
STANDARD
  6
CONTINUOUS
 62
     7
100
AcDbVertex
100
AcDb2dVertex
 10
97.3773167805
 20
229.1123203271
 30
0.0
  0
VERTEX
  5
27E
330
1D8
100
AcDbEntity
  8
STANDARD
  6
CONTINUOUS
 62
     7
100
AcDbVertex
100
AcDb2dVertex
 10
97.3773167805
 20
230.1123203358
 30
0.0
  0
SEQEND
  5
27A
330
1D8
100
AcDbEntity
  8
STANDARD
  6
CONTINUOUS
 62
     7
 48
25.4
  0
LINE
  5
1D9
330
1D5
100
AcDbEntity
  8
STANDARD
  6
CONTINUOUS
 62
     7
 48
25.4
100
AcDbLine
 10
86.0822835209
 20
212.7862494864
 30
0.0
 11
86.0822835209
 21
231.1123203445
 31
0.0
  0
LINE
  5
1DA
330
1D5
100
AcDbEntity
  8
STANDARD
  6
CONTINUOUS
 62
     7
 48
25.4
100
AcDbLine
 10
94.3773167544
 20
212.7862494864
 30
0.0
 11
94.3773167544
 21
231.1123203445
 31
0.0
  0
LINE
  5
1DB
330
1D5
100
AcDbEntity
  8
STANDARD
  6
CONTINUOUS
 62
     7
 48
25.4
100
AcDbLine
 10
80.0822834687
 20
229.6123203315
 30
0.0
 11
121.1144478263
 21
229.6123203315
 31
0.0
  0
TEXT
  5
1DC
330
1D5
100
AcDbEntity
  8
STANDARD
  6
CONTINUOUS
 62
     7
 48
25.4
100
AcDbText
 10
106.9492430844
 20
230.3623203315
 30
0.0
 40
3.0
  1
8,3
  7
SEACAD_SEISO_TTF
 11
106.9492430844
 21
233.3623203315
 31
0.0
100
AcDbText
 73
     3
  0
TEXT
  5
1DD
330
1D5
100
AcDbEntity
  8
STANDARD
  6
CONTINUOUS
 62
     7
 48
25.4
100
AcDbText
 10
98.9476750018
 20
230.3623203315
 30
0.0
 40
3.0
  1
3x 
  7
SEACAD_SEISO_TTF
 11
98.9476750018
 21
233.3623203315
 31
0.0
100
AcDbText
 73
     3
  0
TEXT
  5
1DE
330
1D5
100
AcDbEntity
  8
STANDARD
  6
CONTINUOUS
 62
     7
 48
25.4
100
AcDbText
 10
103.2431295473
 20
230.3623203315
 30
0.0
 40
3.0
  1
q
  7
SEACAD_SEMECI1_TTF
 11
103.2431295473
 21
233.3623203315
 31
0.0
100
AcDbText
 73
     3
  0
TEXT
  5
1DF
330
1D5
100
AcDbEntity
  8
STANDARD
  6
CONTINUOUS
 62
     7
 48
25.4
100
AcDbText
 10
111.2719703571
 20
230.3623203315
 30
0.0
 40
3.0
  1
/
  7
SEACAD_SEISO_TTF
 11
111.2719703571
 21
233.3623203315
 31
0.0
100
AcDbText
 73
     3
  0
TEXT
  5
1E0
330
1D5
100
AcDbEntity
  8
STANDARD
  6
CONTINUOUS
 62
     7
 48
25.4
100
AcDbText
 10
112.362879448
 20
230.3623203315
 30
0.0
 40
3.0
  1
q
  7
SEACAD_SEMECI1_TTF
 11
112.362879448
 21
233.3623203315
 31
0.0
100
AcDbText
 73
     3
  0
TEXT
  5
1E1
330
1D5
100
AcDbEntity
  8
STANDARD
  6
CONTINUOUS
 62
     7
 48
25.4
100
AcDbText
 10
115.7689929851
 20
230.3623203315
 30
0.0
 40
3.0
  1
8,2
  7
SEACAD_SEISO_TTF
 11
115.7689929851
 21
233.3623203315
 31
0.0
100
AcDbText
 73
     3
  0
ENDBLK
  5
1E3
330
1D5
100
AcDbEntity
  8
0
100
AcDbBlockEnd
  0
BLOCK
  5
1EC
330
1E4
100
AcDbEntity
  8
0
100
AcDbBlockBegin
  2
SE18
 70
     0
 71
     0
 10
0.0
 20
0.0
 30
0.0
  3
SE18
  1

  0
POLYLINE
  5
1E6
330
1E4
100
AcDbEntity
  8
STANDARD
  6
CONTINUOUS
 62
     7
 48
25.4
100
AcDb2dPolyline
 66
     1
 10
0.0
 20
0.0
 30
0.0
 70
     1
  0
VERTEX
  5
280
330
1E6
100
AcDbEntity
  8
STANDARD
  6
CONTINUOUS
 62
     7
100
AcDbVertex
100
AcDb2dVertex
 10
140.1157583845
 20
266.5723592735
 30
0.0
  0
VERTEX
  5
281
330
1E6
100
AcDbEntity
  8
STANDARD
  6
CONTINUOUS
 62
     7
100
AcDbVertex
100
AcDb2dVertex
 10
139.6157583802
 20
263.5723592475
 30
0.0
  0
VERTEX
  5
282
330
1E6
100
AcDbEntity
  8
STANDARD
  6
CONTINUOUS
 62
     7
100
AcDbVertex
100
AcDb2dVertex
 10
139.1157583759
 20
266.5723592735
 30
0.0
  0
VERTEX
  5
283
330
1E6
100
AcDbEntity
  8
STANDARD
  6
CONTINUOUS
 62
     7
100
AcDbVertex
100
AcDb2dVertex
 10
140.1157583845
 20
266.5723592735
 30
0.0
  0
SEQEND
  5
27F
330
1E6
100
AcDbEntity
  8
STANDARD
  6
CONTINUOUS
 62
     7
 48
25.4
  0
POLYLINE
  5
1E7
330
1E4
100
AcDbEntity
  8
STANDARD
  6
CONTINUOUS
 62
     7
 48
25.4
100
AcDb2dPolyline
 66
     1
 10
0.0
 20
0.0
 30
0.0
 70
     1
  0
VERTEX
  5
285
330
1E7
100
AcDbEntity
  8
STANDARD
  6
CONTINUOUS
 62
     7
100
AcDbVertex
100
AcDb2dVertex
 10
140.1157583845
 20
254.5723592214
 30
0.0
  0
VERTEX
  5
286
330
1E7
100
AcDbEntity
  8
STANDARD
  6
CONTINUOUS
 62
     7
100
AcDbVertex
100
AcDb2dVertex
 10
139.6157583802
 20
257.5723592475
 30
0.0
  0
VERTEX
  5
287
330
1E7
100
AcDbEntity
  8
STANDARD
  6
CONTINUOUS
 62
     7
100
AcDbVertex
100
AcDb2dVertex
 10
139.1157583759
 20
254.5723592214
 30
0.0
  0
VERTEX
  5
288
330
1E7
100
AcDbEntity
  8
STANDARD
  6
CONTINUOUS
 62
     7
100
AcDbVertex
100
AcDb2dVertex
 10
140.1157583845
 20
254.5723592214
 30
0.0
  0
SEQEND
  5
284
330
1E7
100
AcDbEntity
  8
STANDARD
  6
CONTINUOUS
 62
     7
 48
25.4
  0
LINE
  5
1E8
330
1E4
100
AcDbEntity
  8
STANDARD
  6
CONTINUOUS
 62
     7
 48
25.4
100
AcDbLine
 10
105.3039348333
 20
263.5723592475
 30
0.0
 11
141.1157583932
 21
263.5723592475
 31
0.0
  0
LINE
  5
1E9
330
1E4
100
AcDbEntity
  8
STANDARD
  6
CONTINUOUS
 62
     7
 48
25.4
100
AcDbLine
 10
105.3039348333
 20
257.5723592475
 30
0.0
 11
141.1157583932
 21
257.5723592475
 31
0.0
  0
LINE
  5
1EA
330
1E4
100
AcDbEntity
  8
STANDARD
  6
CONTINUOUS
 62
     7
 48
25.4
100
AcDbLine
 10
139.6157583802
 20
269.5723592996
 30
0.0
 11
139.6157583802
 21
251.5723591432
 31
0.0
  0
TEXT
  5
1EB
330
1E4
100
AcDbEntity
  8
STANDARD
  6
CONTINUOUS
 62
     7
 48
25.4
100
AcDbText
 10
138.8657583802
 20
259.651904676
 30
0.0
 40
3.0
  1
6
 50
90.0
  7
SEACAD_SEISO_TTF
 11
135.8657583802
 21
259.651904676
 31
0.0
100
AcDbText
 73
     3
  0
ENDBLK
  5
1ED
330
1E4
100
AcDbEntity
  8
0
100
AcDbBlockEnd
  0
BLOCK
  5
1F6
330
1EE
100
AcDbEntity
  8
0
100
AcDbBlockBegin
  2
SE19
 70
     0
 71
     0
 10
0.0
 20
0.0
 30
0.0
  3
SE19
  1

  0
POLYLINE
  5
1F0
330
1EE
100
AcDbEntity
  8
STANDARD
  6
CONTINUOUS
 62
     7
 48
25.4
100
AcDb2dPolyline
 66
     1
 10
0.0
 20
0.0
 30
0.0
 70
     1
  0
VERTEX
  5
28A
330
1F0
100
AcDbEntity
  8
STANDARD
  6
CONTINUOUS
 62
     7
100
AcDbVertex
100
AcDb2dVertex
 10
103.7995638683
 20
33.9456831597
 30
0.0
  0
VERTEX
  5
28B
330
1F0
100
AcDbEntity
  8
STANDARD
  6
CONTINUOUS
 62
     7
100
AcDbVertex
100
AcDb2dVertex
 10
106.7995638944
 20
34.4456831641
 30
0.0
  0
VERTEX
  5
28C
330
1F0
100
AcDbEntity
  8
STANDARD
  6
CONTINUOUS
 62
     7
100
AcDbVertex
100
AcDb2dVertex
 10
103.7995638683
 20
34.9456831684
 30
0.0
  0
VERTEX
  5
28D
330
1F0
100
AcDbEntity
  8
STANDARD
  6
CONTINUOUS
 62
     7
100
AcDbVertex
100
AcDb2dVertex
 10
103.7995638683
 20
33.9456831597
 30
0.0
  0
SEQEND
  5
289
330
1F0
100
AcDbEntity
  8
STANDARD
  6
CONTINUOUS
 62
     7
 48
25.4
  0
POLYLINE
  5
1F1
330
1EE
100
AcDbEntity
  8
STANDARD
  6
CONTINUOUS
 62
     7
 48
25.4
100
AcDb2dPolyline
 66
     1
 10
0.0
 20
0.0
 30
0.0
 70
     1
  0
VERTEX
  5
28F
330
1F1
100
AcDbEntity
  8
STANDARD
  6
CONTINUOUS
 62
     7
100
AcDbVertex
100
AcDb2dVertex
 10
82.3498001637
 20
33.9456831597
 30
0.0
  0
VERTEX
  5
290
330
1F1
100
AcDbEntity
  8
STANDARD
  6
CONTINUOUS
 62
     7
100
AcDbVertex
100
AcDb2dVertex
 10
79.3498001377
 20
34.4456831641
 30
0.0
  0
VERTEX
  5
291
330
1F1
100
AcDbEntity
  8
STANDARD
  6
CONTINUOUS
 62
     7
100
AcDbVertex
100
AcDb2dVertex
 10
82.3498001637
 20
34.9456831684
 30
0.0
  0
VERTEX
  5
292
330
1F1
100
AcDbEntity
  8
STANDARD
  6
CONTINUOUS
 62
     7
100
AcDbVertex
100
AcDb2dVertex
 10
82.3498001637
 20
33.9456831597
 30
0.0
  0
SEQEND
  5
28E
330
1F1
100
AcDbEntity
  8
STANDARD
  6
CONTINUOUS
 62
     7
 48
25.4
  0
LINE
  5
1F2
330
1EE
100
AcDbEntity
  8
STANDARD
  6
CONTINUOUS
 62
     7
 48
25.4
100
AcDbLine
 10
106.7995638943
 20
114.0337536759
 30
0.0
 11
106.7995638943
 21
32.9456831511
 31
0.0
  0
LINE
  5
1F3
330
1EE
100
AcDbEntity
  8
STANDARD
  6
CONTINUOUS
 62
     7
 48
25.4
100
AcDbLine
 10
79.3498001376
 20
109.0837536759
 30
0.0
 11
79.3498001376
 21
32.9456831511
 31
0.0
  0
LINE
  5
1F4
330
1EE
100
AcDbEntity
  8
STANDARD
  6
CONTINUOUS
 62
     7
 48
25.4
100
AcDbLine
 10
106.7995638943
 20
34.4456831641
 30
0.0
 11
79.349799583
 21
34.4456831641
 31
0.0
  0
TEXT
  5
1F5
330
1EE
100
AcDbEntity
  8
STANDARD
  6
CONTINUOUS
 62
     7
 48
25.4
100
AcDbText
 10
89.1883181023
 20
35.1956831641
 30
0.0
 40
3.0
  1
27,45
  7
SEACAD_SEISO_TTF
 11
89.1883181023
 21
38.1956831641
 31
0.0
100
AcDbText
 73
     3
  0
ENDBLK
  5
1F7
330
1EE
100
AcDbEntity
  8
0
100
AcDbBlockEnd
  0
BLOCK
  5
200
330
1F8
100
AcDbEntity
  8
0
100
AcDbBlockBegin
  2
SE20
 70
     0
 71
     0
 10
0.0
 20
0.0
 30
0.0
  3
SE20
  1

  0
POLYLINE
  5
1FA
330
1F8
100
AcDbEntity
  8
STANDARD
  6
CONTINUOUS
 62
     7
 48
25.4
100
AcDb2dPolyline
 66
     1
 10
0.0
 20
0.0
 30
0.0
 70
     1
  0
VERTEX
  5
294
330
1FA
100
AcDbEntity
  8
STANDARD
  6
CONTINUOUS
 62
     7
100
AcDbVertex
100
AcDb2dVertex
 10
85.7298001116
 20
60.6945741967
 30
0.0
  0
VERTEX
  5
295
330
1FA
100
AcDbEntity
  8
STANDARD
  6
CONTINUOUS
 62
     7
100
AcDbVertex
100
AcDb2dVertex
 10
88.7298001377
 20
61.194574201
 30
0.0
  0
VERTEX
  5
296
330
1FA
100
AcDbEntity
  8
STANDARD
  6
CONTINUOUS
 62
     7
100
AcDbVertex
100
AcDb2dVertex
 10
85.7298001116
 20
61.6945742054
 30
0.0
  0
VERTEX
  5
297
330
1FA
100
AcDbEntity
  8
STANDARD
  6
CONTINUOUS
 62
     7
100
AcDbVertex
100
AcDb2dVertex
 10
85.7298001116
 20
60.6945741967
 30
0.0
  0
SEQEND
  5
293
330
1FA
100
AcDbEntity
  8
STANDARD
  6
CONTINUOUS
 62
     7
 48
25.4
  0
POLYLINE
  5
1FB
330
1F8
100
AcDbEntity
  8
STANDARD
  6
CONTINUOUS
 62
     7
 48
25.4
100
AcDb2dPolyline
 66
     1
 10
0.0
 20
0.0
 30
0.0
 70
     1
  0
VERTEX
  5
299
330
1FB
100
AcDbEntity
  8
STANDARD
  6
CONTINUOUS
 62
     7
100
AcDbVertex
100
AcDb2dVertex
 10
94.7298001637
 20
60.6945741967
 30
0.0
  0
VERTEX
  5
29A
330
1FB
100
AcDbEntity
  8
STANDARD
  6
CONTINUOUS
 62
     7
100
AcDbVertex
100
AcDb2dVertex
 10
91.7298001377
 20
61.194574201
 30
0.0
  0
VERTEX
  5
29B
330
1FB
100
AcDbEntity
  8
STANDARD
  6
CONTINUOUS
 62
     7
100
AcDbVertex
100
AcDb2dVertex
 10
94.7298001637
 20
61.6945742054
 30
0.0
  0
VERTEX
  5
29C
330
1FB
100
AcDbEntity
  8
STANDARD
  6
CONTINUOUS
 62
     7
100
AcDbVertex
100
AcDb2dVertex
 10
94.7298001637
 20
60.6945741967
 30
0.0
  0
SEQEND
  5
298
330
1FB
100
AcDbEntity
  8
STANDARD
  6
CONTINUOUS
 62
     7
 48
25.4
  0
LINE
  5
1FC
330
1F8
100
AcDbEntity
  8
STANDARD
  6
CONTINUOUS
 62
     7
 48
25.4
100
AcDbLine
 10
88.7298001376
 20
68.2837536759
 30
0.0
 11
88.7298001376
 21
59.694574188
 31
0.0
  0
LINE
  5
1FD
330
1F8
100
AcDbEntity
  8
STANDARD
  6
CONTINUOUS
 62
     7
 48
25.4
100
AcDbLine
 10
91.7298001376
 20
68.2837536759
 30
0.0
 11
91.7298001376
 21
59.694574188
 31
0.0
  0
LINE
  5
1FE
330
1F8
100
AcDbEntity
  8
STANDARD
  6
CONTINUOUS
 62
     7
 48
25.4
100
AcDbLine
 10
53.2591728893
 20
61.1945742011
 30
0.0
 11
97.7297997502
 21
61.1945742011
 31
0.0
  0
TEXT
  5
1FF
330
1F8
100
AcDbEntity
  8
STANDARD
  6
CONTINUOUS
 62
     7
 48
25.4
100
AcDbText
 10
54.30917417
 20
61.9445742011
 30
0.0
 40
3.0
  1
4-kt. SW 3mm
  7
SEACAD_SEISO_TTF
 11
54.30917417
 21
64.9445742011
 31
0.0
100
AcDbText
 73
     3
  0
ENDBLK
  5
201
330
1F8
100
AcDbEntity
  8
0
100
AcDbBlockEnd
  0
ENDSEC
  0
SECTION
  2
ENTITIES
  0
INSERT
  5
2F
330
1F
100
AcDbEntity
  8
0
100
AcDbBlockReference
  2
SE
 10
0.0
 20
0.0
 30
0.0
  0
INSERT
  5
36
330
1F
100
AcDbEntity
  8
0
100
AcDbBlockReference
  2
SE1
 10
0.0
 20
0.0
 30
0.0
  0
INSERT
  5
3B
330
1F
100
AcDbEntity
  8
0
100
AcDbBlockReference
  2
SE2
 10
0.0
 20
0.0
 30
0.0
  0
INSERT
  5
40
330
1F
100
AcDbEntity
  8
0
100
AcDbBlockReference
  2
SE3
 10
0.0
 20
0.0
 30
0.0
  0
INSERT
  5
115
330
1F
100
AcDbEntity
  8
0
100
AcDbBlockReference
  2
SE4
 10
0.0
 20
0.0
 30
0.0
  0
INSERT
  5
152
330
1F
100
AcDbEntity
  8
0
100
AcDbBlockReference
  2
SE5
 10
0.0
 20
0.0
 30
0.0
  0
INSERT
  5
15E
330
1F
100
AcDbEntity
  8
0
100
AcDbBlockReference
  2
SE6
 10
0.0
 20
0.0
 30
0.0
  0
INSERT
  5
168
330
1F
100
AcDbEntity
  8
0
100
AcDbBlockReference
  2
SE7
 10
0.0
 20
0.0
 30
0.0
  0
INSERT
  5
172
330
1F
100
AcDbEntity
  8
0
100
AcDbBlockReference
  2
SE8
 10
0.0
 20
0.0
 30
0.0
  0
INSERT
  5
17C
330
1F
100
AcDbEntity
  8
0
100
AcDbBlockReference
  2
SE9
 10
0.0
 20
0.0
 30
0.0
  0
INSERT
  5
186
330
1F
100
AcDbEntity
  8
0
100
AcDbBlockReference
  2
SE10
 10
0.0
 20
0.0
 30
0.0
  0
INSERT
  5
190
330
1F
100
AcDbEntity
  8
0
100
AcDbBlockReference
  2
SE11
 10
0.0
 20
0.0
 30
0.0
  0
INSERT
  5
19A
330
1F
100
AcDbEntity
  8
0
100
AcDbBlockReference
  2
SE12
 10
0.0
 20
0.0
 30
0.0
  0
INSERT
  5
1A8
330
1F
100
AcDbEntity
  8
0
100
AcDbBlockReference
  2
SE13
 10
0.0
 20
0.0
 30
0.0
  0
INSERT
  5
1B3
330
1F
100
AcDbEntity
  8
0
100
AcDbBlockReference
  2
SE14
 10
0.0
 20
0.0
 30
0.0
  0
INSERT
  5
1BD
330
1F
100
AcDbEntity
  8
0
100
AcDbBlockReference
  2
SE15
 10
0.0
 20
0.0
 30
0.0
  0
INSERT
  5
1C7
330
1F
100
AcDbEntity
  8
0
100
AcDbBlockReference
  2
SE16
 10
0.0
 20
0.0
 30
0.0
  0
INSERT
  5
1D6
330
1F
100
AcDbEntity
  8
0
100
AcDbBlockReference
  2
SE17
 10
0.0
 20
0.0
 30
0.0
  0
INSERT
  5
1E5
330
1F
100
AcDbEntity
  8
0
100
AcDbBlockReference
  2
SE18
 10
0.0
 20
0.0
 30
0.0
  0
INSERT
  5
1EF
330
1F
100
AcDbEntity
  8
0
100
AcDbBlockReference
  2
SE19
 10
0.0
 20
0.0
 30
0.0
  0
INSERT
  5
1F9
330
1F
100
AcDbEntity
  8
0
100
AcDbBlockReference
  2
SE20
 10
0.0
 20
0.0
 30
0.0
  0
ENDSEC
  0
SECTION
  2
OBJECTS
  0
DICTIONARY
  5
C
330
0
100
AcDbDictionary
  3
ACAD_GROUP
350
D
  3
ACAD_LAYOUT
350
1A
  3
ACAD_MLINESTYLE
350
17
  3
ACAD_PLOTSETTINGS
350
19
  3
ACAD_TABLESTYLE
350
2A
  3
ACDBVARIABLEDICTIONARY
350
2C
1001
ACAD
1000
TREAT_AS_HARD
1070
     0
  0
DICTIONARY
  5
29D
330
29
100
AcDbDictionary
  3
ACAD_XREC_ROUNDTRIP
360
29E
  0
DICTIONARY
  5
D
102
{ACAD_REACTORS
330
C
102
}
330
C
100
AcDbDictionary
1001
ACAD
1000
TREAT_AS_HARD
1070
     0
  0
DICTIONARY
  5
1A
102
{ACAD_REACTORS
330
C
102
}
330
C
100
AcDbDictionary
1001
ACAD
1000
TREAT_AS_HARD
1070
     0
  0
DICTIONARY
  5
17
102
{ACAD_REACTORS
330
C
102
}
330
C
100
AcDbDictionary
  3
STANDARD
350
18
1001
ACAD
1000
TREAT_AS_HARD
1070
     0
  0
DICTIONARY
  5
19
102
{ACAD_REACTORS
330
C
102
}
330
C
100
AcDbDictionary
1001
ACAD
1000
TREAT_AS_HARD
1070
     0
  0
DICTIONARY
  5
2A
102
{ACAD_REACTORS
330
C
102
}
330
C
100
AcDbDictionary
  3
STANDARD
350
2B
1001
ACAD
1000
TREAT_AS_HARD
1070
     0
  0
DICTIONARY
  5
2C
102
{ACAD_REACTORS
330
C
102
}
330
C
100
AcDbDictionary
  3
CTABLESTYLE
350
2D
1001
ACAD
1000
TREAT_AS_HARD
1070
     0
  0
XRECORD
  5
29E
102
{ACAD_REACTORS
330
29D
102
}
330
29D
100
AcDbXrecord
102
UCS
 74
     0
 71
     1
 10
0.0
 20
0.0
 30
0.0
 10
1.0
 20
0.0
 30
0.0
 10
0.0
 20
1.0
 30
0.0
146
0.0
 79
     0
102
VIEW
281
     0
  0
MLINESTYLE
  5
18
102
{ACAD_REACTORS
330
17
102
}
330
17
100
AcDbMlineStyle
  2
Standard
 70
     0
  3

 62
   256
 51
90.0
 52
90.0
 71
     2
 49
0.5
 62
   256
  6
BYLAYER
 49
-0.5
 62
   256
  6
BYLAYER
  0
TABLESTYLE
  5
2B
102
{ACAD_REACTORS
330
2A
102
}
330
2A
100
AcDbTableStyle
  3
Standard
 70
     0
 71
     0
 40
0.06
 41
0.06
280
     0
281
     0
  7
STANDARD
140
0.18
170
     2
 62
     0
 63
     7
283
     0
274
    -2
284
     1
 64
     0
275
    -2
285
     1
 65
     0
276
    -2
286
     1
 66
     0
277
    -2
287
     1
 67
     0
278
    -2
288
     1
 68
     0
279
    -2
289
     1
 69
     0
  7
STANDARD
140
0.25
170
     5
 62
     0
 63
     7
283
     0
274
    -2
284
     1
 64
     0
275
    -2
285
     1
 65
     0
276
    -2
286
     1
 66
     0
277
    -2
287
     1
 67
     0
278
    -2
288
     1
 68
     0
279
    -2
289
     1
 69
     0
  7
STANDARD
140
0.18
170
     5
 62
     0
 63
     7
283
     0
274
    -2
284
     1
 64
     0
275
    -2
285
     1
 65
     0
276
    -2
286
     1
 66
     0
277
    -2
287
     1
 67
     0
278
    -2
288
     1
 68
     0
279
    -2
289
     1
 69
     0
  0
DICTIONARYVAR
  5
2D
102
{ACAD_REACTORS
330
2C
102
}
330
2C
100
DictionaryVariables
280
     0
  1
Standard
  0
ENDSEC
  0
EOF
