  0
SECTION
  2
HEADER
  0
ENDSEC
  0
SECTION
  2
TABLES
  0
TABLE
  2
LTYPE
 70
     4
  0
LTYPE
  2
CONTINUOUS
 70
    64
  3
Style 1 Solid Line
 72
    65
 73
     0
 40
             .000000
  0
LTYPE
  2
DASHED
 70
    64
  3
Style 1 Dashed Line
 72
    65
 73
     2
 40
             .300000
 49
             .170000
 49
            -.130000
  0
LTYPE
  2
DSH1
 70
64
  3
Style 2 Dashed Line
 72
65
 73
2
 40
.075
 49
.04
 49
-.035
  0
LTYPE
  2
DSH2
 70
64
  3
Style 2 Dashed Line
 72
65
 73
2
 40
.15
 49
.11
 49
-.04
  0
LTYPE
  2
DSH3
 70
64
  3
Style 2 Dashed Line
 72
65
 73
2
 40
.2
 49
.15
 49
-.05
  0
LTYPE
  2
DSH4
 70
64
  3
Style 2 Dashed Line
 72
65
 73
2
 40
.36
 49
.28
 49
-.08
  0
LTYPE
  2
DSH5
 70
64
  3
Style 2 Dashed Line
 72
65
 73
2
 40
.47
 49
.39
 49
-.08
  0
LTYPE
  2
DSH6
 70
64
  3
Style 2 Dashed Line
 72
65
 73
2
 40
.9
 49
.81
 49
-.09
  0
LTYPE
  2
STCH
 70
64
  3
Style 2 Dashed Line
 72
65
 73
2
 40
.12
 49
.06
 49
-.06
  0
LTYPE
  2
CENTER
 70
    64
  3
Style 1 Center Line
 72
    65
 73
     4
 40
             .700000
 49
             .400000
 49
            -.100000
 49
             .100000
 49
            -.100000
  0
LTYPE
  2
CL1
 70
64
  3
Style 2 Center Line
 72
65
 73
4
 40
.7
 49
.45
 49
-.06
 49
.13
 49
-.06
  0
LTYPE
  2
CL2
 70
64
  3
Style 2 Center Line
 72
65
 73
4
 40
1.2
 49
1.01
 49
-.06
 49
.11
 49
-.06
  0
LTYPE
  2
CL3
 70
64
  3
Style 2 Center Line
 72
65
 73
4
 40
1.2
 49
.98
 49
-.06
 49
.1
 49
-.06
  0
LTYPE
  2
CL4
 70
64
  3
Style 2 Center Line
 72
65
 73
4
 40
2.2
 49
1.93
 49
-.07
 49
.13
 49
-.07
  0
LTYPE
  2
CL5
 70
64
  3
Style 2 Center Line
 72
65
 73
4
 40
3.0
 49
2.65
 49
-.1
 49
.15
 49
-.1
  0
LTYPE
  2
PHANTOM
 70
    64
  3
Style 1 Phantom Line
 72
    65
 73
     6
 40
            1.000000
 49
             .500000
 49
            -.100000
 49
             .100000
 49
            -.100000
 49
             .100000
 49
            -.100000
  0
LTYPE
  2
PL1
 70
64
  3
Style 2 Phantom Line
 72
65
 73
6
 40
1.0
 49
.6
 49
-.08
 49
.08
 49
-.08
 49
.08
 49
-.08
  0
LTYPE
  2
PL2
 70
64
  3
Style 2 Phantom Line
 72
65
 73
6
 40
1.08
 49
.6
 49
-.08
 49
.12
 49
-.08
 49
.12
 49
-.08
  0
LTYPE
  2
PL3
 70
64
  3
Style 2 Phantom Line
 72
65
 73
6
 40
2.0
 49
1.44
 49
-.08
 49
.16
 49
-.08
 49
.16
 49
-.08
  0
LTYPE
  2
SBK1
 70
64
  3
Style 2 Line
 72
65
 73
8
 40
2.7
 49
2.08
 49
-.08
 49
.1
 49
-.08
 49
.1
 49
-.08
 49
.1
 49
-.08
  0
LTYPE
  2
SBK2
 70
64
  3
Style 2 Line
 72
65
 73
8
 40
3.71
 49
3.0
 49
-.08
 49
.13
 49
-.08
 49
.13
 49
-.08
 49
.13
 49
-.08
  0
LTYPE
  2
MTCH
 70
64
  3
Style 2 Line
 72
65
 73
6
 40
2.0
 49
1.44
 49
-.08
 49
.16
 49
-.08
 49
.16
 49
-.08
  0
LTYPE
  2
DOT
 70
    64
  3
Style 1 Dot Line
 72
    65
 73
     2
 40
           .250000
 49
           .000000
 49
          -.250000
  0
ENDTAB
  0
TABLE
  2
LAYER
 70
    10
  0
LAYER
  2
0
 70
     0
 62
     7
  6
CONTINUOUS
  0
LAYER
  2
DASHED
 70
     0
 62
     7
  6
DASHED
  0
LAYER
  2
CENTER
 70
     0
 62
     7
  6
CENTER
  0
LAYER
  2
PHANTOM
 70
     0
 62
     7
  6
PHANTOM
  0
LAYER
  2
DIMENSIONS
 70
     0
 62
     7
  6
CONTINUOUS
  0
LAYER
  2
99NC
 70
     0
 62
     7
  6
DOT
  0
LAYER
  2
NC
 70
     0
 62
     7
  6
DOT
  0
LAYER
  2
999
 70
     1
 62
     7
  6
CONTINUOUS
  0
ENDTAB
  0
TABLE
  2
STYLE
 70
     1
  0
STYLE
  2
STANDARD
 70
     0
 40
             .000000
 50
             .000000
 71
     0
 41
            1.000000
 42
            1.000000
  3
MONOTXT
  0
ENDTAB
  0
TABLE
  2
VIEW
 70
     1
  0
ENDTAB
  0
ENDSEC
  0
SECTION
  2
BLOCKS
  0
BLOCK
  8
0
  2
ELLIPSE
 70
     0
 10
             .000000
 20
             .000000
  0
CIRCLE
  8
0
 10
             .000000
 20
             .000000
 40
            1.000000
  0
ENDBLK
  8
0
  0
BLOCK
  8
0
  2
1
 70
     0
 10
             .000000
 20
             .000000
  0
LINE
  8
0
 10
           15.000000
 20
             .000000
 11
           15.000000
 21
          -21.000000
  0
LINE
  8
0
 10
             .000000
 20
           -7.000000
 11
           55.000000
 21
           -7.000000
  0
LINE
  8
0
 10
           23.000000
 20
           -7.000000
 11
           23.000000
 21
          -21.000000
  0
LINE
  8
0
 10
           31.000000
 20
           -7.000000
 11
           31.000000
 21
          -21.000000
  0
LINE
  8
0
 10
           39.000000
 20
           -7.000000
 11
           39.000000
 21
          -21.000000
  0
LINE
  8
0
 10
           47.000000
 20
           -7.000000
 11
           47.000000
 21
          -21.000000
  0
LINE
  8
0
 10
           55.000000
 20
             .000000
 11
           55.000000
 21
          -21.000000
  0
LINE
  8
0
 10
           15.000000
 20
          -14.000000
 11
           55.000000
 21
          -14.000000
  0
LINE
  8
0
 10
             .000000
 20
          -21.000000
 11
           55.000000
 21
          -21.000000
  0
LINE
  8
0
 10
             .000000
 20
             .000000
 11
           55.000000
 21
             .000000
  0
LINE
  8
0
 10
             .000000
 20
             .000000
 11
             .000000
 21
          -21.000000
  0
LINE
  8
0
 10
           32.820570
 20
             .000000
 11
           32.820570
 21
           -7.000000
  0
TEXT
  8
0
 10
           33.189010
 20
          -12.510270
 40
            3.000000
  1
35
 50
             .000000
 41
             .714286
  0
TEXT
  8
0
 10
           25.357420
 20
          -12.510270
 40
            3.000000
  1
30
 50
             .000000
 41
             .714286
  0
TEXT
  8
0
 10
           17.260020
 20
          -12.396500
 40
            3.000000
  1
25
 50
             .000000
 41
             .714286
  0
TEXT
  8
0
 10
            5.685113
 20
          -14.964000
 40
            3.500000
  1
A
 50
             .000000
 41
             .714286
  0
TEXT
  8
0
 10
           41.390820
 20
          -12.396500
 40
            3.000000
  1
40
 50
             .000000
 41
             .714286
  0
TEXT
  8
0
 10
           49.013570
 20
          -12.358580
 40
            3.000000
  1
45
 50
             .000000
 41
             .714286
  0
TEXT
  8
0
 10
            2.683862
 20
           -5.340019
 40
            3.500000
  1
Ausf.
 50
             .000000
 41
             .714286
  0
TEXT
  8
0
 10
           17.133710
 20
          -19.308240
 40
            3.000000
  1
50
 50
             .000000
 41
             .714286
  0
TEXT
  8
0
 10
           25.393540
 20
          -19.308240
 40
            3.000000
  1
55
 50
             .000000
 41
             .714286
  0
TEXT
  8
0
 10
           33.268590
 20
          -19.163070
 40
            3.000000
  1
60
 50
             .000000
 41
             .714286
  0
TEXT
  8
0
 10
           41.391600
 20
          -19.163070
 40
            3.000000
  1
65
 50
             .000000
 41
             .714286
  0
TEXT
  8
0
 10
           19.356860
 20
           -5.414513
 40
            3.000000
  1
eckig
 50
             .000000
 41
             .714286
  0
TEXT
  8
0
 10
           39.595990
 20
           -5.303505
 40
            3.000000
  1
abger.
 50
             .000000
 41
             .714286
  0
ENDBLK
  8
0
  0
BLOCK
  8
0
  2
*d1
 70
    65
 10
             .000000
 20
             .000000
  0
TEXT
  8
0
 10
           28.750110
 20
          107.198600
 40
            3.500000
  1
 27.25[
 50
           90.000000
 41
            1.000000
 72
     1
 11
           28.750210
 21
          119.448600
  0
TEXT
  8
0
 10
           34.000110
 20
          107.198600
 40
            3.500000
  1
-0.15]
 50
           90.000000
 41
            1.000000
 72
     1
 11
           34.000200
 21
          117.698600
  0
LINE
  8
0
 10
           29.625290
 20
          137.897500
 11
           30.625430
 21
          134.897600
  0
LINE
  8
0
 10
           29.625290
 20
          137.897500
 11
           28.625140
 21
          134.897600
  0
LINE
  8
0
 10
           29.625290
 20
          120.185000
 11
           28.625140
 21
          123.184900
  0
LINE
  8
0
 10
           29.625290
 20
          120.185000
 11
           30.625430
 21
          123.184900
  0
LINE
  8
0
 10
           29.625290
 20
          137.897500
 11
           29.625290
 21
          120.185000
  0
LINE
  8
0
 10
           17.393750
 20
          137.897500
 11
           30.615880
 21
          137.897500
  0
LINE
  8
0
 10
           17.393750
 20
          120.185000
 11
           30.615880
 21
          120.185000
  0
ENDBLK
  8
0
  0
BLOCK
  8
0
  2
*d2
 70
    65
 10
             .000000
 20
             .000000
  0
TEXT
  8
0
 10
             .213967
 20
          107.435600
 40
            3.500000
  1
 32.25[
 50
           90.000000
 41
            1.000000
 72
     1
 11
             .214070
 21
          119.685600
  0
TEXT
  8
0
 10
            5.463967
 20
          107.435600
 40
            3.500000
  1
-0.15]
 50
           90.000000
 41
            1.000000
 72
     1
 11
            5.464056
 21
          117.935600
  0
LINE
  8
0
 10
            1.089152
 20
          139.522500
 11
            2.089298
 21
          136.522600
  0
LINE
  8
0
 10
            1.089152
 20
          139.522500
 11
             .089006
 21
          136.522600
  0
LINE
  8
0
 10
            1.089152
 20
          118.560000
 11
             .089005
 21
          121.559900
  0
LINE
  8
0
 10
            1.089152
 20
          118.560000
 11
            2.089298
 21
          121.559900
  0
LINE
  8
0
 10
            1.089152
 20
          139.522500
 11
            1.089152
 21
          118.560000
  0
LINE
  8
0
 10
           10.243730
 20
          139.522500
 11
             .098557
 21
          139.522500
  0
LINE
  8
0
 10
           10.243730
 20
          118.560000
 11
             .098557
 21
          118.560000
  0
ENDBLK
  8
0
  0
BLOCK
  8
0
  2
*d3
 70
    65
 10
             .000000
 20
             .000000
  0
TEXT
  8
0
 10
            9.465290
 20
          109.251400
 40
            3.500000
  1
 3.25[
 50
             .000000
 41
            1.000000
 72
     1
 11
           19.965290
 21
          109.251400
  0
TEXT
  8
0
 10
            9.465290
 20
          104.001400
 40
            3.500000
  1
-0.15]
 50
             .000000
 41
            1.000000
 72
     1
 11
           19.965290
 21
          104.001400
  0
LINE
  8
0
 10
           19.506260
 20
          108.376400
 11
           34.175290
 21
          108.376400
  0
LINE
  8
0
 10
           17.393750
 20
          108.376400
 11
           14.393810
 21
          107.376300
  0
LINE
  8
0
 10
           17.393750
 20
          108.376400
 11
           14.393810
 21
          109.376600
  0
LINE
  8
0
 10
           19.506260
 20
          108.376400
 11
           22.506200
 21
          109.376600
  0
LINE
  8
0
 10
           19.506260
 20
          108.376400
 11
           22.506200
 21
          107.376300
  0
LINE
  8
0
 10
            9.488080
 20
          108.376400
 11
           17.393750
 21
          108.376400
  0
LINE
  8
0
 10
           27.411930
 20
          108.376400
 11
           19.506260
 21
          108.376400
  0
LINE
  8
0
 10
           17.393750
 20
          108.376400
 11
           19.506260
 21
          108.376400
  0
LINE
  8
0
 10
           17.393750
 20
          118.560000
 11
           17.393750
 21
          107.385800
  0
LINE
  8
0
 10
           19.506260
 20
          118.560000
 11
           19.506260
 21
          107.385800
  0
ENDBLK
  8
0
  0
BLOCK
  8
0
  2
*d4
 70
    65
 10
             .000000
 20
             .000000
  0
TEXT
  8
0
 10
            6.713543
 20
          100.917800
 40
            3.500000
  1
 14.25[
 50
             .000000
 41
            1.000000
 72
     1
 11
           18.963540
 21
          100.917800
  0
TEXT
  8
0
 10
            6.713543
 20
           95.667770
 40
            3.500000
  1
-0.15]
 50
             .000000
 41
            1.000000
 72
     1
 11
           17.213540
 21
           95.667770
  0
LINE
  8
0
 10
           19.506260
 20
          100.042800
 11
           34.241040
 21
          100.042800
  0
LINE
  8
0
 10
           10.243730
 20
          100.042800
 11
            7.243791
 21
           99.042620
  0
LINE
  8
0
 10
           10.243730
 20
          100.042800
 11
            7.243791
 21
          101.042900
  0
LINE
  8
0
 10
           19.506260
 20
          100.042800
 11
           22.506200
 21
          101.042900
  0
LINE
  8
0
 10
           19.506260
 20
          100.042800
 11
           22.506200
 21
           99.042620
  0
LINE
  8
0
 10
            2.338059
 20
          100.042800
 11
           10.243730
 21
          100.042800
  0
LINE
  8
0
 10
           27.411930
 20
          100.042800
 11
           19.506260
 21
          100.042800
  0
LINE
  8
0
 10
           10.243730
 20
          100.042800
 11
           19.506260
 21
          100.042800
  0
LINE
  8
0
 10
           10.243730
 20
          118.560000
 11
           10.243730
 21
           99.052170
  0
LINE
  8
0
 10
           19.506260
 20
          118.560000
 11
           19.506260
 21
           99.052170
  0
ENDBLK
  8
0
  0
BLOCK
  8
0
  2
*d5
 70
    65
 10
             .000000
 20
             .000000
  0
TEXT
  8
0
 10
            5.463337
 20
           86.407730
 40
            3.500000
  1
 8.25[
 50
             .000000
 41
            1.000000
 72
     1
 11
           15.963340
 21
           86.407730
  0
TEXT
  8
0
 10
            5.463337
 20
           81.157730
 40
            3.500000
  1
-0.15]
 50
             .000000
 41
            1.000000
 72
     1
 11
           15.963340
 21
           81.157730
  0
LINE
  8
0
 10
           17.556230
 20
           85.532730
 11
           30.173360
 21
           85.532730
  0
LINE
  8
0
 10
           12.193760
 20
           85.532730
 11
            9.193819
 21
           84.532590
  0
LINE
  8
0
 10
           12.193760
 20
           85.532730
 11
            9.193819
 21
           86.532880
  0
LINE
  8
0
 10
           17.556230
 20
           85.532730
 11
           20.556170
 21
           86.532880
  0
LINE
  8
0
 10
           17.556230
 20
           85.532730
 11
           20.556170
 21
           84.532590
  0
LINE
  8
0
 10
            4.288088
 20
           85.532730
 11
           12.193760
 21
           85.532730
  0
LINE
  8
0
 10
           25.461900
 20
           85.532730
 11
           17.556230
 21
           85.532730
  0
LINE
  8
0
 10
           12.193760
 20
           85.532730
 11
           17.556230
 21
           85.532730
  0
LINE
  8
0
 10
           12.193760
 20
           75.399990
 11
           12.193760
 21
           86.523330
  0
LINE
  8
0
 10
           17.556230
 20
           75.399990
 11
           17.556230
 21
           86.523330
  0
ENDBLK
  8
0
  0
BLOCK
  8
0
  2
*d6
 70
    65
 10
             .000000
 20
             .000000
  0
TEXT
  8
0
 10
            3.027673
 20
           41.676000
 40
            3.500000
  1
 35.25[
 50
           90.000000
 41
            1.000000
 72
     1
 11
            3.027776
 21
           53.926000
  0
TEXT
  8
0
 10
            8.277674
 20
           41.675960
 40
            3.500000
  1
-0.15]
 50
           90.000000
 41
            1.000000
 72
     1
 11
            8.277761
 21
           52.175960
  0
LINE
  8
0
 10
            3.902860
 20
           75.399990
 11
            4.903006
 21
           72.400050
  0
LINE
  8
0
 10
            3.902860
 20
           75.399990
 11
            2.902714
 21
           72.400050
  0
LINE
  8
0
 10
            3.902860
 20
           52.487490
 11
            2.902714
 21
           55.487440
  0
LINE
  8
0
 10
            3.902860
 20
           52.487490
 11
            4.903006
 21
           55.487440
  0
LINE
  8
0
 10
            3.902860
 20
           75.399990
 11
            3.902860
 21
           52.487490
  0
LINE
  8
0
 10
           12.193760
 20
           75.399990
 11
            2.912264
 21
           75.399990
  0
LINE
  8
0
 10
           12.193760
 20
           52.487490
 11
            2.912264
 21
           52.487490
  0
ENDBLK
  8
0
  0
BLOCK
  8
0
  2
*d7
 70
    65
 10
             .000000
 20
             .000000
  0
TEXT
  8
0
 10
           28.750110
 20
          107.198600
 40
            3.500000
  1
 27.25[
 50
           90.000000
 41
            1.000000
 72
     1
 11
           28.750210
 21
          119.448600
  0
TEXT
  8
0
 10
           34.000110
 20
          107.198600
 40
            3.500000
  1
-0.15]
 50
           90.000000
 41
            1.000000
 72
     1
 11
           34.000200
 21
          117.698600
  0
LINE
  8
0
 10
           29.625290
 20
          137.897500
 11
           30.625430
 21
          134.897600
  0
LINE
  8
0
 10
           29.625290
 20
          137.897500
 11
           28.625140
 21
          134.897600
  0
LINE
  8
0
 10
           29.625290
 20
          120.185000
 11
           28.625140
 21
          123.184900
  0
LINE
  8
0
 10
           29.625290
 20
          120.185000
 11
           30.625430
 21
          123.184900
  0
LINE
  8
0
 10
           29.625290
 20
          137.897500
 11
           29.625290
 21
          120.185000
  0
LINE
  8
0
 10
           17.393750
 20
          137.897500
 11
           30.615880
 21
          137.897500
  0
LINE
  8
0
 10
           17.393750
 20
          120.185000
 11
           30.615880
 21
          120.185000
  0
ENDBLK
  8
0
  0
BLOCK
  8
0
  2
*d8
 70
    65
 10
             .000000
 20
             .000000
  0
TEXT
  8
0
 10
             .213967
 20
          107.435600
 40
            3.500000
  1
 32.25[
 50
           90.000000
 41
            1.000000
 72
     1
 11
             .214070
 21
          119.685600
  0
TEXT
  8
0
 10
            5.463967
 20
          107.435600
 40
            3.500000
  1
-0.15]
 50
           90.000000
 41
            1.000000
 72
     1
 11
            5.464056
 21
          117.935600
  0
LINE
  8
0
 10
            1.089152
 20
          139.522500
 11
            2.089298
 21
          136.522600
  0
LINE
  8
0
 10
            1.089152
 20
          139.522500
 11
             .089006
 21
          136.522600
  0
LINE
  8
0
 10
            1.089152
 20
          118.560000
 11
             .089005
 21
          121.559900
  0
LINE
  8
0
 10
            1.089152
 20
          118.560000
 11
            2.089298
 21
          121.559900
  0
LINE
  8
0
 10
            1.089152
 20
          139.522500
 11
            1.089152
 21
          118.560000
  0
LINE
  8
0
 10
           10.243730
 20
          139.522500
 11
             .098557
 21
          139.522500
  0
LINE
  8
0
 10
           10.243730
 20
          118.560000
 11
             .098557
 21
          118.560000
  0
ENDBLK
  8
0
  0
BLOCK
  8
0
  2
*d9
 70
    65
 10
             .000000
 20
             .000000
  0
TEXT
  8
0
 10
            9.465290
 20
          109.251400
 40
            3.500000
  1
 3.25[
 50
             .000000
 41
            1.000000
 72
     1
 11
           19.965290
 21
          109.251400
  0
TEXT
  8
0
 10
            9.465290
 20
          104.001400
 40
            3.500000
  1
-0.15]
 50
             .000000
 41
            1.000000
 72
     1
 11
           19.965290
 21
          104.001400
  0
LINE
  8
0
 10
           19.506260
 20
          108.376400
 11
           34.175290
 21
          108.376400
  0
LINE
  8
0
 10
           17.393750
 20
          108.376400
 11
           14.393810
 21
          107.376300
  0
LINE
  8
0
 10
           17.393750
 20
          108.376400
 11
           14.393810
 21
          109.376600
  0
LINE
  8
0
 10
           19.506260
 20
          108.376400
 11
           22.506200
 21
          109.376600
  0
LINE
  8
0
 10
           19.506260
 20
          108.376400
 11
           22.506200
 21
          107.376300
  0
LINE
  8
0
 10
            9.488080
 20
          108.376400
 11
           17.393750
 21
          108.376400
  0
LINE
  8
0
 10
           27.411930
 20
          108.376400
 11
           19.506260
 21
          108.376400
  0
LINE
  8
0
 10
           17.393750
 20
          108.376400
 11
           19.506260
 21
          108.376400
  0
LINE
  8
0
 10
           17.393750
 20
          118.560000
 11
           17.393750
 21
          107.385800
  0
LINE
  8
0
 10
           19.506260
 20
          118.560000
 11
           19.506260
 21
          107.385800
  0
ENDBLK
  8
0
  0
BLOCK
  8
0
  2
*d10
 70
    65
 10
             .000000
 20
             .000000
  0
TEXT
  8
0
 10
            6.713543
 20
          100.917800
 40
            3.500000
  1
 14.25[
 50
             .000000
 41
            1.000000
 72
     1
 11
           18.963540
 21
          100.917800
  0
TEXT
  8
0
 10
            6.713543
 20
           95.667770
 40
            3.500000
  1
-0.15]
 50
             .000000
 41
            1.000000
 72
     1
 11
           17.213540
 21
           95.667770
  0
LINE
  8
0
 10
           19.506260
 20
          100.042800
 11
           34.241040
 21
          100.042800
  0
LINE
  8
0
 10
           10.243730
 20
          100.042800
 11
            7.243791
 21
           99.042620
  0
LINE
  8
0
 10
           10.243730
 20
          100.042800
 11
            7.243791
 21
          101.042900
  0
LINE
  8
0
 10
           19.506260
 20
          100.042800
 11
           22.506200
 21
          101.042900
  0
LINE
  8
0
 10
           19.506260
 20
          100.042800
 11
           22.506200
 21
           99.042620
  0
LINE
  8
0
 10
            2.338059
 20
          100.042800
 11
           10.243730
 21
          100.042800
  0
LINE
  8
0
 10
           27.411930
 20
          100.042800
 11
           19.506260
 21
          100.042800
  0
LINE
  8
0
 10
           10.243730
 20
          100.042800
 11
           19.506260
 21
          100.042800
  0
LINE
  8
0
 10
           10.243730
 20
          118.560000
 11
           10.243730
 21
           99.052170
  0
LINE
  8
0
 10
           19.506260
 20
          118.560000
 11
           19.506260
 21
           99.052170
  0
ENDBLK
  8
0
  0
BLOCK
  8
0
  2
*d11
 70
    65
 10
             .000000
 20
             .000000
  0
TEXT
  8
0
 10
            5.463337
 20
           86.407730
 40
            3.500000
  1
 8.25[
 50
             .000000
 41
            1.000000
 72
     1
 11
           15.963340
 21
           86.407730
  0
TEXT
  8
0
 10
            5.463337
 20
           81.157730
 40
            3.500000
  1
-0.15]
 50
             .000000
 41
            1.000000
 72
     1
 11
           15.963340
 21
           81.157730
  0
LINE
  8
0
 10
           17.556230
 20
           85.532730
 11
           30.173360
 21
           85.532730
  0
LINE
  8
0
 10
           12.193760
 20
           85.532730
 11
            9.193819
 21
           84.532590
  0
LINE
  8
0
 10
           12.193760
 20
           85.532730
 11
            9.193819
 21
           86.532880
  0
LINE
  8
0
 10
           17.556230
 20
           85.532730
 11
           20.556170
 21
           86.532880
  0
LINE
  8
0
 10
           17.556230
 20
           85.532730
 11
           20.556170
 21
           84.532590
  0
LINE
  8
0
 10
            4.288088
 20
           85.532730
 11
           12.193760
 21
           85.532730
  0
LINE
  8
0
 10
           25.461900
 20
           85.532730
 11
           17.556230
 21
           85.532730
  0
LINE
  8
0
 10
           12.193760
 20
           85.532730
 11
           17.556230
 21
           85.532730
  0
LINE
  8
0
 10
           12.193760
 20
           75.399990
 11
           12.193760
 21
           86.523330
  0
LINE
  8
0
 10
           17.556230
 20
           75.399990
 11
           17.556230
 21
           86.523330
  0
ENDBLK
  8
0
  0
BLOCK
  8
0
  2
*d12
 70
    65
 10
             .000000
 20
             .000000
  0
TEXT
  8
0
 10
            3.027673
 20
           41.676000
 40
            3.500000
  1
 35.25[
 50
           90.000000
 41
            1.000000
 72
     1
 11
            3.027776
 21
           53.926000
  0
TEXT
  8
0
 10
            8.277674
 20
           41.675960
 40
            3.500000
  1
-0.15]
 50
           90.000000
 41
            1.000000
 72
     1
 11
            8.277761
 21
           52.175960
  0
LINE
  8
0
 10
            3.902860
 20
           75.399990
 11
            4.903006
 21
           72.400050
  0
LINE
  8
0
 10
            3.902860
 20
           75.399990
 11
            2.902714
 21
           72.400050
  0
LINE
  8
0
 10
            3.902860
 20
           52.487490
 11
            2.902714
 21
           55.487440
  0
LINE
  8
0
 10
            3.902860
 20
           52.487490
 11
            4.903006
 21
           55.487440
  0
LINE
  8
0
 10
            3.902860
 20
           75.399990
 11
            3.902860
 21
           52.487490
  0
LINE
  8
0
 10
           12.193760
 20
           75.399990
 11
            2.912264
 21
           75.399990
  0
LINE
  8
0
 10
           12.193760
 20
           52.487490
 11
            2.912264
 21
           52.487490
  0
ENDBLK
  8
0
  0
BLOCK
  8
0
  2
*d13
 70
    65
 10
             .000000
 20
             .000000
  0
TEXT
  8
0
 10
          -13.262290
 20
          160.445500
 40
            3.000000
  1
%%C5.5
 50
           90.000000
 41
            1.000000
 72
     1
 11
          -13.262240
 21
          166.445500
  0
LINE
  8
0
 10
          -12.512260
 20
          146.083900
 11
          -12.512260
 21
          171.342300
  0
LINE
  8
0
 10
          -12.512260
 20
          146.083900
 11
          -13.512400
 21
          149.083800
  0
LINE
  8
0
 10
          -12.512260
 20
          146.083900
 11
          -11.512110
 21
          149.083800
  0
LINE
  8
0
 10
          -12.512260
 20
          142.508900
 11
          -11.512110
 21
          139.508900
  0
LINE
  8
0
 10
          -12.512260
 20
          142.508900
 11
          -13.512400
 21
          139.508900
  0
LINE
  8
0
 10
          -12.512260
 20
          153.989600
 11
          -12.512260
 21
          146.083900
  0
LINE
  8
0
 10
          -12.512260
 20
          134.603200
 11
          -12.512260
 21
          142.508900
  0
LINE
  8
0
 10
          -12.512260
 20
          146.083900
 11
          -12.512260
 21
          142.508900
  0
LINE
  8
0
 10
           -4.949992
 20
          146.083900
 11
          -14.313350
 21
          146.083900
  0
LINE
  8
0
 10
           -4.949992
 20
          142.508900
 11
          -14.313350
 21
          142.508900
  0
ENDBLK
  8
0
  0
BLOCK
  8
0
  2
*d14
 70
    65
 10
             .000000
 20
             .000000
  0
TEXT
  8
0
 10
          -29.369310
 20
           -3.870746
 40
            3.000000
  1
15
 50
          359.899900
 41
            1.000000
 72
     1
 11
          -26.369320
 21
           -3.876088
  0
LINE
  8
0
 10
          -32.250000
 20
           -4.623309
 11
          -29.250050
 21
           -3.623163
  0
LINE
  8
0
 10
          -32.250000
 20
           -4.623309
 11
          -29.250050
 21
           -5.623455
  0
LINE
  8
0
 10
          -22.500000
 20
           -4.623309
 11
          -25.499940
 21
           -5.623455
  0
LINE
  8
0
 10
          -22.500000
 20
           -4.623309
 11
          -25.499940
 21
           -3.623163
  0
LINE
  8
0
 10
          -32.250000
 20
           -4.623309
 11
          -22.500000
 21
           -4.623309
  0
LINE
  8
0
 10
          -32.250000
 20
           22.746410
 11
          -32.250000
 21
           -6.424399
  0
LINE
  8
0
 10
          -22.500000
 20
            -.094277
 11
          -22.500000
 21
           -6.424399
  0
ENDBLK
  8
0
  0
BLOCK
  8
0
  2
*d15
 70
    65
 10
             .000000
 20
             .000000
  0
TEXT
  8
0
 10
            2.500858
 20
           14.371290
 40
            3.000000
  1
3
 50
          359.899900
 41
            1.000000
 72
     1
 11
            4.000855
 21
           14.368620
  0
LINE
  8
0
 10
           -3.000000
 20
           13.621290
 11
            5.530886
 21
           13.621290
  0
LINE
  8
0
 10
           -4.949992
 20
           13.621290
 11
           -7.949936
 21
           12.621140
  0
LINE
  8
0
 10
           -4.949992
 20
           13.621290
 11
           -7.949936
 21
           14.621430
  0
LINE
  8
0
 10
           -3.000000
 20
           13.621290
 11
            -.000057
 21
           14.621430
  0
LINE
  8
0
 10
           -3.000000
 20
           13.621290
 11
            -.000057
 21
           12.621140
  0
LINE
  8
0
 10
          -12.855670
 20
           13.621290
 11
           -4.949992
 21
           13.621290
  0
LINE
  8
0
 10
            4.905675
 20
           13.621290
 11
           -3.000000
 21
           13.621290
  0
LINE
  8
0
 10
           -4.949992
 20
           13.621290
 11
           -3.000000
 21
           13.621290
  0
LINE
  8
0
 10
           -4.949992
 20
            -.003590
 11
           -4.949992
 21
           15.422380
  0
LINE
  8
0
 10
           -3.000000
 20
             .000000
 11
           -3.000000
 21
           15.422380
  0
ENDBLK
  8
0
  0
BLOCK
  8
0
  2
*d16
 70
    65
 10
             .000000
 20
             .000000
  0
TEXT
  8
0
 10
          -12.442820
 20
           -3.831319
 40
            3.000000
  1
A
 50
             .000000
 41
            1.000000
 72
     1
 11
          -10.942820
 21
           -3.831319
  0
LINE
  8
0
 10
           -3.000000
 20
           -4.581319
 11
           -5.999943
 21
           -5.581466
  0
LINE
  8
0
 10
           -3.000000
 20
           -4.581319
 11
           -5.999943
 21
           -3.581173
  0
LINE
  8
0
 10
          -22.500000
 20
           -4.581319
 11
          -19.500050
 21
           -3.581173
  0
LINE
  8
0
 10
          -22.500000
 20
           -4.581319
 11
          -19.500050
 21
           -5.581465
  0
LINE
  8
0
 10
           -3.000000
 20
           -4.581319
 11
          -22.500000
 21
           -4.581319
  0
LINE
  8
0
 10
           -3.000000
 20
             .000000
 11
           -3.000000
 21
           -6.382410
  0
LINE
  8
0
 10
          -22.500000
 20
           -2.319983
 11
          -22.500000
 21
           -6.382410
  0
ENDBLK
  8
0
  0
BLOCK
  8
0
  2
*d17
 70
    65
 10
             .000000
 20
             .000000
  0
TEXT
  8
0
 10
          -39.500000
 20
          139.931400
 40
            3.000000
  1
35
 50
           90.000000
 41
            1.000000
 72
     1
 11
          -39.499970
 21
          142.931400
  0
LINE
  8
0
 10
          -38.749980
 20
          152.746400
 11
          -37.749850
 21
          149.746500
  0
LINE
  8
0
 10
          -38.749980
 20
          152.746400
 11
          -39.750140
 21
          149.746500
  0
LINE
  8
0
 10
          -38.749980
 20
          129.996400
 11
          -39.750140
 21
          132.996300
  0
LINE
  8
0
 10
          -38.749980
 20
          129.996400
 11
          -37.749850
 21
          132.996300
  0
LINE
  8
0
 10
          -38.749980
 20
          152.746400
 11
          -38.749980
 21
          129.996400
  0
LINE
  8
0
 10
           -4.949992
 20
          152.746400
 11
          -40.551090
 21
          152.746400
  0
LINE
  8
0
 10
          -32.250000
 20
          129.996400
 11
          -40.551090
 21
          129.996400
  0
ENDBLK
  8
0
  0
BLOCK
  8
0
  2
*d18
 70
    65
 10
             .000000
 20
             .000000
  0
TEXT
  8
0
 10
          -39.500010
 20
           73.491410
 40
            3.000000
  1
165
 50
           90.000000
 41
            1.000000
 72
     1
 11
          -39.499970
 21
           77.991410
  0
LINE
  8
0
 10
          -38.749980
 20
          129.996400
 11
          -37.749850
 21
          126.996400
  0
LINE
  8
0
 10
          -38.749980
 20
          129.996400
 11
          -39.750140
 21
          126.996400
  0
LINE
  8
0
 10
          -38.749980
 20
           22.746410
 11
          -39.750140
 21
           25.746350
  0
LINE
  8
0
 10
          -38.749980
 20
           22.746410
 11
          -37.749850
 21
           25.746350
  0
LINE
  8
0
 10
          -38.749980
 20
          129.996400
 11
          -38.749980
 21
           22.746410
  0
LINE
  8
0
 10
          -39.740600
 20
          129.996400
 11
          -36.948900
 21
          129.996400
  0
LINE
  8
0
 10
          -32.250000
 20
           22.746410
 11
          -40.551090
 21
           22.746410
  0
ENDBLK
  8
0
  0
BLOCK
  8
0
  2
*d19
 70
    65
 10
             .000000
 20
             .000000
  0
TEXT
  8
0
 10
          -56.582420
 20
           73.341410
 40
            3.000000
  1
209
 50
           90.000000
 41
            1.000000
 72
     1
 11
          -56.582390
 21
           77.841410
  0
LINE
  8
0
 10
          -55.832400
 20
          144.294500
 11
          -54.832260
 21
          141.294500
  0
LINE
  8
0
 10
          -55.832400
 20
          144.294500
 11
          -56.832550
 21
          141.294500
  0
LINE
  8
0
 10
          -55.832400
 20
            8.444481
 11
          -56.832550
 21
           11.444420
  0
LINE
  8
0
 10
          -55.832400
 20
            8.444481
 11
          -54.832260
 21
           11.444420
  0
LINE
  8
0
 10
          -55.832400
 20
          144.294500
 11
          -55.832400
 21
            8.444481
  0
LINE
  8
0
 10
          -67.385350
 20
          144.294500
 11
          -54.031310
 21
          144.294500
  0
LINE
  8
0
 10
          -67.804430
 20
            8.444481
 11
          -54.031310
 21
            8.444481
  0
ENDBLK
  8
0
  0
BLOCK
  8
0
  2
*d20
 70
    65
 10
             .000000
 20
             .000000
  0
TEXT
  8
0
 10
          -56.582410
 20
            2.779488
 40
            3.000000
  1
13
 50
           90.000000
 41
            1.000000
 72
     1
 11
          -56.582380
 21
            5.779488
  0
LINE
  8
0
 10
          -55.832400
 20
            8.444481
 11
          -54.832260
 21
            5.444537
  0
LINE
  8
0
 10
          -55.832400
 20
            8.444481
 11
          -56.832550
 21
            5.444537
  0
LINE
  8
0
 10
          -55.832400
 20
            -.005520
 11
          -56.832550
 21
            2.994423
  0
LINE
  8
0
 10
          -55.832400
 20
            -.005520
 11
          -54.832260
 21
            2.994423
  0
LINE
  8
0
 10
          -55.832400
 20
            8.444481
 11
          -55.832400
 21
            -.005520
  0
LINE
  8
0
 10
          -54.841810
 20
            8.444481
 11
          -57.633480
 21
            8.444481
  0
LINE
  8
0
 10
          -64.135360
 20
            -.005520
 11
          -54.031310
 21
            -.005520
  0
ENDBLK
  8
0
  0
BLOCK
  8
0
  2
*d21
 70
    65
 10
             .000000
 20
             .000000
  0
TEXT
  8
0
 10
          -50.087450
 20
           73.490790
 40
            3.000000
  1
235
 50
           89.899990
 41
            1.000000
 72
     1
 11
          -50.079560
 21
           77.990790
  0
LINE
  8
0
 10
          -49.332400
 20
            -.005520
 11
          -50.332550
 21
            2.994423
  0
LINE
  8
0
 10
          -49.332400
 20
            -.005520
 11
          -48.332260
 21
            2.994423
  0
LINE
  8
0
 10
          -49.332400
 20
          152.744500
 11
          -48.332260
 21
          149.744500
  0
LINE
  8
0
 10
          -49.332400
 20
          152.744500
 11
          -50.332550
 21
          149.744500
  0
LINE
  8
0
 10
          -49.332400
 20
            -.005520
 11
          -49.332400
 21
          152.744500
  0
LINE
  8
0
 10
          -54.841810
 20
            -.005520
 11
          -47.531310
 21
            -.005520
  0
LINE
  8
0
 10
          -64.135360
 20
          152.744500
 11
          -47.531310
 21
          152.744500
  0
ENDBLK
  8
0
  0
BLOCK
  8
0
  2
*d22
 70
    65
 10
             .000000
 20
             .000000
  0
TEXT
  8
0
 10
          -74.034130
 20
           -9.654191
 40
            3.000000
  1
24
 50
          359.899900
 41
            1.000000
 72
     1
 11
          -71.034130
 21
           -9.659533
  0
LINE
  8
0
 10
          -79.735350
 20
          -10.406750
 11
          -76.735400
 21
           -9.406608
  0
LINE
  8
0
 10
          -79.735350
 20
          -10.406750
 11
          -76.735400
 21
          -11.406900
  0
LINE
  8
0
 10
          -64.135360
 20
          -10.406750
 11
          -67.135300
 21
          -11.406900
  0
LINE
  8
0
 10
          -64.135360
 20
          -10.406750
 11
          -67.135300
 21
           -9.406608
  0
LINE
  8
0
 10
          -79.735350
 20
          -10.406750
 11
          -64.135360
 21
          -10.406750
  0
LINE
  8
0
 10
          -79.735350
 20
            -.005524
 11
          -79.735350
 21
          -12.207840
  0
LINE
  8
0
 10
          -64.135360
 20
            -.005520
 11
          -64.135360
 21
          -12.207840
  0
ENDBLK
  8
0
  0
BLOCK
  8
0
  2
*d23
 70
    65
 10
             .000000
 20
             .000000
  0
TEXT
  8
0
 10
          -89.589580
 20
           -3.805119
 40
            3.000000
  1
R12
 50
           35.299990
 41
            1.000000
 72
     1
 11
          -85.916950
 21
           -1.204773
  0
LINE
  8
0
 10
          -78.297490
 20
            3.281838
 11
          -92.170100
 21
           -6.557951
  0
LINE
  8
0
 10
          -78.297470
 20
            3.281839
 11
          -80.165760
 21
             .730477
  0
LINE
  8
0
 10
          -78.297470
 20
            3.281839
 11
          -81.323010
 21
            2.362022
  0
LINE
  8
0
 10
          -84.745760
 20
           -1.291916
 11
          -78.297470
 21
            3.281839
  0
LINE
  8
0
 10
          -71.935360
 20
            7.794463
 11
          -78.297470
 21
            3.281839
  0
ENDBLK
  8
0
  0
BLOCK
  8
0
  2
*d24
 70
    65
 10
             .000000
 20
             .000000
  0
TEXT
  8
0
 10
          -33.133090
 20
          -40.655910
 40
            3.000000
  1
M8
 50
          359.899900
 41
            1.000000
 72
     1
 11
          -30.133090
 21
          -40.661250
  0
LINE
  8
0
 10
          -25.100010
 20
          -41.408480
 11
          -36.498520
 21
          -41.408480
  0
LINE
  8
0
 10
          -25.100010
 20
          -41.408480
 11
          -28.099950
 21
          -42.408620
  0
LINE
  8
0
 10
          -25.100010
 20
          -41.408480
 11
          -28.099950
 21
          -40.408330
  0
LINE
  8
0
 10
          -19.899980
 20
          -41.408480
 11
          -16.900020
 21
          -40.408330
  0
LINE
  8
0
 10
          -19.899980
 20
          -41.408480
 11
          -16.900020
 21
          -42.408620
  0
LINE
  8
0
 10
          -33.005680
 20
          -41.408480
 11
          -25.100010
 21
          -41.408480
  0
LINE
  8
0
 10
          -11.994310
 20
          -41.408480
 11
          -19.899980
 21
          -41.408480
  0
LINE
  8
0
 10
          -25.100010
 20
          -41.408480
 11
          -19.899980
 21
          -41.408480
  0
LINE
  8
0
 10
          -25.100010
 20
          -29.053960
 11
          -25.100010
 21
          -43.209560
  0
LINE
  8
0
 10
          -19.899980
 20
          -29.053960
 11
          -19.899980
 21
          -43.209560
  0
ENDBLK
  8
0
  0
BLOCK
  8
0
  2
*d25
 70
    65
 10
             .000000
 20
             .000000
  0
TEXT
  8
0
 10
          -39.502510
 20
          -30.492620
 40
            3.000000
  1
14
 50
           89.899990
 41
            1.000000
 72
     1
 11
          -39.497250
 21
          -27.492630
  0
LINE
  8
0
 10
          -38.749980
 20
          -33.603940
 11
          -39.750140
 21
          -30.603990
  0
LINE
  8
0
 10
          -38.749980
 20
          -33.603940
 11
          -37.749850
 21
          -30.603990
  0
LINE
  8
0
 10
          -38.749980
 20
          -24.503950
 11
          -37.749850
 21
          -27.503890
  0
LINE
  8
0
 10
          -38.749980
 20
          -24.503950
 11
          -39.750140
 21
          -27.503890
  0
LINE
  8
0
 10
          -38.749980
 20
          -33.603940
 11
          -38.749980
 21
          -24.503950
  0
LINE
  8
0
 10
          -32.250000
 20
          -33.603940
 11
          -40.551070
 21
          -33.603940
  0
LINE
  8
0
 10
          -32.249980
 20
          -24.503950
 11
          -40.551070
 21
          -24.503950
  0
ENDBLK
  8
0
  0
BLOCK
  8
0
  2
*d26
 70
    65
 10
             .000000
 20
             .000000
  0
TEXT
  8
0
 10
          -46.002530
 20
          -30.492640
 40
            3.000000
  1
16
 50
           89.899990
 41
            1.000000
 72
     1
 11
          -45.997260
 21
          -27.492640
  0
LINE
  8
0
 10
          -45.250000
 20
          -34.253950
 11
          -46.250140
 21
          -31.254010
  0
LINE
  8
0
 10
          -45.250000
 20
          -34.253950
 11
          -44.249850
 21
          -31.254010
  0
LINE
  8
0
 10
          -45.250000
 20
          -23.853940
 11
          -44.249850
 21
          -26.853880
  0
LINE
  8
0
 10
          -45.250000
 20
          -23.853940
 11
          -46.250140
 21
          -26.853880
  0
LINE
  8
0
 10
          -45.250000
 20
          -34.253950
 11
          -45.250000
 21
          -23.853940
  0
LINE
  8
0
 10
          -27.375000
 20
          -34.253950
 11
          -47.051090
 21
          -34.253950
  0
LINE
  8
0
 10
          -27.375000
 20
          -23.853940
 11
          -47.051090
 21
          -23.853940
  0
ENDBLK
  8
0
  0
BLOCK
  8
0
  2
*d27
 70
    65
 10
             .000000
 20
             .000000
  0
TEXT
  8
0
 10
          -11.852700
 20
          -18.623270
 40
            3.000000
  1
5
 50
           90.000000
 41
            1.000000
 72
     1
 11
          -11.852690
 21
          -17.123270
  0
LINE
  8
0
 10
          -11.102700
 20
          -21.253950
 11
          -11.102700
 21
          -15.591920
  0
LINE
  8
0
 10
          -11.102700
 20
          -21.253950
 11
          -12.102850
 21
          -18.254010
  0
LINE
  8
0
 10
          -11.102700
 20
          -21.253950
 11
          -10.102560
 21
          -18.254010
  0
LINE
  8
0
 10
          -11.102700
 20
          -24.503950
 11
          -10.102560
 21
          -27.503890
  0
LINE
  8
0
 10
          -11.102700
 20
          -24.503950
 11
          -12.102850
 21
          -27.503890
  0
LINE
  8
0
 10
          -11.102700
 20
          -13.348280
 11
          -11.102700
 21
          -21.253950
  0
LINE
  8
0
 10
          -11.102700
 20
          -32.409620
 11
          -11.102700
 21
          -24.503950
  0
LINE
  8
0
 10
          -11.102700
 20
          -21.253950
 11
          -11.102700
 21
          -24.503950
  0
LINE
  8
0
 10
           -4.949989
 20
          -21.253950
 11
          -12.903790
 21
          -21.253950
  0
LINE
  8
0
 10
           -4.949989
 20
          -24.503950
 11
          -12.903790
 21
          -24.503950
  0
ENDBLK
  8
0
  0
ENDSEC
  0
SECTION
  2
ENTITIES
  0
TEXT
  8
999
 10
             .000000
 20
             .000000
 40
            1.000000
  1
AZ  , EINBAU, Z 1899 M05 01 4A SEB
 50
             .000000
 41
            1.000000
  0
LINE
  8
PV
 10
           -4.949992
 20
            -.003590
 11
           -3.000000
 21
            -.003590
  0
LINE
  8
PV
 10
          -11.467090
 20
            8.449992
 11
            3.379421
 21
            8.449992
  6
CENTER
  0
LINE
  8
PV
 10
          -32.250000
 20
           22.746410
 11
          -32.250000
 21
          129.996400
  0
LINE
  8
PV
 10
          -32.250000
 20
          129.996400
 11
           -4.949992
 21
          129.996400
  0
LINE
  8
PV
 10
          -32.250000
 20
           22.746410
 11
           -4.949992
 21
           22.746410
  0
LINE
  8
PV
 10
          -25.750000
 20
           11.898260
 11
          -25.750000
 21
           22.746410
  6
CENTER
  0
LINE
  8
PV
 10
          -19.250000
 20
           11.898260
 11
          -19.250000
 21
           22.746410
  6
CENTER
  0
LINE
  8
PV
 10
          -25.750000
 20
          129.996400
 11
          -25.750000
 21
          164.068200
  6
CENTER
  0
LINE
  8
PV
 10
          -19.250000
 20
          129.996400
 11
          -19.250000
 21
          164.068200
  6
CENTER
  0
LINE
  8
PV
 10
          -32.250000
 20
          128.696400
 11
           -4.949992
 21
          128.696400
  6
DASHED
  0
LINE
  8
PV
 10
          -32.250000
 20
           24.046400
 11
           -4.949992
 21
           24.046400
  6
DASHED
  0
LINE
  8
PV
 10
           -4.949992
 20
          152.746400
 11
           -4.949992
 21
            -.003590
  0
LINE
  8
PV
 10
           -3.000000
 20
          152.746400
 11
           -3.000000
 21
             .000000
  0
LINE
  8
PV
 10
           -4.949992
 20
          152.746400
 11
           -3.000000
 21
          152.746400
  0
LINE
  8
PV
 10
           -1.398949
 20
          144.296400
 11
           -9.135624
 21
          144.296400
  6
CENTER
  0
LINE
  8
PV
 10
           -3.000000
 20
          141.046400
 11
           -3.194974
 21
          141.046400
  0
LINE
  8
PV
 10
           -3.000000
 20
          147.546400
 11
           -3.194974
 21
          147.546400
  0
LINE
  8
PV
 10
           -4.657496
 20
          146.083900
 11
           -4.949992
 21
          146.083900
  0
LINE
  8
PV
 10
           -4.657496
 20
          142.508900
 11
           -4.949992
 21
          142.508900
  0
LINE
  8
PV
 10
           -3.194974
 20
          147.546400
 11
           -3.194974
 21
          141.046400
  0
LINE
  8
PV
 10
           -3.195005
 20
          147.546400
 11
           -4.657499
 21
          146.083900
  0
LINE
  8
PV
 10
           -3.194953
 20
          141.046400
 11
           -4.657493
 21
          142.508900
  0
LINE
  8
PV
 10
           -4.657496
 20
          146.083900
 11
           -4.657496
 21
          142.508900
  0
LINE
  8
PV
 10
          -22.500000
 20
           -2.319983
 11
          -22.500000
 21
          171.892700
  6
CENTER
  0
LINE
  8
PV
 10
          -14.813730
 20
           11.898260
 11
          -28.828060
 21
           11.898260
  6
CENTER
  0
LINE
  8
PV
 10
           57.314090
 20
           84.027370
 11
           -3.000007
 21
           41.795000
  6
CENTER
  0
LINE
  8
PV
 10
           14.127670
 20
          114.139300
 11
           -3.000013
 21
           50.217960
  6
CENTER
  0
LINE
  8
PV
 10
           10.128300
 20
          113.528500
 11
           -3.000037
 21
           64.532940
  6
CENTER
  0
LINE
  8
PV
 10
           53.857880
 20
           86.130250
 11
           -2.999997
 21
           46.317980
  6
CENTER
  0
LINE
  8
PV
 10
           57.314120
 20
           84.027370
 11
           56.121060
 21
           85.731220
  6
CENTER
  0
LINE
  8
PV
 10
           14.127670
 20
          114.139300
 11
           12.118570
 21
          114.677600
  6
CENTER
  0
LINE
  8
PV
 10
           10.139890
 20
           39.375980
 11
           14.910720
 21
           39.375980
  0
LINE
  8
PV
 10
           10.139890
 20
           38.920940
 11
           14.910720
 21
           38.920940
  0
LINE
  8
PV
 10
            5.810692
 20
           39.148450
 11
           10.139860
 21
           37.849720
  0
LINE
  8
PV
 10
            5.810701
 20
           39.148450
 11
           10.139850
 21
           40.447190
  0
LINE
  8
PV
 10
            5.810718
 20
           39.148450
 11
           14.910720
 21
           39.148450
  0
LINE
  8
PV
 10
           10.139890
 20
           37.849720
 11
           10.139890
 21
           40.447200
  0
LINE
  8
PV
 10
            6.602441
 20
           39.148470
 11
            9.912385
 21
           38.155500
  0
LINE
  8
PV
 10
            6.602423
 20
           39.148470
 11
            9.912380
 21
           40.141430
  0
LINE
  8
PV
 10
            9.912385
 20
           38.155490
 11
            9.912385
 21
           40.141430
  0
LINE
  8
PV
 10
            7.394197
 20
           39.148470
 11
            9.684888
 21
           38.461240
  0
LINE
  8
PV
 10
            7.394123
 20
           39.148450
 11
            9.684818
 21
           39.835650
  0
LINE
  8
PV
 10
            9.684879
 20
           38.461230
 11
            9.684879
 21
           39.835680
  0
LINE
  8
PV
 10
            8.185842
 20
           39.148450
 11
            9.457368
 21
           38.767000
  0
LINE
  8
PV
 10
            8.185895
 20
           39.148450
 11
            9.457353
 21
           39.529910
  0
LINE
  8
PV
 10
            9.457375
 20
           38.767000
 11
            9.457375
 21
           39.529910
  0
LINE
  8
PV
 10
            8.977632
 20
           39.148470
 11
            9.229877
 21
           39.072780
  0
LINE
  8
PV
 10
            8.977694
 20
           39.148470
 11
            9.229941
 21
           39.224150
  0
LINE
  8
PV
 10
            9.229885
 20
           39.072780
 11
            9.229885
 21
           39.224140
  0
LINE
  8
PV
 10
           14.910720
 20
           38.920940
 11
           14.910720
 21
           39.375980
  0
LINE
  8
PV
 10
           24.472670
 20
          101.742600
 11
           20.181490
 21
          103.161800
  0
LINE
  8
PV
 10
           24.472520
 20
          101.742600
 11
           21.671230
 21
          105.289500
  0
LINE
  8
PV
 10
           20.181500
 20
          103.161900
 11
           21.671370
 21
          105.289600
  0
LINE
  8
PV
 10
           23.824100
 20
          102.196700
 11
           20.543240
 21
          103.281900
  0
LINE
  8
PV
 10
           23.824050
 20
          102.196700
 11
           21.682250
 21
          104.908600
  0
LINE
  8
PV
 10
           20.543200
 20
          103.281800
 11
           21.682310
 21
          104.908600
  0
LINE
  8
PV
 10
           23.175600
 20
          102.650800
 11
           20.904940
 21
          103.401700
  0
LINE
  8
PV
 10
           23.175550
 20
          102.650800
 11
           21.693280
 21
          104.527600
  0
LINE
  8
PV
 10
           20.904950
 20
          103.401800
 11
           21.693280
 21
          104.527600
  0
LINE
  8
PV
 10
           22.526990
 20
          103.105000
 11
           21.266650
 21
          103.521800
  0
LINE
  8
PV
 10
           22.527020
 20
          103.104900
 11
           21.704250
 21
          104.146700
  0
LINE
  8
PV
 10
           21.266570
 20
          103.521800
 11
           21.704090
 21
          104.146700
  0
LINE
  8
PV
 10
           21.878480
 20
          103.559100
 11
           21.628340
 21
          103.641800
  0
LINE
  8
PV
 10
           21.878620
 20
          103.559100
 11
           21.715320
 21
          103.765900
  0
LINE
  8
PV
 10
           21.628280
 20
          103.641800
 11
           21.715130
 21
          103.765800
  0
LINE
  8
PV
 10
           17.109310
 20
          106.300600
 11
           16.916810
 21
          105.887700
  0
LINE
  8
PV
 10
            4.742960
 20
          159.242000
 11
           47.796810
 21
          159.242000
  0
LINE
  8
PV
 10
            4.742947
 20
          159.242000
 11
           -3.869521
 21
          145.649300
  0
LINE
  8
PV
 10
          -17.562580
 20
          152.746400
 11
          -39.740600
 21
          152.746400
  0
LINE
  8
PV
 10
          -28.327590
 20
          164.068200
 11
          -16.435200
 21
          164.068200
  6
CENTER
  0
CIRCLE
  8
PV
 10
          119.845100
 20
           -8.963088
 40
            2.599999
  0
CIRCLE
  8
PV
 10
          119.892400
 20
          -11.562650
 40
            9.161180
  0
CIRCLE
  8
PV
 10
          119.845100
 20
           -8.963088
 40
            2.599999
  0
CIRCLE
  8
PV
 10
          119.892400
 20
          -11.562650
 40
            9.161180
  0
ARC
  8
PV
 10
           11.697950
 20
          113.108000
 40
            1.624998
 50
           74.999810
 51
          165.000100
  6
CENTER
  0
ARC
  8
PV
 10
           54.789900
 20
           84.799150
 40
            1.625002
 50
           34.999560
 51
          124.999900
  6
CENTER
  0
ARC
  8
PV
 10
            3.189896
 20
           72.110120
 40
           36.687810
 50
           61.089380
 51
           67.865740
  0
ARC
  8
PV
 10
            3.189896
 20
           72.110120
 40
           36.915310
 50
           61.051710
 51
           67.848070
  0
ARC
  8
PV
 10
            3.189896
 20
           72.110120
 40
           36.460310
 50
           61.127500
 51
           67.883640
  0
CIRCLE
  8
PV
 10
           -3.869512
 20
          145.649300
 40
             .195000
  0
POLYLINE
  8
PV
 66
     1
 70
     0
 40
             .000000
 41
             .000000
  6
DASHED
  0
VERTEX
  8
PV
 10
           -3.000000
 20
          137.502700
 40
             .000000
 41
             .000000
 42
             .000000
 70
     0
 50
             .000000
  6
DASHED
  0
VERTEX
  8
PV
 10
           -3.034899
 20
          137.495200
 40
             .000000
 41
             .000000
 42
             .000000
 70
     0
 50
             .000000
  6
DASHED
  0
VERTEX
  8
PV
 10
           -3.103317
 20
          137.490200
 40
             .000000
 41
             .000000
 42
             .000000
 70
     0
 50
             .000000
  6
DASHED
  0
VERTEX
  8
PV
 10
           -3.205234
 20
          137.487800
 40
             .000000
 41
             .000000
 42
             .000000
 70
     0
 50
             .000000
  6
DASHED
  0
VERTEX
  8
PV
 10
           -3.373190
 20
          137.497700
 40
             .000000
 41
             .000000
 42
             .000000
 70
     0
 50
             .000000
  6
DASHED
  0
VERTEX
  8
PV
 10
           -3.506217
 20
          137.515300
 40
             .000000
 41
             .000000
 42
             .000000
 70
     0
 50
             .000000
  6
DASHED
  0
VERTEX
  8
PV
 10
           -3.637928
 20
          137.542500
 40
             .000000
 41
             .000000
 42
             .000000
 70
     0
 50
             .000000
  6
DASHED
  0
VERTEX
  8
PV
 10
           -3.830821
 20
          137.617100
 40
             .000000
 41
             .000000
 42
             .000000
 70
     0
 50
             .000000
  6
DASHED
  0
VERTEX
  8
PV
 10
           -3.926993
 20
          137.692800
 40
             .000000
 41
             .000000
 42
             .000000
 70
     0
 50
             .000000
  6
DASHED
  0
VERTEX
  8
PV
 10
           -4.015060
 20
          137.778100
 40
             .000000
 41
             .000000
 42
             .000000
 70
     0
 50
             .000000
  6
DASHED
  0
VERTEX
  8
PV
 10
           -4.120554
 20
          137.874400
 40
             .000000
 41
             .000000
 42
             .000000
 70
     0
 50
             .000000
  6
DASHED
  0
VERTEX
  8
PV
 10
           -4.220050
 20
          137.946300
 40
             .000000
 41
             .000000
 42
             .000000
 70
     0
 50
             .000000
  6
DASHED
  0
VERTEX
  8
PV
 10
           -4.246534
 20
          137.966300
 40
             .000000
 41
             .000000
 42
             .000000
 70
     0
 50
             .000000
  6
DASHED
  0
VERTEX
  8
PV
 10
           -4.357770
 20
          138.017800
 40
             .000000
 41
             .000000
 42
             .000000
 70
     0
 50
             .000000
  6
DASHED
  0
VERTEX
  8
PV
 10
           -4.472081
 20
          138.053000
 40
             .000000
 41
             .000000
 42
             .000000
 70
     0
 50
             .000000
  6
DASHED
  0
VERTEX
  8
PV
 10
           -4.588750
 20
          138.075600
 40
             .000000
 41
             .000000
 42
             .000000
 70
     0
 50
             .000000
  6
DASHED
  0
VERTEX
  8
PV
 10
           -4.737369
 20
          138.089100
 40
             .000000
 41
             .000000
 42
             .000000
 70
     0
 50
             .000000
  6
DASHED
  0
VERTEX
  8
PV
 10
           -4.857886
 20
          138.091200
 40
             .000000
 41
             .000000
 42
             .000000
 70
     0
 50
             .000000
  6
DASHED
  0
VERTEX
  8
PV
 10
           -4.949992
 20
          138.083500
 40
             .000000
 41
             .000000
 42
             .000000
 70
     0
 50
             .000000
  6
DASHED
  0
SEQEND
  8
PV
  6
DASHED
  0
TEXT
  8
PV
 10
           13.805980
 20
           42.579100
 40
            3.000000
  1
1.Drücken
 50
             .000000
 41
             .714286
  0
TEXT
  8
PV
 10
           19.646500
 20
          109.228000
 40
            3.000000
  1
2. Ziehen
 50
             .000000
 41
             .714286
  0
TEXT
  8
PV
 10
            5.866281
 20
          160.643300
 40
            3.000000
  1
Senkung DIN 74-Af5
 50
             .000000
 41
             .714286
  0
TEXT
  8
PV
 10
            2.691866
 20
            -.543324
 40
            3.000000
  1
Hub der Rundstangen
 50
             .000000
 41
             .571619
  0
TEXT
  8
PV
 10
            2.691866
 20
           -4.829039
 40
            3.000000
  1
18 mm nach oben und unten
 50
             .000000
 41
             .571619
  0
TEXT
  8
PV
 10
          -23.690490
 20
          -11.205270
 40
            3.000000
  1
(Dornmaß)
 50
             .000000
 41
             .714286
  0
INSERT
  8
PV
  2
*d1
 10
             .000000
 20
             .000000
 41
            1.000000
 42
            1.000000
 43
            1.000000
 50
             .000000
  0
INSERT
  8
PV
  2
*d1
 10
             .000000
 20
             .000000
 41
            1.000000
 42
            1.000000
 43
            1.000000
 50
             .000000
  0
INSERT
  8
PV
  2
*d2
 10
             .000000
 20
             .000000
 41
            1.000000
 42
            1.000000
 43
            1.000000
 50
             .000000
  0
INSERT
  8
PV
  2
*d2
 10
             .000000
 20
             .000000
 41
            1.000000
 42
            1.000000
 43
            1.000000
 50
             .000000
  0
INSERT
  8
PV
  2
*d3
 10
             .000000
 20
             .000000
 41
            1.000000
 42
            1.000000
 43
            1.000000
 50
             .000000
  0
INSERT
  8
PV
  2
*d3
 10
             .000000
 20
             .000000
 41
            1.000000
 42
            1.000000
 43
            1.000000
 50
             .000000
  0
INSERT
  8
PV
  2
*d4
 10
             .000000
 20
             .000000
 41
            1.000000
 42
            1.000000
 43
            1.000000
 50
             .000000
  0
INSERT
  8
PV
  2
*d4
 10
             .000000
 20
             .000000
 41
            1.000000
 42
            1.000000
 43
            1.000000
 50
             .000000
  0
INSERT
  8
PV
  2
*d5
 10
             .000000
 20
             .000000
 41
            1.000000
 42
            1.000000
 43
            1.000000
 50
             .000000
  0
INSERT
  8
PV
  2
*d5
 10
             .000000
 20
             .000000
 41
            1.000000
 42
            1.000000
 43
            1.000000
 50
             .000000
  0
INSERT
  8
PV
  2
*d6
 10
             .000000
 20
             .000000
 41
            1.000000
 42
            1.000000
 43
            1.000000
 50
             .000000
  0
INSERT
  8
PV
  2
*d6
 10
             .000000
 20
             .000000
 41
            1.000000
 42
            1.000000
 43
            1.000000
 50
             .000000
  0
INSERT
  8
PV
  2
*d7
 10
             .000000
 20
             .000000
 41
            1.000000
 42
            1.000000
 43
            1.000000
 50
             .000000
  0
INSERT
  8
PV
  2
*d7
 10
             .000000
 20
             .000000
 41
            1.000000
 42
            1.000000
 43
            1.000000
 50
             .000000
  0
INSERT
  8
PV
  2
*d8
 10
             .000000
 20
             .000000
 41
            1.000000
 42
            1.000000
 43
            1.000000
 50
             .000000
  0
INSERT
  8
PV
  2
*d8
 10
             .000000
 20
             .000000
 41
            1.000000
 42
            1.000000
 43
            1.000000
 50
             .000000
  0
INSERT
  8
PV
  2
*d9
 10
             .000000
 20
             .000000
 41
            1.000000
 42
            1.000000
 43
            1.000000
 50
             .000000
  0
INSERT
  8
PV
  2
*d9
 10
             .000000
 20
             .000000
 41
            1.000000
 42
            1.000000
 43
            1.000000
 50
             .000000
  0
INSERT
  8
PV
  2
*d10
 10
             .000000
 20
             .000000
 41
            1.000000
 42
            1.000000
 43
            1.000000
 50
             .000000
  0
INSERT
  8
PV
  2
*d10
 10
             .000000
 20
             .000000
 41
            1.000000
 42
            1.000000
 43
            1.000000
 50
             .000000
  0
INSERT
  8
PV
  2
*d11
 10
             .000000
 20
             .000000
 41
            1.000000
 42
            1.000000
 43
            1.000000
 50
             .000000
  0
INSERT
  8
PV
  2
*d11
 10
             .000000
 20
             .000000
 41
            1.000000
 42
            1.000000
 43
            1.000000
 50
             .000000
  0
INSERT
  8
PV
  2
*d12
 10
             .000000
 20
             .000000
 41
            1.000000
 42
            1.000000
 43
            1.000000
 50
             .000000
  0
INSERT
  8
PV
  2
*d12
 10
             .000000
 20
             .000000
 41
            1.000000
 42
            1.000000
 43
            1.000000
 50
             .000000
  0
INSERT
  8
PV
  2
*d13
 10
             .000000
 20
             .000000
 41
            1.000000
 42
            1.000000
 43
            1.000000
 50
             .000000
  0
INSERT
  8
PV
  2
*d13
 10
             .000000
 20
             .000000
 41
            1.000000
 42
            1.000000
 43
            1.000000
 50
             .000000
  0
INSERT
  8
PV
  2
*d14
 10
             .000000
 20
             .000000
 41
            1.000000
 42
            1.000000
 43
            1.000000
 50
             .000000
  0
INSERT
  8
PV
  2
*d14
 10
             .000000
 20
             .000000
 41
            1.000000
 42
            1.000000
 43
            1.000000
 50
             .000000
  0
INSERT
  8
PV
  2
*d15
 10
             .000000
 20
             .000000
 41
            1.000000
 42
            1.000000
 43
            1.000000
 50
             .000000
  0
INSERT
  8
PV
  2
*d15
 10
             .000000
 20
             .000000
 41
            1.000000
 42
            1.000000
 43
            1.000000
 50
             .000000
  0
INSERT
  8
PV
  2
*d16
 10
             .000000
 20
             .000000
 41
            1.000000
 42
            1.000000
 43
            1.000000
 50
             .000000
  0
INSERT
  8
PV
  2
*d16
 10
             .000000
 20
             .000000
 41
            1.000000
 42
            1.000000
 43
            1.000000
 50
             .000000
  0
INSERT
  8
PV
  2
*d17
 10
             .000000
 20
             .000000
 41
            1.000000
 42
            1.000000
 43
            1.000000
 50
             .000000
  0
INSERT
  8
PV
  2
*d17
 10
             .000000
 20
             .000000
 41
            1.000000
 42
            1.000000
 43
            1.000000
 50
             .000000
  0
INSERT
  8
PV
  2
*d18
 10
             .000000
 20
             .000000
 41
            1.000000
 42
            1.000000
 43
            1.000000
 50
             .000000
  0
INSERT
  8
PV
  2
*d18
 10
             .000000
 20
             .000000
 41
            1.000000
 42
            1.000000
 43
            1.000000
 50
             .000000
  0
LINE
  8
SA
 10
          -79.735350
 20
          152.744500
 11
          -64.135360
 21
          152.744500
  0
LINE
  8
SA
 10
          -79.735350
 20
            -.005524
 11
          -64.135360
 21
            -.005520
  0
LINE
  8
SA
 10
          -76.983170
 20
            8.444479
 11
          -67.804430
 21
            8.444481
  6
CENTER
  0
LINE
  8
SA
 10
          -76.813230
 20
          144.294500
 11
          -67.385350
 21
          144.294500
  6
CENTER
  0
LINE
  8
SA
 10
          -68.522840
 20
          112.769500
 11
          -68.522830
 21
           50.369480
  0
LINE
  8
SA
 10
          -75.347840
 20
          112.769500
 11
          -75.347820
 21
           50.369460
  0
LINE
  8
SA
 10
          -75.347890
 20
           50.369490
 11
          -76.782620
 21
           44.791210
  0
LINE
  8
SA
 10
          -68.522840
 20
           50.369480
 11
          -67.088120
 21
           44.791180
  0
LINE
  8
SA
 10
          -72.806170
 20
           51.994480
 11
          -72.260310
 21
           51.994480
  0
LINE
  8
SA
 10
          -72.260310
 20
           58.494460
 11
          -71.610340
 21
           58.494460
  0
LINE
  8
SA
 10
          -71.610340
 20
           58.494460
 11
          -71.610340
 21
           51.994480
  0
LINE
  8
SA
 10
          -72.260310
 20
           58.494460
 11
          -72.260310
 21
           51.994480
  0
LINE
  8
SA
 10
          -71.935350
 20
           48.744480
 11
          -72.806200
 21
           51.994480
  0
LINE
  8
SA
 10
          -71.935350
 20
           48.744490
 11
          -71.064510
 21
           51.994480
  0
LINE
  8
SA
 10
          -71.610340
 20
           51.994480
 11
          -71.064500
 21
           51.994480
  0
LINE
  8
SA
 10
          -71.935350
 20
            3.988688
 11
          -71.935350
 21
           13.154070
  6
CENTER
  0
LINE
  8
SA
 10
          -64.135360
 20
            -.005520
 11
          -64.135360
 21
          152.744500
  0
LINE
  8
SA
 10
          -79.735350
 20
            -.005524
 11
          -79.735350
 21
            1.163482
  0
LINE
  8
SA
 10
          -71.935350
 20
          139.271700
 11
          -71.935350
 21
          149.595600
  6
CENTER
  0
LINE
  8
SA
 10
          -79.735350
 20
            3.668909
 11
          -79.735350
 21
          152.744500
  0
CIRCLE
  8
SA
 10
          -71.935350
 20
          144.294500
 40
            3.249999
  0
CIRCLE
  8
SA
 10
          -71.935350
 20
            8.444480
 40
            3.249999
  0
CIRCLE
  8
SA
 10
          -71.935350
 20
          144.294500
 40
            1.787499
  0
CIRCLE
  8
SA
 10
          -71.935350
 20
            8.444480
 40
            1.787499
  0
ARC
  8
SA
 10
          -71.935350
 20
          112.769500
 40
            3.412491
 50
             .000000
 51
          180.000000
  0
ARC
  8
SA
 10
          -71.935330
 20
           43.544460
 40
            5.004990
 50
             .000000
 51
           14.423980
  0
ARC
  8
SA
 10
          -71.935330
 20
           43.544460
 40
            5.005006
 50
          165.576100
 51
          360.000000
  0
CIRCLE
  8
SA
 10
          -71.935330
 20
           43.544460
 40
            3.575000
  0
ARC
  8
SA
 10
          -71.935350
 20
          144.944500
 40
            7.800003
 50
             .000000
 51
          180.000000
  6
CENTER
  0
ARC
  8
SA
 10
          -71.935350
 20
            7.794477
 40
            7.800003
 50
          180.000000
 51
          360.000000
  6
CENTER
  0
INSERT
  8
SA
  2
*d19
 10
             .000000
 20
             .000000
 41
            1.000000
 42
            1.000000
 43
            1.000000
 50
             .000000
  0
INSERT
  8
SA
  2
*d19
 10
             .000000
 20
             .000000
 41
            1.000000
 42
            1.000000
 43
            1.000000
 50
             .000000
  0
INSERT
  8
SA
  2
*d20
 10
             .000000
 20
             .000000
 41
            1.000000
 42
            1.000000
 43
            1.000000
 50
             .000000
  0
INSERT
  8
SA
  2
*d20
 10
             .000000
 20
             .000000
 41
            1.000000
 42
            1.000000
 43
            1.000000
 50
             .000000
  0
INSERT
  8
SA
  2
*d21
 10
             .000000
 20
             .000000
 41
            1.000000
 42
            1.000000
 43
            1.000000
 50
             .000000
  0
INSERT
  8
SA
  2
*d21
 10
             .000000
 20
             .000000
 41
            1.000000
 42
            1.000000
 43
            1.000000
 50
             .000000
  0
INSERT
  8
SA
  2
*d22
 10
             .000000
 20
             .000000
 41
            1.000000
 42
            1.000000
 43
            1.000000
 50
             .000000
  0
INSERT
  8
SA
  2
*d22
 10
             .000000
 20
             .000000
 41
            1.000000
 42
            1.000000
 43
            1.000000
 50
             .000000
  0
INSERT
  8
SA
  2
*d23
 10
             .000000
 20
             .000000
 41
            1.000000
 42
            1.000000
 43
            1.000000
 50
             .000000
  0
INSERT
  8
SA
  2
*d23
 10
             .000000
 20
             .000000
 41
            1.000000
 42
            1.000000
 43
            1.000000
 50
             .000000
  0
LINE
  8
DR
 10
           -3.000000
 20
          -35.553960
 11
           -3.000000
 21
          -21.253950
  0
LINE
  8
DR
 10
           -4.949989
 20
          -35.553960
 11
           -4.949989
 21
          -21.253950
  0
LINE
  8
DR
 10
           -4.949989
 20
          -24.503950
 11
          -32.249980
 21
          -24.503950
  0
LINE
  8
DR
 10
           -4.949989
 20
          -33.603940
 11
          -32.250000
 21
          -33.603940
  0
LINE
  8
DR
 10
          -22.499980
 20
          -35.648620
 11
          -22.499980
 21
          -22.199980
  6
CENTER
  0
LINE
  8
DR
 10
          -32.250000
 20
          -33.603940
 11
          -32.249980
 21
          -24.503950
  0
LINE
  8
DR
 10
          -17.625000
 20
          -33.603940
 11
          -27.375000
 21
          -33.603940
  0
LINE
  8
DR
 10
          -17.625000
 20
          -23.853940
 11
          -27.375000
 21
          -23.853940
  0
LINE
  8
DR
 10
          -27.375000
 20
          -34.253950
 11
          -27.375000
 21
          -33.603940
  0
LINE
  8
DR
 10
          -17.625000
 20
          -34.253950
 11
          -17.625000
 21
          -33.603940
  0
LINE
  8
DR
 10
          -17.625000
 20
          -24.503950
 11
          -17.625000
 21
          -23.853940
  0
LINE
  8
DR
 10
          -27.375000
 20
          -24.503950
 11
          -27.375000
 21
          -23.853940
  0
LINE
  8
DR
 10
          -18.920880
 20
          -29.053960
 11
          -26.207140
 21
          -29.053960
  6
CENTER
  0
LINE
  8
DR
 10
           -4.949989
 20
          -25.803960
 11
           -9.446313
 21
          -25.803960
  6
DASHED
  0
LINE
  8
DR
 10
           -4.949989
 20
          -32.303960
 11
          -32.250000
 21
          -32.303940
  0
LINE
  8
DR
 10
          -25.750000
 20
          -32.303940
 11
          -25.749980
 21
          -24.503950
  0
LINE
  8
DR
 10
          -19.249980
 20
          -32.303940
 11
          -19.249980
 21
          -24.503950
  0
LINE
  8
DR
 10
          -25.750000
 20
          -25.803960
 11
          -32.249980
 21
          -25.803960
  6
DASHED
  0
LINE
  8
DR
 10
          -25.750000
 20
          -25.803960
 11
          -19.249980
 21
          -25.803960
  0
LINE
  8
DR
 10
          -27.375000
 20
          -34.253950
 11
          -17.625000
 21
          -34.253950
  0
LINE
  8
DR
 10
           -3.000000
 20
          -21.253950
 11
           -4.949989
 21
          -21.253950
  0
LINE
  8
DR
 10
           -3.000000
 20
          -35.553960
 11
           -4.949989
 21
          -35.553960
  0
LINE
  8
DR
 10
          -12.645920
 20
          -25.803960
 11
          -19.249980
 21
          -25.803960
  6
DASHED
  0
CIRCLE
  8
DR
 10
          -22.499980
 20
          -29.053960
 40
            2.080000
  0
ARC
  8
DR
 10
          -22.499980
 20
          -29.053960
 40
            2.599995
 50
          323.941700
 51
          605.347400
  0
INSERT
  8
DR
  2
*d24
 10
             .000000
 20
             .000000
 41
            1.000000
 42
            1.000000
 43
            1.000000
 50
             .000000
  0
INSERT
  8
DR
  2
*d24
 10
             .000000
 20
             .000000
 41
            1.000000
 42
            1.000000
 43
            1.000000
 50
             .000000
  0
INSERT
  8
DR
  2
*d25
 10
             .000000
 20
             .000000
 41
            1.000000
 42
            1.000000
 43
            1.000000
 50
             .000000
  0
INSERT
  8
DR
  2
*d25
 10
             .000000
 20
             .000000
 41
            1.000000
 42
            1.000000
 43
            1.000000
 50
             .000000
  0
INSERT
  8
DR
  2
*d26
 10
             .000000
 20
             .000000
 41
            1.000000
 42
            1.000000
 43
            1.000000
 50
             .000000
  0
INSERT
  8
DR
  2
*d26
 10
             .000000
 20
             .000000
 41
            1.000000
 42
            1.000000
 43
            1.000000
 50
             .000000
  0
INSERT
  8
DR
  2
*d27
 10
             .000000
 20
             .000000
 41
            1.000000
 42
            1.000000
 43
            1.000000
 50
             .000000
  0
INSERT
  8
DR
  2
*d27
 10
             .000000
 20
             .000000
 41
            1.000000
 42
            1.000000
 43
            1.000000
 50
             .000000
  0
LINE
  8
RA
 10
         -139.232300
 20
          183.731500
 11
         -139.232300
 21
         -113.268500
  0
LINE
  8
RA
 10
         -139.232300
 20
         -113.268500
 11
           70.767730
 21
         -113.268500
  0
LINE
  8
RA
 10
           70.767730
 20
          183.731500
 11
           70.767730
 21
         -113.268500
  0
LINE
  8
RA
 10
         -139.232300
 20
          183.731500
 11
           70.767730
 21
          183.731500
  0
LINE
  8
RA
 10
         -119.232300
 20
          178.731500
 11
         -119.232300
 21
         -108.268500
  0
LINE
  8
RA
 10
         -119.232300
 20
         -108.268500
 11
           65.767730
 21
         -108.268500
  0
LINE
  8
RA
 10
           65.767730
 20
          178.731500
 11
           65.767730
 21
         -108.268500
  0
LINE
  8
RA
 10
         -119.232300
 20
          178.731500
 11
           65.767730
 21
          178.731500
  0
LINE
  8
RA
 10
          -94.232270
 20
          -68.268480
 11
           65.767730
 21
          -68.268480
  0
LINE
  8
RA
 10
           25.767730
 20
          -68.268480
 11
           25.767730
 21
         -108.268500
  0
LINE
  8
RA
 10
          -94.232270
 20
          -68.268480
 11
          -94.232270
 21
         -108.268500
  0
LINE
  8
RA
 10
          -94.232270
 20
          -83.268480
 11
           25.767730
 21
          -83.268480
  0
LINE
  8
RA
 10
         -139.232300
 20
           35.231510
 11
         -129.232300
 21
           35.231510
  0
LINE
  8
RA
 10
         -150.149000
 20
          187.384300
 11
           75.044620
 21
          187.384300
  6
DOT
  0
LINE
  8
RA
 10
           75.044620
 20
          187.384300
 11
           75.044620
 21
         -120.650500
  6
DOT
  0
LINE
  8
RA
 10
         -139.232300
 20
          183.731500
 11
         -139.232300
 21
         -113.268500
  0
LINE
  8
RA
 10
         -139.232300
 20
         -113.268500
 11
           70.767730
 21
         -113.268500
  0
LINE
  8
RA
 10
           70.767730
 20
          183.731500
 11
           70.767730
 21
         -113.268500
  0
LINE
  8
RA
 10
         -139.232300
 20
          183.731500
 11
           70.767730
 21
          183.731500
  0
LINE
  8
RA
 10
         -119.232300
 20
          178.731500
 11
         -119.232300
 21
         -108.268500
  0
LINE
  8
RA
 10
         -119.232300
 20
         -108.268500
 11
           65.767730
 21
         -108.268500
  0
LINE
  8
RA
 10
           65.767730
 20
          178.731500
 11
           65.767730
 21
         -108.268500
  0
LINE
  8
RA
 10
         -119.232300
 20
          178.731500
 11
           65.767730
 21
          178.731500
  0
LINE
  8
RA
 10
          -94.232270
 20
          -68.268480
 11
           65.767730
 21
          -68.268480
  0
LINE
  8
RA
 10
           25.767730
 20
          -68.268480
 11
           25.767730
 21
         -108.268500
  0
LINE
  8
RA
 10
          -94.232270
 20
          -68.268480
 11
          -94.232270
 21
         -108.268500
  0
LINE
  8
RA
 10
          -94.232270
 20
          -83.268480
 11
           25.767730
 21
          -83.268480
  0
LINE
  8
RA
 10
         -139.232300
 20
           35.231510
 11
         -129.232300
 21
           35.231510
  0
LINE
  8
RA
 10
         -150.149000
 20
          187.384300
 11
           75.044620
 21
          187.384300
  6
DOT
  0
LINE
  8
RA
 10
           75.044620
 20
          187.384300
 11
           75.044620
 21
         -120.650500
  6
DOT
  0
LINE
  8
RA
 10
          -79.262760
 20
          -43.047680
 11
          -79.262760
 21
          -64.047700
  0
LINE
  8
RA
 10
          -94.262760
 20
          -50.047680
 11
          -39.262760
 21
          -50.047680
  0
LINE
  8
RA
 10
          -71.262760
 20
          -50.047680
 11
          -71.262760
 21
          -64.047700
  0
LINE
  8
RA
 10
          -63.262760
 20
          -50.047680
 11
          -63.262760
 21
          -64.047700
  0
LINE
  8
RA
 10
          -55.262760
 20
          -50.047680
 11
          -55.262760
 21
          -64.047700
  0
LINE
  8
RA
 10
          -47.262760
 20
          -50.047680
 11
          -47.262760
 21
          -64.047700
  0
LINE
  8
RA
 10
          -39.262760
 20
          -43.047680
 11
          -39.262760
 21
          -64.047700
  0
LINE
  8
RA
 10
          -79.262760
 20
          -57.047680
 11
          -39.262760
 21
          -57.047680
  0
LINE
  8
RA
 10
          -94.262760
 20
          -64.047700
 11
          -39.262760
 21
          -64.047700
  0
LINE
  8
RA
 10
          -94.262760
 20
          -43.047680
 11
          -39.262760
 21
          -43.047680
  0
LINE
  8
RA
 10
          -94.262760
 20
          -43.047680
 11
          -94.262760
 21
          -64.047700
  0
LINE
  8
RA
 10
          -61.442180
 20
          -43.047680
 11
          -61.442180
 21
          -50.047680
  0
TEXT
  8
RA
 10
         -124.360900
 20
          -94.491690
 40
            3.500000
  1
Z 1899 M05 01 4A
 50
           90.000000
 41
             .714286
  0
TEXT
  8
RA
 10
          -90.515470
 20
         -101.797300
 40
            3.000000
  1
Falztreibriegel "BKS 1899"
 50
             .000000
 41
             .714286
  0
TEXT
  8
RA
 10
          -90.515470
 20
         -106.083000
 40
            3.000000
  1
mit automatischer Verriegelung
 50
             .000000
 41
             .714286
  0
TEXT
  8
RA
 10
         -116.650400
 20
         -105.264800
 40
            2.000000
  1
22.7.93 Brammertz
 50
             .000000
 41
             .578512
  0
TEXT
  8
RA
 10
          -61.073750
 20
          -55.557950
 40
            3.000000
  1
35
 50
             .000000
 41
             .714286
  0
TEXT
  8
RA
 10
          -68.905330
 20
          -55.557950
 40
            3.000000
  1
30
 50
             .000000
 41
             .714286
  0
TEXT
  8
RA
 10
          -77.002730
 20
          -55.444200
 40
            3.000000
  1
25
 50
             .000000
 41
             .714286
  0
TEXT
  8
RA
 10
          -88.577640
 20
          -58.011690
 40
            3.500000
  1
A
 50
             .000000
 41
             .714286
  0
TEXT
  8
RA
 10
          -52.871930
 20
          -55.444200
 40
            3.000000
  1
40
 50
             .000000
 41
             .714286
  0
TEXT
  8
RA
 10
          -45.249190
 20
          -55.406270
 40
            3.000000
  1
45
 50
             .000000
 41
             .714286
  0
TEXT
  8
RA
 10
          -91.578900
 20
          -48.387710
 40
            3.500000
  1
Ausf.
 50
             .000000
 41
             .714286
  0
TEXT
  8
RA
 10
          -77.129040
 20
          -62.355930
 40
            3.000000
  1
50
 50
             .000000
 41
             .714286
  0
TEXT
  8
RA
 10
          -68.869220
 20
          -62.355930
 40
            3.000000
  1
54
 50
             .000000
 41
             .714286
  0
TEXT
  8
RA
 10
          -60.994170
 20
          -62.210750
 40
            3.000000
  1
60
 50
             .000000
 41
             .714286
  0
TEXT
  8
RA
 10
          -52.871150
 20
          -62.210750
 40
            3.000000
  1
65
 50
             .000000
 41
             .714286
  0
TEXT
  8
RA
 10
          -74.905900
 20
          -48.462200
 40
            3.000000
  1
eckig
 50
             .000000
 41
             .714286
  0
TEXT
  8
RA
 10
          -54.666760
 20
          -48.351200
 40
            3.000000
  1
abger.
 50
             .000000
 41
             .714286
  0
TEXT
  8
RA
 10
          -45.216260
 20
          -62.309400
 40
            3.000000
  1
70
 50
             .000000
 41
             .714286
  0
TEXT
  8
TX
 10
         -106.792600
 20
          -31.631150
 40
            3.000000
  1
DIN R und DIN L
 50
             .000000
 41
             .714286
  0
TEXT
  8
TX
 10
         -106.792600
 20
          -35.916860
 40
            3.000000
  1
verwendbar
 50
             .000000
 41
             .714286
  0
ENDSEC
  0
EOF
