  0
SECTION
  2
HEADER
  9
$ACADVER
  1
AC1015
  9
$ACADMAINTVER
 70
    20
  9
$DWGCODEPAGE
  3
ANSI_1252
  9
$INSBASE
 10
0.0
 20
0.0
 30
0.0
  9
$EXTMIN
 10
-2605.243141160315
 20
1280.509811902453
 30
0.0
  9
$EXTMAX
 10
2966.255771730772
 20
3361.679752939273
 30
0.0
  9
$LIMMIN
 10
0.0
 20
0.0
  9
$LIMMAX
 10
420.0
 20
420.0
  9
$ORTHOMODE
 70
     1
  9
$REGENMODE
 70
     1
  9
$FILLMODE
 70
     1
  9
$QTEXTMODE
 70
     0
  9
$MIRRTEXT
 70
     0
  9
$LTSCALE
 40
1.0
  9
$ATTMODE
 70
     1
  9
$TEXTSIZE
 40
2.399999999999999
  9
$TRACEWID
 40
0.05
  9
$TEXTSTYLE
  7
NORM
  9
$CLAYER
  8
UMRISS07
  9
$CELTYPE
  6
BYLAYER
  9
$CECOLOR
 62
   256
  9
$CELTSCALE
 40
1.0
  9
$DISPSILH
 70
     0
  9
$DIMSCALE
 40
1.0
  9
$DIMASZ
 40
3.5
  9
$DIMEXO
 40
0.0
  9
$DIMDLI
 40
8.0
  9
$DIMRND
 40
0.0
  9
$DIMDLE
 40
0.0
  9
$DIMEXE
 40
0.5
  9
$DIMTP
 40
0.0
  9
$DIMTM
 40
0.0
  9
$DIMTXT
 40
3.5
  9
$DIMCEN
 40
1.5
  9
$DIMTSZ
 40
0.0
  9
$DIMTOL
 70
     0
  9
$DIMLIM
 70
     0
  9
$DIMTIH
 70
     0
  9
$DIMTOH
 70
     0
  9
$DIMSE1
 70
     0
  9
$DIMSE2
 70
     0
  9
$DIMTAD
 70
     1
  9
$DIMZIN
 70
     8
  9
$DIMBLK
  1

  9
$DIMASO
 70
     1
  9
$DIMSHO
 70
     1
  9
$DIMPOST
  1

  9
$DIMAPOST
  1

  9
$DIMALT
 70
     0
  9
$DIMALTD
 70
     2
  9
$DIMALTF
 40
25.4
  9
$DIMLFAC
 40
1.0
  9
$DIMTOFL
 70
     1
  9
$DIMTVP
 40
0.0
  9
$DIMTIX
 70
     1
  9
$DIMSOXD
 70
     0
  9
$DIMSAH
 70
     0
  9
$DIMBLK1
  1

  9
$DIMBLK2
  1

  9
$DIMSTYLE
  2
NORMAL
  9
$DIMCLRD
 70
   256
  9
$DIMCLRE
 70
   256
  9
$DIMCLRT
 70
     3
  9
$DIMTFAC
 40
0.5
  9
$DIMGAP
 40
1.0
  9
$DIMJUST
 70
     0
  9
$DIMSD1
 70
     0
  9
$DIMSD2
 70
     0
  9
$DIMTOLJ
 70
     1
  9
$DIMTZIN
 70
     8
  9
$DIMALTZ
 70
     0
  9
$DIMALTTZ
 70
     0
  9
$DIMUPT
 70
     0
  9
$DIMDEC
 70
     2
  9
$DIMTDEC
 70
     2
  9
$DIMALTU
 70
     2
  9
$DIMALTTD
 70
     2
  9
$DIMTXSTY
  7
ARIAL-STANDARD
  9
$DIMAUNIT
 70
     0
  9
$DIMADEC
 70
     0
  9
$DIMALTRND
 40
0.0
  9
$DIMAZIN
 70
     0
  9
$DIMDSEP
 70
    46
  9
$DIMATFIT
 70
     3
  9
$DIMFRAC
 70
     0
  9
$DIMLDRBLK
  1

  9
$DIMLUNIT
 70
     2
  9
$DIMLWD
 70
    -2
  9
$DIMLWE
 70
    -2
  9
$DIMTMOVE
 70
     0
  9
$LUNITS
 70
     2
  9
$LUPREC
 70
     2
  9
$SKETCHINC
 40
0.1
  9
$FILLETRAD
 40
0.0
  9
$AUNITS
 70
     0
  9
$AUPREC
 70
     0
  9
$MENU
  1
.
  9
$ELEVATION
 40
0.0
  9
$PELEVATION
 40
0.0
  9
$THICKNESS
 40
0.0
  9
$LIMCHECK
 70
     0
  9
$CHAMFERA
 40
2.5
  9
$CHAMFERB
 40
2.5
  9
$CHAMFERC
 40
1.0
  9
$CHAMFERD
 40
0.0
  9
$SKPOLY
 70
     0
  9
$TDCREATE
 40
2456604.387740440
  9
$TDUCREATE
 40
2456604.346073774
  9
$TDUPDATE
 40
2456720.330730868
  9
$TDUUPDATE
 40
2456720.289064202
  9
$TDINDWG
 40
0.3787178125
  9
$TDUSRTIMER
 40
0.3786869907
  9
$USRTIMER
 70
     1
  9
$ANGBASE
 50
0.0
  9
$ANGDIR
 70
     0
  9
$PDMODE
 70
     0
  9
$PDSIZE
 40
0.0
  9
$PLINEWID
 40
0.0
  9
$SPLFRAME
 70
     0
  9
$SPLINETYPE
 70
     6
  9
$SPLINESEGS
 70
     8
  9
$HANDSEED
  5
542
  9
$SURFTAB1
 70
     6
  9
$SURFTAB2
 70
     6
  9
$SURFTYPE
 70
     6
  9
$SURFU
 70
     6
  9
$SURFV
 70
     6
  9
$UCSBASE
  2

  9
$UCSNAME
  2

  9
$UCSORG
 10
0.0
 20
0.0
 30
0.0
  9
$UCSXDIR
 10
1.0
 20
0.0
 30
0.0
  9
$UCSYDIR
 10
0.0
 20
1.0
 30
0.0
  9
$UCSORTHOREF
  2

  9
$UCSORTHOVIEW
 70
     0
  9
$UCSORGTOP
 10
0.0
 20
0.0
 30
0.0
  9
$UCSORGBOTTOM
 10
0.0
 20
0.0
 30
0.0
  9
$UCSORGLEFT
 10
0.0
 20
0.0
 30
0.0
  9
$UCSORGRIGHT
 10
0.0
 20
0.0
 30
0.0
  9
$UCSORGFRONT
 10
0.0
 20
0.0
 30
0.0
  9
$UCSORGBACK
 10
0.0
 20
0.0
 30
0.0
  9
$PUCSBASE
  2

  9
$PUCSNAME
  2

  9
$PUCSORG
 10
0.0
 20
0.0
 30
0.0
  9
$PUCSXDIR
 10
1.0
 20
0.0
 30
0.0
  9
$PUCSYDIR
 10
0.0
 20
1.0
 30
0.0
  9
$PUCSORTHOREF
  2

  9
$PUCSORTHOVIEW
 70
     0
  9
$PUCSORGTOP
 10
0.0
 20
0.0
 30
0.0
  9
$PUCSORGBOTTOM
 10
0.0
 20
0.0
 30
0.0
  9
$PUCSORGLEFT
 10
0.0
 20
0.0
 30
0.0
  9
$PUCSORGRIGHT
 10
0.0
 20
0.0
 30
0.0
  9
$PUCSORGFRONT
 10
0.0
 20
0.0
 30
0.0
  9
$PUCSORGBACK
 10
0.0
 20
0.0
 30
0.0
  9
$USERI1
 70
     0
  9
$USERI2
 70
     0
  9
$USERI3
 70
     0
  9
$USERI4
 70
     0
  9
$USERI5
 70
     0
  9
$USERR1
 40
0.0
  9
$USERR2
 40
0.0
  9
$USERR3
 40
0.0
  9
$USERR4
 40
0.0
  9
$USERR5
 40
0.0
  9
$WORLDVIEW
 70
     1
  9
$SHADEDGE
 70
     3
  9
$SHADEDIF
 70
    70
  9
$TILEMODE
 70
     1
  9
$MAXACTVP
 70
    48
  9
$PINSBASE
 10
0.0
 20
0.0
 30
0.0
  9
$PLIMCHECK
 70
     0
  9
$PEXTMIN
 10
26.66999878883363
 20
20.31999878883363
 30
0.0
  9
$PEXTMAX
 10
240.0299890995026
 20
182.8799890995025
 30
0.0
  9
$PLIMMIN
 10
-6.350006103515625
 20
-6.349999904632568
  9
$PLIMMAX
 10
273.0499877929688
 20
209.5499939918518
  9
$UNITMODE
 70
     0
  9
$VISRETAIN
 70
     1
  9
$PLINEGEN
 70
     0
  9
$PSLTSCALE
 70
     1
  9
$TREEDEPTH
 70
  3020
  9
$CMLSTYLE
  2
STANDARD
  9
$CMLJUST
 70
     0
  9
$CMLSCALE
 40
1.0
  9
$PROXYGRAPHICS
 70
     1
  9
$MEASUREMENT
 70
     1
  9
$CELWEIGHT
370
    -1
  9
$ENDCAPS
280
     0
  9
$JOINSTYLE
280
     0
  9
$LWDISPLAY
290
     0
  9
$INSUNITS
 70
     0
  9
$HYPERLINKBASE
  1

  9
$STYLESHEET
  1

  9
$XEDIT
290
     1
  9
$CEPSNTYPE
380
     0
  9
$PSTYLEMODE
290
     1
  9
$FINGERPRINTGUID
  2
{6AFACC13-FDE0-43F3-AD01-668998676537}
  9
$VERSIONGUID
  2
{C2CC383C-1BA0-4404-A610-851CE87D1285}
  9
$EXTNAMES
290
     1
  9
$PSVPSCALE
 40
0.0
  9
$OLESTARTUP
290
     0
  0
ENDSEC
  0
SECTION
  2
CLASSES
  0
CLASS
  1
ACDBDICTIONARYWDFLT
  2
AcDbDictionaryWithDefault
  3
ObjectDBX Classes
 90
        0
280
     0
281
     0
  0
CLASS
  1
ACDBPLACEHOLDER
  2
AcDbPlaceHolder
  3
ObjectDBX Classes
 90
        0
280
     0
281
     0
  0
CLASS
  1
LAYOUT
  2
AcDbLayout
  3
ObjectDBX Classes
 90
        0
280
     0
281
     0
  0
CLASS
  1
PLOTSETTINGS
  2
AcDbPlotSettings
  3
ObjectDBX Classes
 90
    32768
280
     0
281
     0
  0
CLASS
  1
DICTIONARYVAR
  2
AcDbDictionaryVar
  3
ObjectDBX Classes
 90
        0
280
     0
281
     0
  0
CLASS
  1
ACME_DOCUMENT
  2
AcMeDbDoc
  3
AcMeServices
 90
    33792
280
     0
281
     0
  0
CLASS
  1
AMGSETTINGSOBJ
  2
AmgSettingsObj
  3
"AcadM|Product Description: AutoCAD Mechanical|Company: Autodesk, Inc."
 90
     1024
280
     0
281
     0
  0
CLASS
  1
ACMESCOPE
  2
AcMeScope
  3
AcMeServices
 90
     1024
280
     0
281
     0
  0
CLASS
  1
ACMECOMMANDHISTORY
  2
AcMeCommandHistory
  3
AcMeServices
 90
    33792
280
     0
281
     0
  0
CLASS
  1
ACIMSYSVARMAN
  2
AcImSysVarManager
  3
AcMeServices
 90
     1024
280
     0
281
     0
  0
CLASS
  1
ACIMREALSYSVAR
  2
AcImRealSysVar
  3
AcMeServices
 90
     1024
280
     0
281
     0
  0
CLASS
  1
ACIMINTSYSVAR
  2
AcImIntSysVar
  3
AcMeServices
 90
     1024
280
     0
281
     0
  0
CLASS
  1
ACMEDRAWINGMAN
  2
AcMeDrawingMan
  3
AcMeServices
 90
    33792
280
     0
281
     0
  0
CLASS
  1
ACMEVIEW
  2
AcMeView
  3
AcMeServices
 90
    33792
280
     0
281
     0
  0
CLASS
  1
ACDBENTITYCACHE
  2
AcMeEntityCache
  3
AcMeServices
 90
    33792
280
     0
281
     0
  0
CLASS
  1
GSMANAGER
  2
AcMeGSManager
  3
AcMeServices
 90
    33792
280
     1
281
     0
  0
CLASS
  1
AMDTINTERNALREACTOR
  2
AmdtInternalReactor
  3
AcMeServices
 90
     1024
280
     0
281
     0
  0
CLASS
  1
ACMESTATEMGR
  2
AcMeStateMgr
  3
AcMeServices
 90
     1024
280
     0
281
     0
  0
CLASS
  1
ACGREFMASTER
  2
AcGrefMaster
  3
AcAttribServices
 90
     1024
280
     0
281
     0
  0
CLASS
  1
ACME_DATABASE
  2
AcMeDbDatabase
  3
AcMeServices
 90
    33792
280
     0
281
     0
  0
CLASS
  1
ACRFINSADJUSTERMGR
  2
AcRfInsAdjusterMgr
  3
AcMeServices
 90
    33792
280
     0
281
     0
  0
CLASS
  1
ACGREFACADMASTER
  2
AcGrefacadMaster
  3
AcGrefServices
 90
    33792
280
     0
281
     0
  0
CLASS
  1
AMIMASTER
  2
AmiMaster
  3
AmiServices
 90
    33792
280
     0
281
     0
  0
CLASS
  1
ACMDATADICTIONARY
  2
AcmDataDictionary
  3
"AcmSymBB|Product Description: AutoCAD Mechanical|Company: Autodesk, Inc."
 90
     1024
280
     0
281
     0
  0
CLASS
  1
ACMDATAENTRYBLOCK
  2
AcmDataEntryBlock
  3
AcmSymBB|Product Description: AutoCAD Mechanical|Company: Autodesk, Inc.
 90
     1024
280
     0
281
     0
  0
CLASS
  1
ACIMSTRSYSVAR
  2
AcImStrSysVar
  3
AcMeServices
 90
     1024
280
     0
281
     0
  0
CLASS
  1
ACMSTANDARDDIN
  2
AcmStandardDIN
  3
"Amdt_StdImp|Product Description: AutoCAD Mechanical|Company: Autodesk, Inc."
 90
     1024
280
     0
281
     0
  0
CLASS
  1
AMGOBJPROPCFG
  2
AmgObjPropCfg
  3
"AmgLay|Product Description: AutoCAD Mechanical|Company: Autodesk, Inc."
 90
     1025
280
     0
281
     0
  0
CLASS
  1
AMDTEDGESTANDARDDIN
  2
AmdtEdgeStdDIN
  3
"Amdt_StdImp|Product Description: AutoCAD Mechanical|Company: Autodesk, Inc."
 90
     1024
280
     0
281
     0
  0
CLASS
  1
ACMSURFSTANDARDDIN
  2
AcmSurfTextStdDIN
  3
"Amdt_StdImp|Product Description: AutoCAD Mechanical|Company: Autodesk, Inc."
 90
     1024
280
     0
281
     0
  0
CLASS
  1
ACMFCFSTANDARDDIN
  2
AcmFCFStdDIN
  3
"Amdt_StdImp|Product Description: AutoCAD Mechanical|Company: Autodesk, Inc."
 90
     1024
280
     0
281
     0
  0
CLASS
  1
ACMWELDSTANDARDDIN
  2
AcmWeldingStdDIN
  3
"Amdt_StdImp|Product Description: AutoCAD Mechanical|Company: Autodesk, Inc."
 90
     1024
280
     0
281
     0
  0
CLASS
  1
ACMIDSTANDARDDIN
  2
AcmIdStdDIN
  3
"Amdt_StdImp|Product Description: AutoCAD Mechanical|Company: Autodesk, Inc."
 90
     1024
280
     0
281
     0
  0
CLASS
  1
ACMDATUMSTANDARDDIN
  2
AcmDatumStdDIN
  3
"Amdt_StdImp|Product Description: AutoCAD Mechanical|Company: Autodesk, Inc."
 90
     1024
280
     0
281
     0
  0
CLASS
  1
ACMBOMSTANDARDDIN
  2
AcmBOMStdDIN
  3
"Amdt_StdImp|Product Description: AutoCAD Mechanical|Company: Autodesk, Inc."
 90
     1024
280
     0
281
     0
  0
CLASS
  1
ACMDETAILSTANDARDDIN
  2
AmdtDetailSymStdDIN
  3
"Amdt_StdImp|Product Description: AutoCAD Mechanical|Company: Autodesk, Inc."
 90
     1024
280
     0
281
     0
  0
CLASS
  1
ACMSECTIONSTANDARDDIN
  2
AmdtSectionSymStdDIN
  3
"Amdt_StdImp|Product Description: AutoCAD Mechanical|Company: Autodesk, Inc."
 90
     1024
280
     0
281
     0
  0
CLASS
  1
ACMCENTERLINESTANDARDDIN
  2
AmdtCenterLineStdDIN
  3
"Amdt_StdImp|Product Description: AutoCAD Mechanical|Company: Autodesk, Inc."
 90
     1024
280
     0
281
     0
  0
CLASS
  1
ACMNOTESTANDARDDIN
  2
AmdtNoteStdDIN
  3
"Amdt_StdImp|Product Description: AutoCAD Mechanical|Company: Autodesk, Inc."
 90
     1024
280
     0
281
     0
  0
CLASS
  1
ACAMGLAYSTD
  2
AcAmgLayStd
  3
"AmgLay|Product Description: AutoCAD Mechanical|Company: Autodesk, Inc."
 90
     1024
280
     0
281
     0
  0
CLASS
  1
ACAMGDIMSTD
  2
AcAmgDimStd
  3
"AmgDim|Product Description: AutoCAD Mechanical|Company: Autodesk, Inc."
 90
     1024
280
     0
281
     0
  0
CLASS
  1
ACAMGHOLECHARTSTDDIN
  2
AcAmgHoleChartStdDIN
  3
AmgDim|Product Description: AutoCAD Mechanical|Company: Autodesk, Inc.
 90
     1024
280
     0
281
     0
  0
CLASS
  1
ACAMGTITLESTD
  2
AcAmgTitleStd
  3
"AmgTitle|Product Description: AutoCAD Mechanical|Company: Autodesk, Inc."
 90
     4095
280
     0
281
     0
  0
CLASS
  1
ACAMGFILTERDAT
  2
AcAmgFilterDat
  3
"AcadM|Product Description: AutoCAD Mechanical|Company: Autodesk, Inc."
 90
    33792
280
     0
281
     0
  0
CLASS
  1
LAYER_INDEX
  2
AcDbLayerIndex
  3
ObjectDBX Classes
 90
    32768
280
     0
281
     0
  0
CLASS
  1
IDBUFFER
  2
AcDbIdBuffer
  3
ObjectDBX Classes
 90
    32768
280
     0
281
     0
  0
CLASS
  1
TABLESTYLE
  2
AcDbTableStyle
  3
ObjectDBX Classes
 90
     4095
280
     0
281
     0
  0
CLASS
  1
AM_DRAWING_MGR
  2
AcDmDwgMgr
  3
AcMechDwgViewMgmt
 90
     1024
280
     0
281
     0
  0
CLASS
  1
AM_DWG_DOCUMENT
  2
AcDmDwgDocument
  3
AcMechDwgViewMgmt
 90
     1024
280
     0
281
     0
  0
CLASS
  1
AM_DWG_SHEET
  2
AcDmSheet
  3
AcMechDwgViewMgmt
 90
     1024
280
     0
281
     0
  0
CLASS
  1
AM_VIEWDIMPARMAP
  2
AcDmViewDimParMap
  3
AcMechDwgViewMgmt
 90
     1024
280
     0
281
     0
  0
CLASS
  1
AM_DWGMGR_NAME
  2
AcDmDwgMgrName
  3
AcMechDwgViewMgmt
 90
     1024
280
     0
281
     0
  0
CLASS
  1
AMDTMENUSTATEMGR
  2
AmdtMenuStateMgr
  3
McadcomServices
 90
    33792
280
     0
281
     0
  0
CLASS
  1
AMDTMCOMMENUSTATE
  2
AmdtMcomMenuState
  3
McadcomServices
 90
    33792
280
     0
281
     0
  0
CLASS
  1
MAPIAMMOUDLE
  2
MApiAmModule
  3
MApiAmServices
 90
    33792
280
     0
281
     0
  0
CLASS
  1
AMDTADMENUSTATE
  2
AmdtAdMenuState
  3
DesignerServices
 90
    33792
280
     1
281
     0
  0
CLASS
  1
ADAPPL
  2
AcAdAppl
  3
DesignerAssemblies
 90
    33792
280
     0
281
     0
  0
CLASS
  1
DEPMGR
  2
AcAdDepMgr
  3
DesignerAssemblies
 90
    33792
280
     0
281
     0
  0
CLASS
  1
PARAMMGR
  2
AcAdParamMgr
  3
DesignerAssemblies
 90
    33792
280
     0
281
     0
  0
CLASS
  1
PARAMSCOPE
  2
AcAdParamScope
  3
DesignerAssemblies
 90
    33792
280
     0
281
     0
  0
CLASS
  1
NAMEDAPPL
  2
AcAdNamedAppl
  3
DesignerAssemblies
 90
    33792
280
     0
281
     0
  0
CLASS
  1
AMDTDMMENUSTATE
  2
AmdtDmMenuState
  3
AcMechDwgViewMgmt
 90
    33792
280
     1
281
     0
  0
CLASS
  1
AMDTAMMENUSTATE
  2
AmdtAmMenuState
  3
DesignerAssemblies
 90
    33792
280
     0
281
     0
  0
CLASS
  1
ACAMPROJECT
  2
AcAmProject
  3
DesignerAssemblies
 90
    33792
280
     0
281
     0
  0
CLASS
  1
ACAMGRCOMPDEF
  2
AcAmGrCompDef
  3
DesignerAssemblies
 90
    33792
280
     0
281
     0
  0
CLASS
  1
ACCMCONTEXT
  2
AcCmContext
  3
DesignerAssemblies
 90
    33792
280
     0
281
     0
  0
CLASS
  1
ACAMCOMPDEF
  2
AcAmCompDef
  3
DesignerAssemblies
 90
    33792
280
     0
281
     0
  0
CLASS
  1
ACAMCOMPDEFMGR
  2
AcAmCompDefMgr
  3
DesignerAssemblies
 90
    33792
280
     0
281
     0
  0
CLASS
  1
AMCONTEXTMGR
  2
AcAmContextMgr
  3
DesignerAssemblies
 90
    33792
280
     0
281
     0
  0
CLASS
  1
ACAMCONTEXTMODELER
  2
AcAmContextModeler
  3
DesignerAssemblies
 90
    33792
280
     0
281
     0
  0
CLASS
  1
ACMTHREADLINESTANDARDDIN
  2
AmdtThreadLineStdDIN
  3
"Amdt_StdImp|Product Description: AutoCAD Mechanical|Company: Autodesk, Inc."
 90
     1024
280
     0
281
     0
  0
CLASS
  1
CATALOGSTATE
  2
AcAmCatalogState
  3
DesignerAssemblies
 90
    33792
280
     0
281
     0
  0
CLASS
  1
ACAMGRCOMPDEFSET
  2
AcAmGrCompDefSet
  3
DesignerAssemblies
 90
    33792
280
     0
281
     0
  0
CLASS
  1
AMDTBROWSERDBTAB
  2
AmdtBrowserDbTab
  3
McadcomServices
 90
    33792
280
     0
281
     0
  0
CLASS
  1
CBROWSERAPPOBJECT
  2
CBrowserAppObject
  3
McadcomServices
 90
    33792
280
     0
281
     0
  0
CLASS
  1
DM_PLACEHOLDER
  2
AcDmSelsetPlaceholder
  3
McadcomServices
 90
    33792
280
     0
281
     0
  0
CLASS
  1
SORTENTSTABLE
  2
AcDbSortentsTable
  3
ObjectDBX Classes
 90
        0
280
     0
281
     0
  0
CLASS
  1
MATERIAL
  2
AcDbMaterial
  3
ObjectDBX Classes
 90
     1153
280
     0
281
     0
  0
CLASS
  1
VISUALSTYLE
  2
AcDbVisualStyle
  3
ObjectDBX Classes
 90
     4095
280
     0
281
     0
  0
CLASS
  1
SCALE
  2
AcDbScale
  3
ObjectDBX Classes
 90
     1153
280
     0
281
     0
  0
CLASS
  1
MLEADERSTYLE
  2
AcDbMLeaderStyle
  3
ACDB_MLEADERSTYLE_CLASS
 90
    36863
280
     0
281
     0
  0
CLASS
  1
ACRFATTGENMGR
  2
AcRfAttGeneralMgr
  3
AcAttribServices
 90
    33792
280
     0
281
     0
  0
CLASS
  1
ACRFOBJATTMGR
  2
AcRfObjAttGroupMgr
  3
AcAttribServices
 90
    33792
280
     0
281
     0
  0
CLASS
  1
ACRFMCADAPIATTHOLDER
  2
AcRfMCADAPIAttHolder
  3
AcAttribServices
 90
    33792
280
     0
281
     0
  0
CLASS
  1
AMDTSYSATTR
  2
AmdtSystemAttribute
  3
AcAttribServices
 90
    33792
280
     0
281
     0
  0
CLASS
  1
ACMTAPERSTANDARDDIN
  2
AcmTaperStdDIN
  3
"Amdt_StdImp|Product Description: AutoCAD Mechanical|Company: Autodesk, Inc."
 90
     1024
280
     0
281
     0
  0
CLASS
  1
ACMANOOTATIONVIEWSTANDARDDIN
  2
AmdtAnViewStdDIN
  3
"Amdt_StdImp|Product Description: AutoCAD Mechanical|Company: Autodesk, Inc."
 90
     1024
280
     0
281
     0
  0
CLASS
  1
CAMSSTRUCTBTNSTATE
  2
StructBtnState
  3
DesignerAssemblies
 90
    33792
280
     0
281
     0
  0
CLASS
  1
CELLSTYLEMAP
  2
AcDbCellStyleMap
  3
ObjectDBX Classes
 90
     1152
280
     0
281
     0
  0
CLASS
  1
MULTILEADER
  2
AcDbMLeader
  3
ACDB_MLEADER_CLASS
 90
    33793
280
     0
281
     1
  0
CLASS
  1
ACDBASSOC2DCONSTRAINTGROUP
  2
AcDbAssoc2dConstraintGroup
  3
ObjectDBX Classes
 90
    33793
280
     0
281
     0
  0
CLASS
  1
ACDBASSOCGEOMDEPENDENCY
  2
AcDbAssocGeomDependency
  3
ObjectDBX Classes
 90
    33793
280
     0
281
     0
  0
CLASS
  1
ACDBASSOCNETWORK
  2
AcDbAssocNetwork
  3
ObjectDBX Classes
 90
    33793
280
     0
281
     0
  0
CLASS
  1
AMDTEDGESTANDARDDIN13715
  2
AmdtEdgeStdDIN13715
  3
"Amdt_StdImp|Product Description: AutoCAD Mechanical|Company: Autodesk, Inc."
 90
    33792
280
     0
281
     0
  0
CLASS
  1
ACMSURFSTANDARDDIN2002
  2
AcmSurfTextStdDIN2002
  3
"Amdt_StdImp|Product Description: AutoCAD Mechanical|Company: Autodesk, Inc."
 90
    33792
280
     0
281
     0
  0
CLASS
  1
ACMFCFSTANDARDDIN2008
  2
AcmFCFStdDIN2008
  3
"Amdt_StdImp|Product Description: AutoCAD Mechanical|Company: Autodesk, Inc."
 90
    33792
280
     0
281
     0
  0
CLASS
  1
ACMIDSTANDARDDIN2008
  2
AcmIdStdDIN2008
  3
"Amdt_StdImp|Product Description: AutoCAD Mechanical|Company: Autodesk, Inc."
 90
    33792
280
     0
281
     0
  0
CLASS
  1
AMDTNOTETEMPLATEDB
  2
AmdtNoteTemplateDB
  3
AcmSymBB|Product Description: AutoCAD Mechanical|Company: Autodesk, Inc.
 90
    33792
280
     0
281
     0
  0
CLASS
  1
AMDTNOTE
  2
AmdtNote
  3
"AcmSymBB|Product Description: AutoCAD Mechanical|Company: Autodesk, Inc."
 90
    36863
280
     0
281
     1
  0
CLASS
  1
ACDBCIRCARCRES
  2
AcDbCircArcRes
  3
AcGrefServices
 90
    33792
280
     0
281
     0
  0
ENDSEC
  0
SECTION
  2
TABLES
  0
TABLE
  2
VPORT
  5
2C
330
0
100
AcDbSymbolTable
 70
     1
  0
VPORT
  5
2D
330
2C
100
AcDbSymbolTableRecord
100
AcDbViewportTableRecord
  2
*Active
 70
     0
 10
0.0
 20
0.0
 11
1.0
 21
1.0
 12
-2049.35983699765
 22
2229.56123246228
 13
0.0
 23
0.0
 14
2.5
 24
2.5
 15
10.0
 25
10.0
 16
0.0
 26
0.0
 36
1.0
 17
0.0
 27
0.0
 37
0.0
 40
1151.571864633442
 41
2.039662447257383
 42
50.0
 43
0.0
 44
0.0
 50
0.0
 51
0.0
 71
     0
 72
  5000
 73
     1
 74
     1
 75
     0
 76
     0
 77
     0
 78
     0
281
     0
 65
     1
110
0.0
120
0.0
130
0.0
111
1.0
121
0.0
131
0.0
112
0.0
122
1.0
132
0.0
 79
     0
146
0.0
1001
ACAD_NAV_VCDISPLAY
1070
     3
  0
ENDTAB
  0
TABLE
  2
LTYPE
  5
27
330
0
100
AcDbSymbolTable
 70
    13
  0
LTYPE
  5
28
330
27
100
AcDbSymbolTableRecord
100
AcDbLinetypeTableRecord
  2
BYBLOCK
 70
     0
  3

 72
    65
 73
     0
 40
0.0
  0
LTYPE
  5
29
330
27
100
AcDbSymbolTableRecord
100
AcDbLinetypeTableRecord
  2
BYLAYER
 70
     0
  3

 72
    65
 73
     0
 40
0.0
  0
LTYPE
  5
16
330
27
100
AcDbSymbolTableRecord
100
AcDbLinetypeTableRecord
  2
CONTINUOUS
 70
     0
  3
Solid line
 72
    65
 73
     0
 40
0.0
  0
LTYPE
  5
87
330
27
100
AcDbSymbolTableRecord
100
AcDbLinetypeTableRecord
  2
STRICHPUNKT
 70
     0
  3
Strichpunkt __ . __ . __ . __ . __ . __ . __ . 
 72
    65
 73
     4
 40
25.4
 49
12.7
 74
     0
 49
-6.349999999999999
 74
     0
 49
0.0
 74
     0
 49
-6.349999999999999
 74
     0
  0
LTYPE
  5
4DB
330
27
100
AcDbSymbolTableRecord
100
AcDbLinetypeTableRecord
  2
AM_ISO02W050
 70
     0
  3
__ __ __ __ __ __ __ __ __ __ __ __ __ __ __
 72
    65
 73
     2
 40
7.5
 49
6.0
 74
     0
 49
-1.5
 74
     0
  0
LTYPE
  5
4ED
330
27
100
AcDbSymbolTableRecord
100
AcDbLinetypeTableRecord
  2
ACDINWELD
 70
     0
  3
_ _ _ _ _
 72
    65
 73
     2
 40
2.0
 49
2.0
 74
     0
 49
-1.0
 74
     0
  0
LTYPE
  5
4F0
330
27
100
AcDbSymbolTableRecord
100
AcDbLinetypeTableRecord
  2
ACDINTGB
 70
     0
  3
__ . . __ . .
 72
    65
 73
     6
 40
9.0
 49
4.0
 74
     0
 49
-1.0
 74
     0
 49
1.0
 74
     0
 49
-1.0
 74
     0
 49
1.0
 74
     0
 49
-1.0
 74
     0
  0
LTYPE
  5
4F1
330
27
100
AcDbSymbolTableRecord
100
AcDbLinetypeTableRecord
  2
ACDINTGL
 70
     0
  3
_ _ _ _ _
 72
    65
 73
     2
 40
3.0
 49
2.0
 74
     0
 49
-1.0
 74
     0
  0
LTYPE
  5
4F5
330
27
100
AcDbSymbolTableRecord
100
AcDbLinetypeTableRecord
  2
CENTER
 70
     0
  3
__ . __
 72
    65
 73
     4
 40
7.0
 49
4.0
 74
     0
 49
-1.0
 74
     0
 49
1.0
 74
     0
 49
-1.0
 74
     0
  0
LTYPE
  5
4D6
330
27
100
AcDbSymbolTableRecord
100
AcDbLinetypeTableRecord
  2
gen3
 70
     0
  3
-- -- -- -- -- -- -- -- -- -- -- -- -- -- --
 72
    65
 73
     2
 40
6.25
 49
4.75
 74
     0
 49
-1.5
 74
     0
  0
LTYPE
  5
4D7
330
27
100
AcDbSymbolTableRecord
100
AcDbLinetypeTableRecord
  2
gen7
 70
     0
  3
____ . ____ . ____ . ____ . ____ . ____ . ____
 72
    65
 73
     4
 40
13.75
 49
9.75
 74
     0
 49
-1.5
 74
     0
 49
1.0
 74
     0
 49
-1.5
 74
     0
  0
LTYPE
  5
4D8
330
27
100
AcDbSymbolTableRecord
100
AcDbLinetypeTableRecord
  2
gen3a
 70
     0
  3
 - - - - -
 72
    65
 73
     2
 40
3.125
 49
2.25
 74
     0
 49
-0.875
 74
     0
  0
LTYPE
  5
4D9
330
27
100
AcDbSymbolTableRecord
100
AcDbLinetypeTableRecord
  2
gen7a
 70
     0
  3
__ . __ . __
 72
    65
 73
     4
 40
6.875
 49
4.75
 74
     0
 49
-0.875
 74
     0
 49
0.375
 74
     0
 49
-0.875
 74
     0
  0
LTYPE
  5
4DA
330
27
100
AcDbSymbolTableRecord
100
AcDbLinetypeTableRecord
  2
gen4a
 70
     0
  3
_____ . . _____ . . _____ . . ____ .. ____
 72
    65
 73
     6
 40
16.25
 49
9.75
 74
     0
 49
-1.5
 74
     0
 49
1.0
 74
     0
 49
-1.5
 74
     0
 49
1.0
 74
     0
 49
-1.5
 74
     0
  0
LTYPE
  5
4DC
330
27
100
AcDbSymbolTableRecord
100
AcDbLinetypeTableRecord
  2
genzigzag
 70
     0
  3
/\/-/\/-/\/-/\/-/\/-/\/
 72
    65
 73
     2
 40
12.0001
 49
0.0001
 74
     4
 75
   135
340
4DD
 46
2.0
 50
0.0
 44
0.0
 45
0.0
 49
-12.0
 74
     0
  0
ENDTAB
  0
TABLE
  2
LAYER
  5
20
102
{ACAD_XDICTIONARY
360
21
102
}
330
0
100
AcDbSymbolTable
 70
     8
  0
LAYER
  5
7
102
{ACAD_XDICTIONARY
360
8
102
}
330
20
100
AcDbSymbolTableRecord
100
AcDbLayerTableRecord
  2
0
 70
     0
 62
     7
  6
CONTINUOUS
370
    -3
390
A
  0
LAYER
  5
142
102
{ACAD_XDICTIONARY
360
143
102
}
330
20
100
AcDbSymbolTableRecord
100
AcDbLayerTableRecord
  2
UMRISS02
 70
     0
 62
     1
  6
CONTINUOUS
370
    -3
390
A
  0
LAYER
  5
14A
102
{ACAD_XDICTIONARY
360
14B
102
}
330
20
100
AcDbSymbolTableRecord
100
AcDbLayerTableRecord
  2
UMRISS03
 70
     0
 62
     3
  6
CONTINUOUS
370
    -3
390
A
  0
LAYER
  5
6D
102
{ACAD_XDICTIONARY
360
6E
102
}
330
20
100
AcDbSymbolTableRecord
100
AcDbLayerTableRecord
  2
UMRISS05
 70
     0
 62
     4
  6
CONTINUOUS
370
    -3
390
A
  0
LAYER
  5
52
102
{ACAD_XDICTIONARY
360
53
102
}
330
20
100
AcDbSymbolTableRecord
100
AcDbLayerTableRecord
  2
UMRISS07
 70
     0
 62
     6
  6
CONTINUOUS
370
    -3
390
A
  0
LAYER
  5
84
102
{ACAD_XDICTIONARY
360
85
102
}
330
20
100
AcDbSymbolTableRecord
100
AcDbLayerTableRecord
  2
ACHSEN
 70
     0
 62
     1
  6
STRICHPUNKT
370
    -3
390
A
  0
LAYER
  5
3DB
102
{ACAD_XDICTIONARY
360
3DC
102
}
330
20
100
AcDbSymbolTableRecord
100
AcDbLayerTableRecord
  2
1855
 70
     0
 62
     4
  6
CONTINUOUS
370
    -3
390
A
  0
LAYER
  5
3D5
102
{ACAD_XDICTIONARY
360
3D6
102
}
330
20
100
AcDbSymbolTableRecord
100
AcDbLayerTableRecord
  2
1859
 70
     0
 62
     4
  6
CONTINUOUS
370
    -3
390
A
  0
ENDTAB
  0
TABLE
  2
STYLE
  5
24
330
0
100
AcDbSymbolTable
 70
     6
  0
STYLE
  5
25
330
24
100
AcDbSymbolTableRecord
100
AcDbTextStyleTableRecord
  2
STANDARD
 70
     0
 40
0.0
 41
1.0
 50
0.0
 71
     0
 42
3.5
  3
ISOCP.SHX
  4

  0
STYLE
  5
35
330
24
100
AcDbSymbolTableRecord
100
AcDbTextStyleTableRecord
  2
ARIAL-STANDARD
 70
     0
 40
0.0
 41
1.0
 50
0.0
 71
     0
 42
3.5
  3
arial.ttf
  4

1001
ACAD
1000
Arial
1071
       34
  0
STYLE
  5
55
330
24
100
AcDbSymbolTableRecord
100
AcDbTextStyleTableRecord
  2
NORM
 70
     0
 40
0.0
 41
1.0
 50
0.0
 71
     0
 42
2.399999999999999
  3
simplex.shx
  4

  0
STYLE
  5
4E7
330
24
100
AcDbSymbolTableRecord
100
AcDbTextStyleTableRecord
  2
ACDINTS
 70
     0
 40
1.0
 41
1.0
 50
0.0
 71
     0
 42
3.5
  3
isocp.shx
  4

  0
STYLE
  5
4EB
330
24
100
AcDbSymbolTableRecord
100
AcDbTextStyleTableRecord
  2
ACDINGDT
 70
     0
 40
0.0
 41
1.0
 50
0.0
 71
     0
 42
3.5
  3
amgdt.shx
  4

  0
STYLE
  5
4DD
330
24
100
AcDbSymbolTableRecord
100
AcDbTextStyleTableRecord
  2

 70
     1
 40
0.0
 41
1.0
 50
0.0
 71
     0
 42
3.5
  3
genltshp.shx
  4

  0
ENDTAB
  0
TABLE
  2
VIEW
  5
2A
330
0
100
AcDbSymbolTable
 70
     0
  0
ENDTAB
  0
TABLE
  2
UCS
  5
2B
330
0
100
AcDbSymbolTable
 70
     0
  0
ENDTAB
  0
TABLE
  2
APPID
  5
31
330
0
100
AcDbSymbolTable
 70
    10
  0
APPID
  5
32
330
31
100
AcDbSymbolTableRecord
100
AcDbRegAppTableRecord
  2
ACAD
 70
     0
  0
APPID
  5
30
330
31
100
AcDbSymbolTableRecord
100
AcDbRegAppTableRecord
  2
ACAD_NAV_VCDISPLAY
 70
     0
  0
APPID
  5
38
330
31
100
AcDbSymbolTableRecord
100
AcDbRegAppTableRecord
  2
ACAD_DSTYLE_DIMJAG
 70
     0
  0
APPID
  5
37
330
31
100
AcDbSymbolTableRecord
100
AcDbRegAppTableRecord
  2
ACAD_DSTYLE_DIMBREAK
 70
     0
  0
APPID
  5
39
330
31
100
AcDbSymbolTableRecord
100
AcDbRegAppTableRecord
  2
ACAD_DSTYLE_DIMTALN
 70
     0
  0
APPID
  5
501
330
31
100
AcDbSymbolTableRecord
100
AcDbRegAppTableRecord
  2
AD_DRAW
 70
     0
  0
APPID
  5
502
330
31
100
AcDbSymbolTableRecord
100
AcDbRegAppTableRecord
  2
MCAD_NO_VIS
 70
     0
  0
APPID
  5
503
330
31
100
AcDbSymbolTableRecord
100
AcDbRegAppTableRecord
  2
ACADM_DIM_EDIT
 70
     0
  0
APPID
  5
504
330
31
100
AcDbSymbolTableRecord
100
AcDbRegAppTableRecord
  2
AMDT_DM_ADJ
 70
     0
  0
APPID
  5
526
330
31
100
AcDbSymbolTableRecord
100
AcDbRegAppTableRecord
  2
ACATTRIBSERVICES
 70
     0
  0
ENDTAB
  0
TABLE
  2
DIMSTYLE
  5
33
330
0
100
AcDbSymbolTable
 70
     2
100
AcDbDimStyleTable
 71
     2
340
34
340
36
  0
DIMSTYLE
105
34
330
33
100
AcDbSymbolTableRecord
100
AcDbDimStyleTableRecord
  2
NORMAL
 70
     0
 41
3.5
 42
0.0
 43
8.0
 44
0.5
 73
     0
 74
     0
 77
     1
 78
     8
140
3.5
141
1.5
146
0.5
147
1.0
172
     1
174
     1
176
   256
177
   256
178
     3
271
     2
272
     2
284
     8
340
35
  0
DIMSTYLE
105
36
330
33
100
AcDbSymbolTableRecord
100
AcDbDimStyleTableRecord
  2
Katalog 09
 70
     0
 41
12.0
 42
0.0
 43
8.0
 44
1.0
 73
     0
 74
     0
 77
     1
 78
     8
140
9.0
141
1.5
143
25.39999999999999
146
0.4285714285714286
147
2.5
172
     1
174
     1
176
     2
177
     2
178
     3
271
     2
272
     2
284
     8
285
     8
286
     8
340
35
1001
ACAD_DSTYLE_DIMBREAK
1070
   391
1040
3.75
1001
ACAD_DSTYLE_DIMJAG
1070
   388
1040
1.5
1001
ACAD_DSTYLE_DIMTALN
1070
   392
1070
     0
  0
ENDTAB
  0
TABLE
  2
BLOCK_RECORD
  5
1
330
0
100
AcDbSymbolTable
 70
     0
  0
BLOCK_RECORD
  5
2
102
{ACAD_XDICTIONARY
360
3
102
}
330
1
100
AcDbSymbolTableRecord
100
AcDbBlockTableRecord
  2
*MODEL_SPACE
340
18
  0
BLOCK_RECORD
  5
1C
330
1
100
AcDbSymbolTableRecord
100
AcDbBlockTableRecord
  2
*PAPER_SPACE
340
1F
  0
ENDTAB
  0
ENDSEC
  0
SECTION
  2
BLOCKS
  0
BLOCK
  5
6
330
2
100
AcDbEntity
  8
0
100
AcDbBlockBegin
  2
*MODEL_SPACE
 70
     0
 10
0.0
 20
0.0
 30
0.0
  3
*MODEL_SPACE
  1

  0
ENDBLK
  5
17
330
2
100
AcDbEntity
  8
0
100
AcDbBlockEnd
  0
BLOCK
  5
1D
330
1C
100
AcDbEntity
 67
     1
  8
0
100
AcDbBlockBegin
  2
*PAPER_SPACE
 70
     0
 10
0.0
 20
0.0
 30
0.0
  3
*PAPER_SPACE
  1

  0
ENDBLK
  5
1E
330
1C
100
AcDbEntity
 67
     1
  8
0
100
AcDbBlockEnd
  0
ENDSEC
  0
SECTION
  2
ENTITIES
  0
POLYLINE
  5
6C
330
2
100
AcDbEntity
  8
UMRISS05
100
AcDb2dPolyline
 66
     1
 10
0.0
 20
0.0
 30
0.0
 70
   128
  0
VERTEX
  5
70
330
6C
100
AcDbEntity
  8
UMRISS05
100
AcDbVertex
100
AcDb2dVertex
 10
-2565.958790454186
 20
2503.837285542782
 30
0.0
  0
VERTEX
  5
71
330
6C
100
AcDbEntity
  8
UMRISS05
100
AcDbVertex
100
AcDb2dVertex
 10
-2565.944264488255
 20
2504.107898164483
 30
0.0
  0
VERTEX
  5
72
330
6C
100
AcDbEntity
  8
UMRISS05
100
AcDbVertex
100
AcDb2dVertex
 10
-2565.902787183669
 20
2504.3752323738
 30
0.0
  0
VERTEX
  5
73
330
6C
100
AcDbEntity
  8
UMRISS05
100
AcDbVertex
100
AcDb2dVertex
 10
-2565.837633658871
 20
2504.633858501196
 30
0.0
  0
VERTEX
  5
74
330
6C
100
AcDbEntity
  8
UMRISS05
100
AcDbVertex
100
AcDb2dVertex
 10
-2565.754325186328
 20
2504.882521084602
 30
0.0
  0
VERTEX
  5
75
330
6C
100
AcDbEntity
  8
UMRISS05
100
AcDbVertex
100
AcDb2dVertex
 10
-2565.656852140234
 20
2505.120781088742
 30
0.0
  0
VERTEX
  5
76
330
6C
100
AcDbEntity
  8
UMRISS05
100
AcDbVertex
100
AcDb2dVertex
 10
-2565.547505848663
 20
2505.347959177509
 30
0.0
  0
VERTEX
  5
77
330
6C
100
AcDbEntity
  8
UMRISS05
100
AcDbVertex
100
AcDb2dVertex
 10
-2565.424190737747
 20
2505.563962022574
 30
0.0
  0
VERTEX
  5
78
330
6C
100
AcDbEntity
  8
UMRISS05
100
AcDbVertex
100
AcDb2dVertex
 10
-2565.285175135666
 20
2505.764279120781
 30
0.0
  0
VERTEX
  5
79
330
6C
100
AcDbEntity
  8
UMRISS05
100
AcDbVertex
100
AcDb2dVertex
 10
-2565.12897833753
 20
2505.943975952502
 30
0.0
  0
VERTEX
  5
7A
330
6C
100
AcDbEntity
  8
UMRISS05
100
AcDbVertex
100
AcDb2dVertex
 10
-2564.955090880471
 20
2506.098918661044
 30
0.0
  0
VERTEX
  5
7B
330
6C
100
AcDbEntity
  8
UMRISS05
100
AcDbVertex
100
AcDb2dVertex
 10
-2564.766622244757
 20
2506.225937004693
 30
0.0
  0
VERTEX
  5
7C
330
6C
100
AcDbEntity
  8
UMRISS05
100
AcDbVertex
100
AcDb2dVertex
 10
-2564.56623017018
 20
2506.323323173094
 30
0.0
  0
VERTEX
  5
7D
330
6C
100
AcDbEntity
  8
UMRISS05
100
AcDbVertex
100
AcDb2dVertex
 10
-2564.356978962959
 20
2506.392658919638
 30
0.0
  0
VERTEX
  5
7E
330
6C
100
AcDbEntity
  8
UMRISS05
100
AcDbVertex
100
AcDb2dVertex
 10
-2564.143195292976
 20
2506.43661388299
 30
0.0
  0
VERTEX
  5
7F
330
6C
100
AcDbEntity
  8
UMRISS05
100
AcDbVertex
100
AcDb2dVertex
 10
-2563.718227970409
 20
2506.468864542782
 30
0.0
  0
SEQEND
  5
80
330
6C
100
AcDbEntity
  8
UMRISS05
  0
LINE
  5
81
330
2
100
AcDbEntity
  8
UMRISS05
100
AcDbLine
 10
-2565.958790454186
 20
2499.626945736695
 30
0.0
 11
-2565.958790454186
 21
2503.837285542782
 31
0.0
  0
LINE
  5
82
330
2
100
AcDbEntity
  8
UMRISS05
100
AcDbLine
 10
-2559.358101689006
 20
2506.468864542784
 30
0.0
 11
-2563.718227970409
 21
2506.468864542782
 31
0.0
  0
ELLIPSE
  5
83
330
2
100
AcDbEntity
  8
ACHSEN
 48
2.0
100
AcDbEllipse
 10
-2549.741725254567
 20
2501.732022342784
 30
0.0
 11
0.0
 21
-3.473684279999999
 31
0.0
210
0.0
220
0.0
230
1.0
 40
0.719339800338651
 41
0.0
 42
6.283185307179187
  0
LINE
  5
88
330
2
100
AcDbEntity
  8
ACHSEN
100
AcDbLine
 10
-2546.65172129347
 20
2499.626759393751
 30
0.0
 11
-2546.65172129347
 21
2503.837285542784
 31
0.0
  0
POLYLINE
  5
89
330
2
100
AcDbEntity
  8
ACHSEN
100
AcDb2dPolyline
 66
     1
 10
0.0
 20
0.0
 30
0.0
 70
   128
  0
VERTEX
  5
8A
330
89
100
AcDbEntity
  8
ACHSEN
100
AcDbVertex
100
AcDb2dVertex
 10
-2548.831785689006
 20
2496.995180393751
 30
0.0
  0
VERTEX
  5
8B
330
89
100
AcDbEntity
  8
ACHSEN
100
AcDbVertex
100
AcDb2dVertex
 10
-2548.709928695955
 20
2496.999294369157
 30
0.0
  0
VERTEX
  5
8C
330
89
100
AcDbEntity
  8
ACHSEN
100
AcDbVertex
100
AcDb2dVertex
 10
-2548.588325179505
 20
2497.011641314715
 30
0.0
  0
VERTEX
  5
8D
330
89
100
AcDbEntity
  8
ACHSEN
100
AcDbVertex
100
AcDb2dVertex
 10
-2548.467110661796
 20
2497.032258875464
 30
0.0
  0
VERTEX
  5
8E
330
89
100
AcDbEntity
  8
ACHSEN
100
AcDbVertex
100
AcDb2dVertex
 10
-2548.346398077948
 20
2497.061235517247
 30
0.0
  0
VERTEX
  5
8F
330
89
100
AcDbEntity
  8
ACHSEN
100
AcDbVertex
100
AcDb2dVertex
 10
-2548.226418317537
 20
2497.09867288167
 30
0.0
  0
VERTEX
  5
90
330
89
100
AcDbEntity
  8
ACHSEN
100
AcDbVertex
100
AcDb2dVertex
 10
-2548.107459992532
 20
2497.144675747427
 30
0.0
  0
VERTEX
  5
91
330
89
100
AcDbEntity
  8
ACHSEN
100
AcDbVertex
100
AcDb2dVertex
 10
-2547.989761521518
 20
2497.199392185009
 30
0.0
  0
VERTEX
  5
92
330
89
100
AcDbEntity
  8
ACHSEN
100
AcDbVertex
100
AcDb2dVertex
 10
-2547.873548774732
 20
2497.263020458288
 30
0.0
  0
VERTEX
  5
93
330
89
100
AcDbEntity
  8
ACHSEN
100
AcDbVertex
100
AcDb2dVertex
 10
-2547.759105344804
 20
2497.335778281077
 30
0.0
  0
VERTEX
  5
94
330
89
100
AcDbEntity
  8
ACHSEN
100
AcDbVertex
100
AcDb2dVertex
 10
-2547.646775056432
 20
2497.417901562291
 30
0.0
  0
VERTEX
  5
95
330
89
100
AcDbEntity
  8
ACHSEN
100
AcDbVertex
100
AcDb2dVertex
 10
-2547.536934360008
 20
2497.509649425285
 30
0.0
  0
VERTEX
  5
96
330
89
100
AcDbEntity
  8
ACHSEN
100
AcDbVertex
100
AcDb2dVertex
 10
-2547.430027467001
 20
2497.611296678849
 30
0.0
  0
VERTEX
  5
97
330
89
100
AcDbEntity
  8
ACHSEN
100
AcDbVertex
100
AcDb2dVertex
 10
-2547.326531214578
 20
2497.723153894559
 30
0.0
  0
VERTEX
  5
98
330
89
100
AcDbEntity
  8
ACHSEN
100
AcDbVertex
100
AcDb2dVertex
 10
-2547.22705043304
 20
2497.845499645706
 30
0.0
  0
VERTEX
  5
99
330
89
100
AcDbEntity
  8
ACHSEN
100
AcDbVertex
100
AcDb2dVertex
 10
-2547.132240146078
 20
2497.978606231411
 30
0.0
  0
VERTEX
  5
9A
330
89
100
AcDbEntity
  8
ACHSEN
100
AcDbVertex
100
AcDb2dVertex
 10
-2547.04289340919
 20
2498.122681326809
 30
0.0
  0
VERTEX
  5
9B
330
89
100
AcDbEntity
  8
ACHSEN
100
AcDbVertex
100
AcDb2dVertex
 10
-2546.959893625972
 20
2498.277869237885
 30
0.0
  0
VERTEX
  5
9C
330
89
100
AcDbEntity
  8
ACHSEN
100
AcDbVertex
100
AcDb2dVertex
 10
-2546.884292347862
 20
2498.444067695614
 30
0.0
  0
VERTEX
  5
9D
330
89
100
AcDbEntity
  8
ACHSEN
100
AcDbVertex
100
AcDb2dVertex
 10
-2546.817251551746
 20
2498.620919699538
 30
0.0
  0
VERTEX
  5
9E
330
89
100
AcDbEntity
  8
ACHSEN
100
AcDbVertex
100
AcDb2dVertex
 10
-2546.759945762862
 20
2498.807913904537
 30
0.0
  0
VERTEX
  5
9F
330
89
100
AcDbEntity
  8
ACHSEN
100
AcDbVertex
100
AcDb2dVertex
 10
-2546.713669970567
 20
2499.004081578258
 30
0.0
  0
VERTEX
  5
A0
330
89
100
AcDbEntity
  8
ACHSEN
100
AcDbVertex
100
AcDb2dVertex
 10
-2546.679719164224
 20
2499.207237426156
 30
0.0
  0
VERTEX
  5
A1
330
89
100
AcDbEntity
  8
ACHSEN
100
AcDbVertex
100
AcDb2dVertex
 10
-2546.658836205946
 20
2499.415427670678
 30
0.0
  0
VERTEX
  5
A2
330
89
100
AcDbEntity
  8
ACHSEN
100
AcDbVertex
100
AcDb2dVertex
 10
-2546.65172129347
 20
2499.626759393751
 30
0.0
  0
SEQEND
  5
A3
330
89
100
AcDbEntity
  8
ACHSEN
  0
POLYLINE
  5
A4
330
2
100
AcDbEntity
  8
ACHSEN
100
AcDb2dPolyline
 66
     1
 10
0.0
 20
0.0
 30
0.0
 70
   128
  0
VERTEX
  5
A5
330
A4
100
AcDbEntity
  8
ACHSEN
100
AcDbVertex
100
AcDb2dVertex
 10
-2546.65172129347
 20
2503.837285542784
 30
0.0
  0
VERTEX
  5
A6
330
A4
100
AcDbEntity
  8
ACHSEN
100
AcDbVertex
100
AcDb2dVertex
 10
-2546.658755896528
 20
2504.048437824502
 30
0.0
  0
VERTEX
  5
A7
330
A4
100
AcDbEntity
  8
ACHSEN
100
AcDbVertex
100
AcDb2dVertex
 10
-2546.67955352605
 20
2504.256434510779
 30
0.0
  0
VERTEX
  5
A8
330
A4
100
AcDbEntity
  8
ACHSEN
100
AcDbVertex
100
AcDb2dVertex
 10
-2546.713617267512
 20
2504.459836776832
 30
0.0
  0
VERTEX
  5
A9
330
A4
100
AcDbEntity
  8
ACHSEN
100
AcDbVertex
100
AcDb2dVertex
 10
-2546.759945762862
 20
2504.65613071829
 30
0.0
  0
VERTEX
  5
AA
330
A4
100
AcDbEntity
  8
ACHSEN
100
AcDbVertex
100
AcDb2dVertex
 10
-2546.817251551746
 20
2504.843124766435
 30
0.0
  0
VERTEX
  5
AB
330
A4
100
AcDbEntity
  8
ACHSEN
100
AcDbVertex
100
AcDb2dVertex
 10
-2546.884292347862
 20
2505.019977240922
 30
0.0
  0
VERTEX
  5
AC
330
A4
100
AcDbEntity
  8
ACHSEN
100
AcDbVertex
100
AcDb2dVertex
 10
-2546.959893625972
 20
2505.18617569865
 30
0.0
  0
VERTEX
  5
AD
330
A4
100
AcDbEntity
  8
ACHSEN
100
AcDbVertex
100
AcDb2dVertex
 10
-2547.04289340919
 20
2505.341363609726
 30
0.0
  0
VERTEX
  5
AE
330
A4
100
AcDbEntity
  8
ACHSEN
100
AcDbVertex
100
AcDb2dVertex
 10
-2547.132240146078
 20
2505.485438391416
 30
0.0
  0
VERTEX
  5
AF
330
A4
100
AcDbEntity
  8
ACHSEN
100
AcDbVertex
100
AcDb2dVertex
 10
-2547.22705043304
 20
2505.618544977121
 30
0.0
  0
VERTEX
  5
B0
330
A4
100
AcDbEntity
  8
ACHSEN
100
AcDbVertex
100
AcDb2dVertex
 10
-2547.326531214578
 20
2505.740890885123
 30
0.0
  0
VERTEX
  5
B1
330
A4
100
AcDbEntity
  8
ACHSEN
100
AcDbVertex
100
AcDb2dVertex
 10
-2547.430027467001
 20
2505.852747708696
 30
0.0
  0
VERTEX
  5
B2
330
A4
100
AcDbEntity
  8
ACHSEN
100
AcDbVertex
100
AcDb2dVertex
 10
-2547.536934360008
 20
2505.954397903278
 30
0.0
  0
VERTEX
  5
B3
330
A4
100
AcDbEntity
  8
ACHSEN
100
AcDbVertex
100
AcDb2dVertex
 10
-2547.646775056432
 20
2506.046143687953
 30
0.0
  0
VERTEX
  5
B4
330
A4
100
AcDbEntity
  8
ACHSEN
100
AcDbVertex
100
AcDb2dVertex
 10
-2547.759105344804
 20
2506.128268772991
 30
0.0
  0
VERTEX
  5
B5
330
A4
100
AcDbEntity
  8
ACHSEN
100
AcDbVertex
100
AcDb2dVertex
 10
-2547.873546265063
 20
2506.201026301678
 30
0.0
  0
VERTEX
  5
B6
330
A4
100
AcDbEntity
  8
ACHSEN
100
AcDbVertex
100
AcDb2dVertex
 10
-2547.989761521518
 20
2506.264653496584
 30
0.0
  0
VERTEX
  5
B7
330
A4
100
AcDbEntity
  8
ACHSEN
100
AcDbVertex
100
AcDb2dVertex
 10
-2548.107462502201
 20
2506.319374649598
 30
0.0
  0
VERTEX
  5
B8
330
A4
100
AcDbEntity
  8
ACHSEN
100
AcDbVertex
100
AcDb2dVertex
 10
-2548.226418317537
 20
2506.365372584248
 30
0.0
  0
VERTEX
  5
B9
330
A4
100
AcDbEntity
  8
ACHSEN
100
AcDbVertex
100
AcDb2dVertex
 10
-2548.34638803927
 20
2506.402808757559
 30
0.0
  0
VERTEX
  5
BA
330
A4
100
AcDbEntity
  8
ACHSEN
100
AcDbVertex
100
AcDb2dVertex
 10
-2548.467100623119
 20
2506.431785808633
 30
0.0
  0
VERTEX
  5
BB
330
A4
100
AcDbEntity
  8
ACHSEN
100
AcDbVertex
100
AcDb2dVertex
 10
-2548.588325179505
 20
2506.452403581381
 30
0.0
  0
VERTEX
  5
BC
330
A4
100
AcDbEntity
  8
ACHSEN
100
AcDbVertex
100
AcDb2dVertex
 10
-2548.709938734633
 20
2506.464752364769
 30
0.0
  0
VERTEX
  5
BD
330
A4
100
AcDbEntity
  8
ACHSEN
100
AcDbVertex
100
AcDb2dVertex
 10
-2548.831785689006
 20
2506.468864542784
 30
0.0
  0
SEQEND
  5
BE
330
A4
100
AcDbEntity
  8
ACHSEN
  0
POLYLINE
  5
BF
330
2
100
AcDbEntity
  8
ACHSEN
100
AcDb2dPolyline
 66
     1
 10
0.0
 20
0.0
 30
0.0
 70
   128
  0
VERTEX
  5
C0
330
BF
100
AcDbEntity
  8
ACHSEN
100
AcDbVertex
100
AcDb2dVertex
 10
-2553.19191197041
 20
2496.99518039375
 30
0.0
  0
VERTEX
  5
C1
330
BF
100
AcDbEntity
  8
ACHSEN
100
AcDbVertex
100
AcDb2dVertex
 10
-2553.623130879212
 20
2497.028501273097
 30
0.0
  0
VERTEX
  5
C2
330
BF
100
AcDbEntity
  8
ACHSEN
100
AcDbVertex
100
AcDb2dVertex
 10
-2553.837918416917
 20
2497.072283081521
 30
0.0
  0
VERTEX
  5
C3
330
BF
100
AcDbEntity
  8
ACHSEN
100
AcDbVertex
100
AcDb2dVertex
 10
-2554.049099559831
 20
2497.137927874085
 30
0.0
  0
VERTEX
  5
C4
330
BF
100
AcDbEntity
  8
ACHSEN
100
AcDbVertex
100
AcDb2dVertex
 10
-2554.253775639911
 20
2497.227745801385
 30
0.0
  0
VERTEX
  5
C5
330
BF
100
AcDbEntity
  8
ACHSEN
100
AcDbVertex
100
AcDb2dVertex
 10
-2554.449893747663
 20
2497.34364672176
 30
0.0
  0
VERTEX
  5
C6
330
BF
100
AcDbEntity
  8
ACHSEN
100
AcDbVertex
100
AcDb2dVertex
 10
-2554.634738420903
 20
2497.48608363052
 30
0.0
  0
VERTEX
  5
C7
330
BF
100
AcDbEntity
  8
ACHSEN
100
AcDbVertex
100
AcDb2dVertex
 10
-2554.80549883001
 20
2497.655521443903
 30
0.0
  0
VERTEX
  5
C8
330
BF
100
AcDbEntity
  8
ACHSEN
100
AcDbVertex
100
AcDb2dVertex
 10
-2554.959188468511
 20
2497.850071635758
 30
0.0
  0
VERTEX
  5
C9
330
BF
100
AcDbEntity
  8
ACHSEN
100
AcDbVertex
100
AcDb2dVertex
 10
-2555.091857116922
 20
2498.066098322681
 30
0.0
  0
VERTEX
  5
CA
330
BF
100
AcDbEntity
  8
ACHSEN
100
AcDbVertex
100
AcDb2dVertex
 10
-2555.201108041059
 20
2498.301803954034
 30
0.0
  0
VERTEX
  5
CB
330
BF
100
AcDbEntity
  8
ACHSEN
100
AcDbVertex
100
AcDb2dVertex
 10
-2555.28669529333
 20
2498.553134159055
 30
0.0
  0
VERTEX
  5
CC
330
BF
100
AcDbEntity
  8
ACHSEN
100
AcDbVertex
100
AcDb2dVertex
 10
-2555.348912505043
 20
2498.814102749038
 30
0.0
  0
VERTEX
  5
CD
330
BF
100
AcDbEntity
  8
ACHSEN
100
AcDbVertex
100
AcDb2dVertex
 10
-2555.393905856324
 20
2499.081520561714
 30
0.0
  0
VERTEX
  5
CE
330
BF
100
AcDbEntity
  8
ACHSEN
100
AcDbVertex
100
AcDb2dVertex
 10
-2555.422360486891
 20
2499.353211713798
 30
0.0
  0
VERTEX
  5
CF
330
BF
100
AcDbEntity
  8
ACHSEN
100
AcDbVertex
100
AcDb2dVertex
 10
-2555.432474454186
 20
2499.626945736694
 30
0.0
  0
SEQEND
  5
D0
330
BF
100
AcDbEntity
  8
ACHSEN
  0
POLYLINE
  5
D1
330
2
100
AcDbEntity
  8
ACHSEN
100
AcDb2dPolyline
 66
     1
 10
0.0
 20
0.0
 30
0.0
 70
   128
  0
VERTEX
  5
D2
330
D1
100
AcDbEntity
  8
ACHSEN
100
AcDbVertex
100
AcDb2dVertex
 10
-2555.432474454186
 20
2503.837285542782
 30
0.0
  0
VERTEX
  5
D3
330
D1
100
AcDbEntity
  8
ACHSEN
100
AcDbVertex
100
AcDb2dVertex
 10
-2555.417948488254
 20
2504.107898164482
 30
0.0
  0
VERTEX
  5
D4
330
D1
100
AcDbEntity
  8
ACHSEN
100
AcDbVertex
100
AcDb2dVertex
 10
-2555.376471183669
 20
2504.3752323738
 30
0.0
  0
VERTEX
  5
D5
330
D1
100
AcDbEntity
  8
ACHSEN
100
AcDbVertex
100
AcDb2dVertex
 10
-2555.311317658871
 20
2504.633858501196
 30
0.0
  0
VERTEX
  5
D6
330
D1
100
AcDbEntity
  8
ACHSEN
100
AcDbVertex
100
AcDb2dVertex
 10
-2555.228009186328
 20
2504.882521084601
 30
0.0
  0
VERTEX
  5
D7
330
D1
100
AcDbEntity
  8
ACHSEN
100
AcDbVertex
100
AcDb2dVertex
 10
-2555.130536140234
 20
2505.120781088742
 30
0.0
  0
VERTEX
  5
D8
330
D1
100
AcDbEntity
  8
ACHSEN
100
AcDbVertex
100
AcDb2dVertex
 10
-2555.021189848663
 20
2505.347959177509
 30
0.0
  0
VERTEX
  5
D9
330
D1
100
AcDbEntity
  8
ACHSEN
100
AcDbVertex
100
AcDb2dVertex
 10
-2554.897874737747
 20
2505.563962022574
 30
0.0
  0
VERTEX
  5
DA
330
D1
100
AcDbEntity
  8
ACHSEN
100
AcDbVertex
100
AcDb2dVertex
 10
-2554.758859135666
 20
2505.764279120781
 30
0.0
  0
VERTEX
  5
DB
330
D1
100
AcDbEntity
  8
ACHSEN
100
AcDbVertex
100
AcDb2dVertex
 10
-2554.60266233753
 20
2505.943975952501
 30
0.0
  0
VERTEX
  5
DC
330
D1
100
AcDbEntity
  8
ACHSEN
100
AcDbVertex
100
AcDb2dVertex
 10
-2554.428774880471
 20
2506.098918661043
 30
0.0
  0
VERTEX
  5
DD
330
D1
100
AcDbEntity
  8
ACHSEN
100
AcDbVertex
100
AcDb2dVertex
 10
-2554.240306244757
 20
2506.225937004692
 30
0.0
  0
VERTEX
  5
DE
330
D1
100
AcDbEntity
  8
ACHSEN
100
AcDbVertex
100
AcDb2dVertex
 10
-2554.039914170179
 20
2506.323323173094
 30
0.0
  0
VERTEX
  5
DF
330
D1
100
AcDbEntity
  8
ACHSEN
100
AcDbVertex
100
AcDb2dVertex
 10
-2553.830662962959
 20
2506.392658919638
 30
0.0
  0
VERTEX
  5
E0
330
D1
100
AcDbEntity
  8
ACHSEN
100
AcDbVertex
100
AcDb2dVertex
 10
-2553.616879292976
 20
2506.43661388299
 30
0.0
  0
VERTEX
  5
E1
330
D1
100
AcDbEntity
  8
ACHSEN
100
AcDbVertex
100
AcDb2dVertex
 10
-2553.19191197041
 20
2506.468864542782
 30
0.0
  0
SEQEND
  5
E2
330
D1
100
AcDbEntity
  8
ACHSEN
  0
LINE
  5
E3
330
2
100
AcDbEntity
  8
ACHSEN
100
AcDbLine
 10
-2555.432474454186
 20
2499.626945736694
 30
0.0
 11
-2555.432474454186
 21
2503.837285542782
 31
0.0
  0
ELLIPSE
  5
E4
330
2
100
AcDbEntity
  8
ACHSEN
 48
2.0
100
AcDbEllipse
 10
-2550.296988423567
 20
2039.731918805828
 30
0.0
 11
0.0
 21
-3.473684279999999
 31
0.0
210
0.0
220
0.0
230
1.0
 40
0.719339800338651
 41
0.0
 42
6.283185307179187
  0
LINE
  5
E5
330
2
100
AcDbEntity
  8
ACHSEN
100
AcDbLine
 10
-2547.20698446247
 20
2037.626655856796
 30
0.0
 11
-2547.20698446247
 21
2041.83718200583
 31
0.0
  0
POLYLINE
  5
E6
330
2
100
AcDbEntity
  8
ACHSEN
100
AcDb2dPolyline
 66
     1
 10
0.0
 20
0.0
 30
0.0
 70
   128
  0
VERTEX
  5
E7
330
E6
100
AcDbEntity
  8
ACHSEN
100
AcDbVertex
100
AcDb2dVertex
 10
-2549.387048858007
 20
2034.995076856795
 30
0.0
  0
VERTEX
  5
E8
330
E6
100
AcDbEntity
  8
ACHSEN
100
AcDbVertex
100
AcDb2dVertex
 10
-2549.265191864956
 20
2034.999190832202
 30
0.0
  0
VERTEX
  5
E9
330
E6
100
AcDbEntity
  8
ACHSEN
100
AcDbVertex
100
AcDb2dVertex
 10
-2549.143588348506
 20
2035.01153777776
 30
0.0
  0
VERTEX
  5
EA
330
E6
100
AcDbEntity
  8
ACHSEN
100
AcDbVertex
100
AcDb2dVertex
 10
-2549.022373830797
 20
2035.032155338508
 30
0.0
  0
VERTEX
  5
EB
330
E6
100
AcDbEntity
  8
ACHSEN
100
AcDbVertex
100
AcDb2dVertex
 10
-2548.901661246949
 20
2035.061131980291
 30
0.0
  0
VERTEX
  5
EC
330
E6
100
AcDbEntity
  8
ACHSEN
100
AcDbVertex
100
AcDb2dVertex
 10
-2548.781681486537
 20
2035.098569344715
 30
0.0
  0
VERTEX
  5
ED
330
E6
100
AcDbEntity
  8
ACHSEN
100
AcDbVertex
100
AcDb2dVertex
 10
-2548.662723161533
 20
2035.144572210473
 30
0.0
  0
VERTEX
  5
EE
330
E6
100
AcDbEntity
  8
ACHSEN
100
AcDbVertex
100
AcDb2dVertex
 10
-2548.545024690519
 20
2035.199288648054
 30
0.0
  0
VERTEX
  5
EF
330
E6
100
AcDbEntity
  8
ACHSEN
100
AcDbVertex
100
AcDb2dVertex
 10
-2548.428811943733
 20
2035.262916921332
 30
0.0
  0
VERTEX
  5
F0
330
E6
100
AcDbEntity
  8
ACHSEN
100
AcDbVertex
100
AcDb2dVertex
 10
-2548.314368513806
 20
2035.335674744122
 30
0.0
  0
VERTEX
  5
F1
330
E6
100
AcDbEntity
  8
ACHSEN
100
AcDbVertex
100
AcDb2dVertex
 10
-2548.202038225433
 20
2035.417798025335
 30
0.0
  0
VERTEX
  5
F2
330
E6
100
AcDbEntity
  8
ACHSEN
100
AcDbVertex
100
AcDb2dVertex
 10
-2548.09219752901
 20
2035.50954588833
 30
0.0
  0
VERTEX
  5
F3
330
E6
100
AcDbEntity
  8
ACHSEN
100
AcDbVertex
100
AcDb2dVertex
 10
-2547.985290636002
 20
2035.611193141894
 30
0.0
  0
VERTEX
  5
F4
330
E6
100
AcDbEntity
  8
ACHSEN
100
AcDbVertex
100
AcDb2dVertex
 10
-2547.881794383579
 20
2035.723050357603
 30
0.0
  0
VERTEX
  5
F5
330
E6
100
AcDbEntity
  8
ACHSEN
100
AcDbVertex
100
AcDb2dVertex
 10
-2547.782313602042
 20
2035.845396108751
 30
0.0
  0
VERTEX
  5
F6
330
E6
100
AcDbEntity
  8
ACHSEN
100
AcDbVertex
100
AcDb2dVertex
 10
-2547.687503315079
 20
2035.978502694456
 30
0.0
  0
VERTEX
  5
F7
330
E6
100
AcDbEntity
  8
ACHSEN
100
AcDbVertex
100
AcDb2dVertex
 10
-2547.598156578191
 20
2036.122577789854
 30
0.0
  0
VERTEX
  5
F8
330
E6
100
AcDbEntity
  8
ACHSEN
100
AcDbVertex
100
AcDb2dVertex
 10
-2547.515156794973
 20
2036.27776570093
 30
0.0
  0
VERTEX
  5
F9
330
E6
100
AcDbEntity
  8
ACHSEN
100
AcDbVertex
100
AcDb2dVertex
 10
-2547.439555516862
 20
2036.443964158659
 30
0.0
  0
VERTEX
  5
FA
330
E6
100
AcDbEntity
  8
ACHSEN
100
AcDbVertex
100
AcDb2dVertex
 10
-2547.372514720747
 20
2036.620816162583
 30
0.0
  0
VERTEX
  5
FB
330
E6
100
AcDbEntity
  8
ACHSEN
100
AcDbVertex
100
AcDb2dVertex
 10
-2547.315208931863
 20
2036.807810367581
 30
0.0
  0
VERTEX
  5
FC
330
E6
100
AcDbEntity
  8
ACHSEN
100
AcDbVertex
100
AcDb2dVertex
 10
-2547.268933139568
 20
2037.003978041303
 30
0.0
  0
VERTEX
  5
FD
330
E6
100
AcDbEntity
  8
ACHSEN
100
AcDbVertex
100
AcDb2dVertex
 10
-2547.234982333225
 20
2037.207133889201
 30
0.0
  0
VERTEX
  5
FE
330
E6
100
AcDbEntity
  8
ACHSEN
100
AcDbVertex
100
AcDb2dVertex
 10
-2547.214099374948
 20
2037.415324133723
 30
0.0
  0
VERTEX
  5
FF
330
E6
100
AcDbEntity
  8
ACHSEN
100
AcDbVertex
100
AcDb2dVertex
 10
-2547.20698446247
 20
2037.626655856796
 30
0.0
  0
SEQEND
  5
100
330
E6
100
AcDbEntity
  8
ACHSEN
  0
POLYLINE
  5
101
330
2
100
AcDbEntity
  8
ACHSEN
100
AcDb2dPolyline
 66
     1
 10
0.0
 20
0.0
 30
0.0
 70
   128
  0
VERTEX
  5
102
330
101
100
AcDbEntity
  8
ACHSEN
100
AcDbVertex
100
AcDb2dVertex
 10
-2547.20698446247
 20
2041.83718200583
 30
0.0
  0
VERTEX
  5
103
330
101
100
AcDbEntity
  8
ACHSEN
100
AcDbVertex
100
AcDb2dVertex
 10
-2547.214019065529
 20
2042.048334287547
 30
0.0
  0
VERTEX
  5
104
330
101
100
AcDbEntity
  8
ACHSEN
100
AcDbVertex
100
AcDb2dVertex
 10
-2547.234816695051
 20
2042.256330973824
 30
0.0
  0
VERTEX
  5
105
330
101
100
AcDbEntity
  8
ACHSEN
100
AcDbVertex
100
AcDb2dVertex
 10
-2547.268880436513
 20
2042.459733239877
 30
0.0
  0
VERTEX
  5
106
330
101
100
AcDbEntity
  8
ACHSEN
100
AcDbVertex
100
AcDb2dVertex
 10
-2547.315208931863
 20
2042.656027181335
 30
0.0
  0
VERTEX
  5
107
330
101
100
AcDbEntity
  8
ACHSEN
100
AcDbVertex
100
AcDb2dVertex
 10
-2547.372514720747
 20
2042.843021229479
 30
0.0
  0
VERTEX
  5
108
330
101
100
AcDbEntity
  8
ACHSEN
100
AcDbVertex
100
AcDb2dVertex
 10
-2547.439555516862
 20
2043.019873703966
 30
0.0
  0
VERTEX
  5
109
330
101
100
AcDbEntity
  8
ACHSEN
100
AcDbVertex
100
AcDb2dVertex
 10
-2547.515156794973
 20
2043.186072161696
 30
0.0
  0
VERTEX
  5
10A
330
101
100
AcDbEntity
  8
ACHSEN
100
AcDbVertex
100
AcDb2dVertex
 10
-2547.598156578191
 20
2043.341260072771
 30
0.0
  0
VERTEX
  5
10B
330
101
100
AcDbEntity
  8
ACHSEN
100
AcDbVertex
100
AcDb2dVertex
 10
-2547.687503315079
 20
2043.485334854461
 30
0.0
  0
VERTEX
  5
10C
330
101
100
AcDbEntity
  8
ACHSEN
100
AcDbVertex
100
AcDb2dVertex
 10
-2547.782313602042
 20
2043.618441440165
 30
0.0
  0
VERTEX
  5
10D
330
101
100
AcDbEntity
  8
ACHSEN
100
AcDbVertex
100
AcDb2dVertex
 10
-2547.881794383579
 20
2043.740787348167
 30
0.0
  0
VERTEX
  5
10E
330
101
100
AcDbEntity
  8
ACHSEN
100
AcDbVertex
100
AcDb2dVertex
 10
-2547.985290636002
 20
2043.852644171741
 30
0.0
  0
VERTEX
  5
10F
330
101
100
AcDbEntity
  8
ACHSEN
100
AcDbVertex
100
AcDb2dVertex
 10
-2548.09219752901
 20
2043.954294366323
 30
0.0
  0
VERTEX
  5
110
330
101
100
AcDbEntity
  8
ACHSEN
100
AcDbVertex
100
AcDb2dVertex
 10
-2548.202038225433
 20
2044.046040150997
 30
0.0
  0
VERTEX
  5
111
330
101
100
AcDbEntity
  8
ACHSEN
100
AcDbVertex
100
AcDb2dVertex
 10
-2548.314368513806
 20
2044.128165236037
 30
0.0
  0
VERTEX
  5
112
330
101
100
AcDbEntity
  8
ACHSEN
100
AcDbVertex
100
AcDb2dVertex
 10
-2548.428809434063
 20
2044.200922764723
 30
0.0
  0
VERTEX
  5
113
330
101
100
AcDbEntity
  8
ACHSEN
100
AcDbVertex
100
AcDb2dVertex
 10
-2548.545024690519
 20
2044.264549959629
 30
0.0
  0
VERTEX
  5
114
330
101
100
AcDbEntity
  8
ACHSEN
100
AcDbVertex
100
AcDb2dVertex
 10
-2548.662725671202
 20
2044.319271112643
 30
0.0
  0
VERTEX
  5
115
330
101
100
AcDbEntity
  8
ACHSEN
100
AcDbVertex
100
AcDb2dVertex
 10
-2548.781681486537
 20
2044.365269047293
 30
0.0
  0
VERTEX
  5
116
330
101
100
AcDbEntity
  8
ACHSEN
100
AcDbVertex
100
AcDb2dVertex
 10
-2548.901651208272
 20
2044.402705220603
 30
0.0
  0
VERTEX
  5
117
330
101
100
AcDbEntity
  8
ACHSEN
100
AcDbVertex
100
AcDb2dVertex
 10
-2549.022363792119
 20
2044.431682271678
 30
0.0
  0
VERTEX
  5
118
330
101
100
AcDbEntity
  8
ACHSEN
100
AcDbVertex
100
AcDb2dVertex
 10
-2549.143588348506
 20
2044.452300044425
 30
0.0
  0
VERTEX
  5
119
330
101
100
AcDbEntity
  8
ACHSEN
100
AcDbVertex
100
AcDb2dVertex
 10
-2549.265201903634
 20
2044.464648827814
 30
0.0
  0
VERTEX
  5
11A
330
101
100
AcDbEntity
  8
ACHSEN
100
AcDbVertex
100
AcDb2dVertex
 10
-2549.387048858007
 20
2044.468761005829
 30
0.0
  0
SEQEND
  5
11B
330
101
100
AcDbEntity
  8
ACHSEN
  0
POLYLINE
  5
11C
330
2
100
AcDbEntity
  8
ACHSEN
100
AcDb2dPolyline
 66
     1
 10
0.0
 20
0.0
 30
0.0
 70
   128
  0
VERTEX
  5
11D
330
11C
100
AcDbEntity
  8
ACHSEN
100
AcDbVertex
100
AcDb2dVertex
 10
-2553.74717513941
 20
2034.995076856794
 30
0.0
  0
VERTEX
  5
11E
330
11C
100
AcDbEntity
  8
ACHSEN
100
AcDbVertex
100
AcDb2dVertex
 10
-2554.178394048213
 20
2035.028397736142
 30
0.0
  0
VERTEX
  5
11F
330
11C
100
AcDbEntity
  8
ACHSEN
100
AcDbVertex
100
AcDb2dVertex
 10
-2554.393181585918
 20
2035.072179544565
 30
0.0
  0
VERTEX
  5
120
330
11C
100
AcDbEntity
  8
ACHSEN
100
AcDbVertex
100
AcDb2dVertex
 10
-2554.604362728833
 20
2035.13782433713
 30
0.0
  0
VERTEX
  5
121
330
11C
100
AcDbEntity
  8
ACHSEN
100
AcDbVertex
100
AcDb2dVertex
 10
-2554.809038808912
 20
2035.22764226443
 30
0.0
  0
VERTEX
  5
122
330
11C
100
AcDbEntity
  8
ACHSEN
100
AcDbVertex
100
AcDb2dVertex
 10
-2555.005156916664
 20
2035.343543184805
 30
0.0
  0
VERTEX
  5
123
330
11C
100
AcDbEntity
  8
ACHSEN
100
AcDbVertex
100
AcDb2dVertex
 10
-2555.190001589904
 20
2035.485980093565
 30
0.0
  0
VERTEX
  5
124
330
11C
100
AcDbEntity
  8
ACHSEN
100
AcDbVertex
100
AcDb2dVertex
 10
-2555.360761999011
 20
2035.655417906948
 30
0.0
  0
VERTEX
  5
125
330
11C
100
AcDbEntity
  8
ACHSEN
100
AcDbVertex
100
AcDb2dVertex
 10
-2555.514451637512
 20
2035.849968098803
 30
0.0
  0
VERTEX
  5
126
330
11C
100
AcDbEntity
  8
ACHSEN
100
AcDbVertex
100
AcDb2dVertex
 10
-2555.647120285924
 20
2036.065994785726
 30
0.0
  0
VERTEX
  5
127
330
11C
100
AcDbEntity
  8
ACHSEN
100
AcDbVertex
100
AcDb2dVertex
 10
-2555.756371210061
 20
2036.301700417078
 30
0.0
  0
VERTEX
  5
128
330
11C
100
AcDbEntity
  8
ACHSEN
100
AcDbVertex
100
AcDb2dVertex
 10
-2555.841958462331
 20
2036.5530306221
 30
0.0
  0
VERTEX
  5
129
330
11C
100
AcDbEntity
  8
ACHSEN
100
AcDbVertex
100
AcDb2dVertex
 10
-2555.904175674044
 20
2036.813999212083
 30
0.0
  0
VERTEX
  5
12A
330
11C
100
AcDbEntity
  8
ACHSEN
100
AcDbVertex
100
AcDb2dVertex
 10
-2555.949169025325
 20
2037.081417024759
 30
0.0
  0
VERTEX
  5
12B
330
11C
100
AcDbEntity
  8
ACHSEN
100
AcDbVertex
100
AcDb2dVertex
 10
-2555.977623655892
 20
2037.353108176843
 30
0.0
  0
VERTEX
  5
12C
330
11C
100
AcDbEntity
  8
ACHSEN
100
AcDbVertex
100
AcDb2dVertex
 10
-2555.987737623187
 20
2037.62684219974
 30
0.0
  0
SEQEND
  5
12D
330
11C
100
AcDbEntity
  8
ACHSEN
  0
POLYLINE
  5
12E
330
2
100
AcDbEntity
  8
ACHSEN
100
AcDb2dPolyline
 66
     1
 10
0.0
 20
0.0
 30
0.0
 70
   128
  0
VERTEX
  5
12F
330
12E
100
AcDbEntity
  8
ACHSEN
100
AcDbVertex
100
AcDb2dVertex
 10
-2555.987737623187
 20
2041.837182005826
 30
0.0
  0
VERTEX
  5
130
330
12E
100
AcDbEntity
  8
ACHSEN
100
AcDbVertex
100
AcDb2dVertex
 10
-2555.973211657255
 20
2042.107794627527
 30
0.0
  0
VERTEX
  5
131
330
12E
100
AcDbEntity
  8
ACHSEN
100
AcDbVertex
100
AcDb2dVertex
 10
-2555.93173435267
 20
2042.375128836845
 30
0.0
  0
VERTEX
  5
132
330
12E
100
AcDbEntity
  8
ACHSEN
100
AcDbVertex
100
AcDb2dVertex
 10
-2555.866580827871
 20
2042.633754964241
 30
0.0
  0
VERTEX
  5
133
330
12E
100
AcDbEntity
  8
ACHSEN
100
AcDbVertex
100
AcDb2dVertex
 10
-2555.783272355329
 20
2042.882417547646
 30
0.0
  0
VERTEX
  5
134
330
12E
100
AcDbEntity
  8
ACHSEN
100
AcDbVertex
100
AcDb2dVertex
 10
-2555.685799309235
 20
2043.120677551787
 30
0.0
  0
VERTEX
  5
135
330
12E
100
AcDbEntity
  8
ACHSEN
100
AcDbVertex
100
AcDb2dVertex
 10
-2555.576453017665
 20
2043.347855640554
 30
0.0
  0
VERTEX
  5
136
330
12E
100
AcDbEntity
  8
ACHSEN
100
AcDbVertex
100
AcDb2dVertex
 10
-2555.453137906749
 20
2043.563858485619
 30
0.0
  0
VERTEX
  5
137
330
12E
100
AcDbEntity
  8
ACHSEN
100
AcDbVertex
100
AcDb2dVertex
 10
-2555.314122304667
 20
2043.764175583826
 30
0.0
  0
VERTEX
  5
138
330
12E
100
AcDbEntity
  8
ACHSEN
100
AcDbVertex
100
AcDb2dVertex
 10
-2555.157925506531
 20
2043.943872415546
 30
0.0
  0
VERTEX
  5
139
330
12E
100
AcDbEntity
  8
ACHSEN
100
AcDbVertex
100
AcDb2dVertex
 10
-2554.984038049473
 20
2044.098815124089
 30
0.0
  0
VERTEX
  5
13A
330
12E
100
AcDbEntity
  8
ACHSEN
100
AcDbVertex
100
AcDb2dVertex
 10
-2554.795569413758
 20
2044.225833467737
 30
0.0
  0
VERTEX
  5
13B
330
12E
100
AcDbEntity
  8
ACHSEN
100
AcDbVertex
100
AcDb2dVertex
 10
-2554.595177339181
 20
2044.323219636138
 30
0.0
  0
VERTEX
  5
13C
330
12E
100
AcDbEntity
  8
ACHSEN
100
AcDbVertex
100
AcDb2dVertex
 10
-2554.38592613196
 20
2044.392555382682
 30
0.0
  0
VERTEX
  5
13D
330
12E
100
AcDbEntity
  8
ACHSEN
100
AcDbVertex
100
AcDb2dVertex
 10
-2554.172142461978
 20
2044.436510346034
 30
0.0
  0
VERTEX
  5
13E
330
12E
100
AcDbEntity
  8
ACHSEN
100
AcDbVertex
100
AcDb2dVertex
 10
-2553.74717513941
 20
2044.468761005827
 30
0.0
  0
SEQEND
  5
13F
330
12E
100
AcDbEntity
  8
ACHSEN
  0
LINE
  5
140
330
2
100
AcDbEntity
  8
ACHSEN
100
AcDbLine
 10
-2555.987737623187
 20
2037.62684219974
 30
0.0
 11
-2555.987737623187
 21
2041.837182005826
 31
0.0
  0
LINE
  5
141
330
2
100
AcDbEntity
  8
UMRISS02
100
AcDbLine
 10
-2545.958790054186
 20
2562.263850730835
 30
0.0
 11
-2542.958789994186
 21
2562.875152046867
 31
0.0
  0
LINE
  5
145
330
2
100
AcDbEntity
  8
UMRISS02
100
AcDbLine
 10
-2545.958790054186
 20
2564.508764071539
 30
0.0
 11
-2542.958789994186
 21
2565.120065387572
 31
0.0
  0
LINE
  5
146
330
2
100
AcDbEntity
  8
ACHSEN
100
AcDbLine
 10
-2536.958789874186
 20
2553.784654962783
 30
0.0
 11
-2551.446904082985
 21
2553.784654962783
 31
0.0
  0
SPLINE
  5
147
330
2
100
AcDbEntity
  8
UMRISS02
100
AcDbSpline
210
0.0
220
0.0
230
1.0
 70
  1064
 71
     3
 72
    11
 73
     7
 74
     5
 42
0.0000000001
 43
0.0000000001
 44
0.0000000001
 40
0.0
 40
0.0
 40
0.0
 40
0.0
 40
5.729095966564051
 40
10.84827500458184
 40
15.57843713818822
 40
18.28275595303124
 40
18.28275595303124
 40
18.28275595303124
 40
18.28275595303124
 10
-2356.324472702553
 20
2564.508764071539
 30
0.0
 10
-2354.413993888283
 20
2564.970619682317
 30
0.0
 10
-2350.796424957932
 20
2565.845161967412
 30
0.0
 10
-2345.77921726869
 20
2563.088915631598
 30
0.0
 10
-2341.67605841145
 20
2565.286451840503
 30
0.0
 10
-2339.218439821671
 20
2564.716196481172
 30
0.0
 10
-2338.324472342552
 20
2564.508764071539
 30
0.0
 11
-2356.324472702553
 21
2564.508764071539
 31
0.0
 11
-2350.627553716329
 21
2565.115109400949
 31
0.0
 11
-2345.641189209836
 21
2563.956591800018
 31
0.0
 11
-2341.002714716433
 21
2564.883407954523
 31
0.0
 11
-2338.324472342552
 21
2564.508764071539
 31
0.0
  0
SPLINE
  5
148
330
2
100
AcDbEntity
  8
UMRISS02
100
AcDbSpline
210
0.0
220
0.0
230
1.0
 70
  1064
 71
     3
 72
    11
 73
     7
 74
     5
 42
0.0000000001
 43
0.0000000001
 44
0.0000000001
 40
0.0
 40
0.0
 40
0.0
 40
0.0
 40
5.729095966564003
 40
10.84827500458169
 40
15.57843713818807
 40
18.28275595303109
 40
18.28275595303109
 40
18.28275595303109
 40
18.28275595303109
 10
-2356.324472702553
 20
2562.263850730834
 30
0.0
 10
-2354.413993888283
 20
2562.725706341612
 30
0.0
 10
-2350.796424957933
 20
2563.600248626706
 30
0.0
 10
-2345.779217268689
 20
2560.844002290892
 30
0.0
 10
-2341.67605841145
 20
2563.041538499797
 30
0.0
 10
-2339.218439821671
 20
2562.471283140467
 30
0.0
 10
-2338.324472342552
 20
2562.263850730834
 30
0.0
 11
-2356.324472702553
 21
2562.263850730834
 31
0.0
 11
-2350.627553716329
 21
2562.870196060244
 31
0.0
 11
-2345.641189209836
 21
2561.711678459313
 31
0.0
 11
-2341.002714716433
 21
2562.638494613818
 31
0.0
 11
-2338.324472342552
 21
2562.263850730834
 31
0.0
  0
CIRCLE
  5
149
330
2
100
AcDbEntity
  8
UMRISS03
100
AcDbCircle
 10
-2347.324472522554
 20
2553.784654962783
 30
0.0
 40
2.150000042999999
  0
LINE
  5
14D
330
2
100
AcDbEntity
  8
ACHSEN
100
AcDbLine
 10
-2347.324472522554
 20
2559.884655084784
 30
0.0
 11
-2347.324472522554
 21
2547.684654840784
 31
0.0
  0
CIRCLE
  5
14E
330
2
100
AcDbEntity
  8
UMRISS03
100
AcDbCircle
 10
-2347.324472522554
 20
2553.784654962783
 30
0.0
 40
4.100000081999999
  0
LINE
  5
14F
330
2
100
AcDbEntity
  8
ACHSEN
100
AcDbLine
 10
-2341.224472400554
 20
2553.784654962783
 30
0.0
 11
-2353.424472644554
 21
2553.784654962783
 31
0.0
  0
LINE
  5
150
330
2
100
AcDbEntity
  8
UMRISS02
100
AcDbLine
 10
-2545.958790054187
 20
1981.282843208109
 30
0.0
 11
-2542.958789994187
 21
1981.894144524143
 31
0.0
  0
LINE
  5
151
330
2
100
AcDbEntity
  8
UMRISS02
100
AcDbLine
 10
-2545.958790054187
 20
1979.037929867405
 30
0.0
 11
-2542.958789994187
 21
1979.649231183438
 31
0.0
  0
LINE
  5
152
330
2
100
AcDbEntity
  8
ACHSEN
100
AcDbLine
 10
-2536.958789874186
 20
1988.679380502783
 30
0.0
 11
-2551.944316967967
 21
1988.679380502783
 31
0.0
  0
SPLINE
  5
153
330
2
100
AcDbEntity
  8
UMRISS02
100
AcDbSpline
210
0.0
220
0.0
230
1.0
 70
  1064
 71
     3
 72
    11
 73
     7
 74
     5
 42
0.0000000001
 43
0.0000000001
 44
0.0000000001
 40
0.0
 40
0.0
 40
0.0
 40
0.0
 40
5.729095966562193
 40
10.84827500458165
 40
15.57843713818803
 40
18.28275595302745
 40
18.28275595302745
 40
18.28275595302745
 40
18.28275595302745
 10
-2356.324472702553
 20
1981.282843208111
 30
0.0
 10
-2354.413993888283
 20
1981.744698818888
 30
0.0
 10
-2350.796424957933
 20
1982.619241103982
 30
0.0
 10
-2345.77921726869
 20
1979.862994768168
 30
0.0
 10
-2341.676058411451
 20
1982.060530977074
 30
0.0
 10
-2339.218439821674
 20
1981.490275617743
 30
0.0
 10
-2338.324472342555
 20
1981.282843208111
 30
0.0
 11
-2356.324472702553
 21
1981.282843208111
 31
0.0
 11
-2350.627553716331
 21
1981.88918853752
 31
0.0
 11
-2345.641189209836
 21
1980.730670936589
 31
0.0
 11
-2341.002714716433
 21
1981.657487091095
 31
0.0
 11
-2338.324472342555
 21
1981.282843208111
 31
0.0
  0
SPLINE
  5
154
330
2
100
AcDbEntity
  8
UMRISS02
100
AcDbSpline
210
0.0
220
0.0
230
1.0
 70
  1064
 71
     3
 72
    11
 73
     7
 74
     5
 42
0.0000000001
 43
0.0000000001
 44
0.0000000001
 40
0.0
 40
0.0
 40
0.0
 40
0.0
 40
5.729095966562193
 40
10.84827500458165
 40
15.57843713818838
 40
18.28275595302805
 40
18.28275595302805
 40
18.28275595302805
 40
18.28275595302805
 10
-2356.324472702553
 20
1979.037929867405
 30
0.0
 10
-2354.413993888283
 20
1979.499785478182
 30
0.0
 10
-2350.796424957934
 20
1980.374327763277
 30
0.0
 10
-2345.779217268689
 20
1977.618081427461
 30
0.0
 10
-2341.676058411451
 20
1979.815617636373
 30
0.0
 10
-2339.218439821674
 20
1979.245362277038
 30
0.0
 10
-2338.324472342555
 20
1979.037929867405
 30
0.0
 11
-2356.324472702553
 21
1979.037929867405
 31
0.0
 11
-2350.627553716331
 21
1979.644275196815
 31
0.0
 11
-2345.641189209836
 21
1978.485757595884
 31
0.0
 11
-2341.002714716433
 21
1979.412573750391
 31
0.0
 11
-2338.324472342555
 21
1979.037929867405
 31
0.0
  0
LINE
  5
155
330
2
100
AcDbEntity
  8
ACHSEN
100
AcDbLine
 10
-2347.324472522556
 20
1994.779380624781
 30
0.0
 11
-2347.324472522556
 21
1982.579380380782
 31
0.0
  0
CIRCLE
  5
156
330
2
100
AcDbEntity
  8
UMRISS03
100
AcDbCircle
 10
-2347.324472522556
 20
1988.679380502782
 30
0.0
 40
2.150000042999999
  0
LINE
  5
157
330
2
100
AcDbEntity
  8
ACHSEN
100
AcDbLine
 10
-2341.224472400556
 20
1988.679380502782
 30
0.0
 11
-2353.424472644555
 21
1988.679380502782
 31
0.0
  0
CIRCLE
  5
158
330
2
100
AcDbEntity
  8
UMRISS03
100
AcDbCircle
 10
-2347.324472522556
 20
1988.679380502782
 30
0.0
 40
4.100000081999999
  0
ELLIPSE
  5
159
330
2
100
AcDbEntity
  8
UMRISS05
100
AcDbEllipse
 10
-2346.437858640866
 20
2501.732022872584
 30
0.0
 11
-0.0000000000000006
 21
-3.300000065999998
 31
0.0
210
0.0
220
0.0
230
1.0
 40
0.6946583704589975
 41
0.0000000000004422
 42
6.283185307179585
  0
LINE
  5
15A
330
2
100
AcDbEntity
  8
UMRISS05
100
AcDbLine
 10
-2343.798156900973
 20
2499.732023071002
 30
0.0
 11
-2343.798156900973
 21
2503.732022912584
 31
0.0
  0
POLYLINE
  5
15B
330
2
100
AcDbEntity
  8
UMRISS05
100
AcDb2dPolyline
 66
     1
 10
0.0
 20
0.0
 30
0.0
 70
   128
  0
VERTEX
  5
15C
330
15B
100
AcDbEntity
  8
UMRISS05
100
AcDbVertex
100
AcDb2dVertex
 10
-2346.298156950973
 20
2497.232023021003
 30
0.0
  0
VERTEX
  5
15D
330
15B
100
AcDbEntity
  8
UMRISS05
100
AcDbVertex
100
AcDb2dVertex
 10
-2346.158418626874
 20
2497.235931297639
 30
0.0
  0
VERTEX
  5
15E
330
15B
100
AcDbEntity
  8
UMRISS05
100
AcDbVertex
100
AcDb2dVertex
 10
-2346.018968789261
 20
2497.247660895919
 30
0.0
  0
VERTEX
  5
15F
330
15B
100
AcDbEntity
  8
UMRISS05
100
AcDbVertex
100
AcDb2dVertex
 10
-2345.8799647944
 20
2497.26724757863
 30
0.0
  0
VERTEX
  5
160
330
15B
100
AcDbEntity
  8
UMRISS05
100
AcDbVertex
100
AcDb2dVertex
 10
-2345.741536580419
 20
2497.294775388324
 30
0.0
  0
VERTEX
  5
161
330
15B
100
AcDbEntity
  8
UMRISS05
100
AcDbVertex
100
AcDb2dVertex
 10
-2345.60394998404
 20
2497.330340884526
 30
0.0
  0
VERTEX
  5
162
330
15B
100
AcDbEntity
  8
UMRISS05
100
AcDbVertex
100
AcDb2dVertex
 10
-2345.467534022907
 20
2497.374043606996
 30
0.0
  0
VERTEX
  5
163
330
15B
100
AcDbEntity
  8
UMRISS05
100
AcDbVertex
100
AcDb2dVertex
 10
-2345.332562878392
 20
2497.426024222697
 30
0.0
  0
VERTEX
  5
164
330
15B
100
AcDbEntity
  8
UMRISS05
100
AcDbVertex
100
AcDb2dVertex
 10
-2345.199294042567
 20
2497.486471082313
 30
0.0
  0
VERTEX
  5
165
330
15B
100
AcDbEntity
  8
UMRISS05
100
AcDbVertex
100
AcDb2dVertex
 10
-2345.068056533075
 20
2497.555591013963
 30
0.0
  0
VERTEX
  5
166
330
15B
100
AcDbEntity
  8
UMRISS05
100
AcDbVertex
100
AcDb2dVertex
 10
-2344.939240164304
 20
2497.633608131116
 30
0.0
  0
VERTEX
  5
167
330
15B
100
AcDbEntity
  8
UMRISS05
100
AcDbVertex
100
AcDb2dVertex
 10
-2344.813281242259
 20
2497.72076860096
 30
0.0
  0
VERTEX
  5
168
330
15B
100
AcDbEntity
  8
UMRISS05
100
AcDbVertex
100
AcDb2dVertex
 10
-2344.69068521434
 20
2497.817333491846
 30
0.0
  0
VERTEX
  5
169
330
15B
100
AcDbEntity
  8
UMRISS05
100
AcDbVertex
100
AcDb2dVertex
 10
-2344.57200044329
 20
2497.923597846769
 30
0.0
  0
VERTEX
  5
16A
330
15B
100
AcDbEntity
  8
UMRISS05
100
AcDbVertex
100
AcDb2dVertex
 10
-2344.457918343001
 20
2498.03982631036
 30
0.0
  0
VERTEX
  5
16B
330
15B
100
AcDbEntity
  8
UMRISS05
100
AcDbVertex
100
AcDb2dVertex
 10
-2344.349194700384
 20
2498.16627756678
 30
0.0
  0
VERTEX
  5
16C
330
15B
100
AcDbEntity
  8
UMRISS05
100
AcDbVertex
100
AcDb2dVertex
 10
-2344.246736698153
 20
2498.303148907408
 30
0.0
  0
VERTEX
  5
16D
330
15B
100
AcDbEntity
  8
UMRISS05
100
AcDbVertex
100
AcDb2dVertex
 10
-2344.151556423193
 20
2498.450577422929
 30
0.0
  0
VERTEX
  5
16E
330
15B
100
AcDbEntity
  8
UMRISS05
100
AcDbVertex
100
AcDb2dVertex
 10
-2344.06486027354
 20
2498.608465957772
 30
0.0
  0
VERTEX
  5
16F
330
15B
100
AcDbEntity
  8
UMRISS05
100
AcDbVertex
100
AcDb2dVertex
 10
-2343.987978624893
 20
2498.7764753615
 30
0.0
  0
VERTEX
  5
170
330
15B
100
AcDbEntity
  8
UMRISS05
100
AcDbVertex
100
AcDb2dVertex
 10
-2343.922264502714
 20
2498.954119856249
 30
0.0
  0
VERTEX
  5
171
330
15B
100
AcDbEntity
  8
UMRISS05
100
AcDbVertex
100
AcDb2dVertex
 10
-2343.869196102223
 20
2499.140479146284
 30
0.0
  0
VERTEX
  5
172
330
15B
100
AcDbEntity
  8
UMRISS05
100
AcDbVertex
100
AcDb2dVertex
 10
-2343.83026353957
 20
2499.333477201787
 30
0.0
  0
VERTEX
  5
173
330
15B
100
AcDbEntity
  8
UMRISS05
100
AcDbVertex
100
AcDb2dVertex
 10
-2343.806316777006
 20
2499.531257934083
 30
0.0
  0
VERTEX
  5
174
330
15B
100
AcDbEntity
  8
UMRISS05
100
AcDbVertex
100
AcDb2dVertex
 10
-2343.798156900973
 20
2499.732023071002
 30
0.0
  0
SEQEND
  5
175
330
15B
100
AcDbEntity
  8
UMRISS05
  0
POLYLINE
  5
176
330
2
100
AcDbEntity
  8
UMRISS05
100
AcDb2dPolyline
 66
     1
 10
0.0
 20
0.0
 30
0.0
 70
   128
  0
VERTEX
  5
177
330
176
100
AcDbEntity
  8
UMRISS05
100
AcDbVertex
100
AcDb2dVertex
 10
-2343.798156900973
 20
2503.732022912584
 30
0.0
  0
VERTEX
  5
178
330
176
100
AcDbEntity
  8
UMRISS05
100
AcDbVertex
100
AcDb2dVertex
 10
-2343.806223793758
 20
2503.932617580215
 30
0.0
  0
VERTEX
  5
179
330
176
100
AcDbEntity
  8
UMRISS05
100
AcDbVertex
100
AcDb2dVertex
 10
-2343.830075188888
 20
2504.130214432179
 30
0.0
  0
VERTEX
  5
17A
330
176
100
AcDbEntity
  8
UMRISS05
100
AcDbVertex
100
AcDb2dVertex
 10
-2343.869136497577
 20
2504.323446584929
 30
0.0
  0
VERTEX
  5
17B
330
176
100
AcDbEntity
  8
UMRISS05
100
AcDbVertex
100
AcDb2dVertex
 10
-2343.922264502714
 20
2504.509925829314
 30
0.0
  0
VERTEX
  5
17C
330
176
100
AcDbEntity
  8
UMRISS05
100
AcDbVertex
100
AcDb2dVertex
 10
-2343.987978624893
 20
2504.687570175051
 30
0.0
  0
VERTEX
  5
17D
330
176
100
AcDbEntity
  8
UMRISS05
100
AcDbVertex
100
AcDb2dVertex
 10
-2344.06486027354
 20
2504.855580025814
 30
0.0
  0
VERTEX
  5
17E
330
176
100
AcDbEntity
  8
UMRISS05
100
AcDbVertex
100
AcDb2dVertex
 10
-2344.151556423193
 20
2505.013468560657
 30
0.0
  0
VERTEX
  5
17F
330
176
100
AcDbEntity
  8
UMRISS05
100
AcDbVertex
100
AcDb2dVertex
 10
-2344.246736698153
 20
2505.160897076179
 30
0.0
  0
VERTEX
  5
180
330
176
100
AcDbEntity
  8
UMRISS05
100
AcDbVertex
100
AcDb2dVertex
 10
-2344.349194700384
 20
2505.297768118783
 30
0.0
  0
VERTEX
  5
181
330
176
100
AcDbEntity
  8
UMRISS05
100
AcDbVertex
100
AcDb2dVertex
 10
-2344.457918343001
 20
2505.424219375204
 30
0.0
  0
VERTEX
  5
182
330
176
100
AcDbEntity
  8
UMRISS05
100
AcDbVertex
100
AcDb2dVertex
 10
-2344.57200044329
 20
2505.540447987805
 30
0.0
  0
VERTEX
  5
183
330
176
100
AcDbEntity
  8
UMRISS05
100
AcDbVertex
100
AcDb2dVertex
 10
-2344.69068521434
 20
2505.646711970201
 30
0.0
  0
VERTEX
  5
184
330
176
100
AcDbEntity
  8
UMRISS05
100
AcDbVertex
100
AcDb2dVertex
 10
-2344.813280050166
 20
2505.743279655054
 30
0.0
  0
VERTEX
  5
185
330
176
100
AcDbEntity
  8
UMRISS05
100
AcDbVertex
100
AcDb2dVertex
 10
-2344.939240164304
 20
2505.830438150494
 30
0.0
  0
VERTEX
  5
186
330
176
100
AcDbEntity
  8
UMRISS05
100
AcDbVertex
100
AcDb2dVertex
 10
-2345.068055340982
 20
2505.908456981281
 30
0.0
  0
VERTEX
  5
187
330
176
100
AcDbEntity
  8
UMRISS05
100
AcDbVertex
100
AcDb2dVertex
 10
-2345.199292850474
 20
2505.977576633534
 30
0.0
  0
VERTEX
  5
188
330
176
100
AcDbEntity
  8
UMRISS05
100
AcDbVertex
100
AcDb2dVertex
 10
-2345.332562878392
 20
2506.038022468694
 30
0.0
  0
VERTEX
  5
189
330
176
100
AcDbEntity
  8
UMRISS05
100
AcDbVertex
100
AcDb2dVertex
 10
-2345.467535215
 20
2506.090007564058
 30
0.0
  0
VERTEX
  5
18A
330
176
100
AcDbEntity
  8
UMRISS05
100
AcDbVertex
100
AcDb2dVertex
 10
-2345.60394998404
 20
2506.133705601975
 30
0.0
  0
VERTEX
  5
18B
330
176
100
AcDbEntity
  8
UMRISS05
100
AcDbVertex
100
AcDb2dVertex
 10
-2345.741527043676
 20
2506.16926996662
 30
0.0
  0
VERTEX
  5
18C
330
176
100
AcDbEntity
  8
UMRISS05
100
AcDbVertex
100
AcDb2dVertex
 10
-2345.879954065564
 20
2506.196798165141
 30
0.0
  0
VERTEX
  5
18D
330
176
100
AcDbEntity
  8
UMRISS05
100
AcDbVertex
100
AcDb2dVertex
 10
-2346.018969981354
 20
2506.216385049251
 30
0.0
  0
VERTEX
  5
18E
330
176
100
AcDbEntity
  8
UMRISS05
100
AcDbVertex
100
AcDb2dVertex
 10
-2346.15842935571
 20
2506.22811639347
 30
0.0
  0
VERTEX
  5
18F
330
176
100
AcDbEntity
  8
UMRISS05
100
AcDbVertex
100
AcDb2dVertex
 10
-2346.298156950973
 20
2506.232022962584
 30
0.0
  0
SEQEND
  5
190
330
176
100
AcDbEntity
  8
UMRISS05
  0
LINE
  5
191
330
2
100
AcDbEntity
  8
UMRISS05
100
AcDbLine
 10
-2350.298156792554
 20
2497.232023021004
 30
0.0
 11
-2346.298156950973
 21
2497.232023021003
 31
0.0
  0
LINE
  5
192
330
2
100
AcDbEntity
  8
UMRISS05
100
AcDbLine
 10
-2346.298156950973
 20
2506.232022962584
 30
0.0
 11
-2350.298156792554
 21
2506.232022962585
 31
0.0
  0
POLYLINE
  5
193
330
2
100
AcDbEntity
  8
UMRISS05
100
AcDb2dPolyline
 66
     1
 10
0.0
 20
0.0
 30
0.0
 70
   128
  0
VERTEX
  5
194
330
193
100
AcDbEntity
  8
UMRISS05
100
AcDbVertex
100
AcDb2dVertex
 10
-2352.798156842554
 20
2499.732023071004
 30
0.0
  0
VERTEX
  5
195
330
193
100
AcDbEntity
  8
UMRISS05
100
AcDbVertex
100
AcDb2dVertex
 10
-2352.786693080996
 20
2499.492976254166
 30
0.0
  0
VERTEX
  5
196
330
193
100
AcDbEntity
  8
UMRISS05
100
AcDbVertex
100
AcDb2dVertex
 10
-2352.753801151188
 20
2499.263177694196
 30
0.0
  0
VERTEX
  5
197
330
193
100
AcDbEntity
  8
UMRISS05
100
AcDbVertex
100
AcDb2dVertex
 10
-2352.710227174753
 20
2499.074815688056
 30
0.0
  0
VERTEX
  5
198
330
193
100
AcDbEntity
  8
UMRISS05
100
AcDbVertex
100
AcDb2dVertex
 10
-2352.65969972032
 20
2498.911563331123
 30
0.0
  0
VERTEX
  5
199
330
193
100
AcDbEntity
  8
UMRISS05
100
AcDbVertex
100
AcDb2dVertex
 10
-2352.600916426374
 20
2498.758697083749
 30
0.0
  0
VERTEX
  5
19A
330
193
100
AcDbEntity
  8
UMRISS05
100
AcDbVertex
100
AcDb2dVertex
 10
-2352.53194193006
 20
2498.609435725364
 30
0.0
  0
VERTEX
  5
19B
330
193
100
AcDbEntity
  8
UMRISS05
100
AcDbVertex
100
AcDb2dVertex
 10
-2352.451642551013
 20
2498.462192580291
 30
0.0
  0
VERTEX
  5
19C
330
193
100
AcDbEntity
  8
UMRISS05
100
AcDbVertex
100
AcDb2dVertex
 10
-2352.359753942627
 20
2498.317878407521
 30
0.0
  0
VERTEX
  5
19D
330
193
100
AcDbEntity
  8
UMRISS05
100
AcDbVertex
100
AcDb2dVertex
 10
-2352.256802115903
 20
2498.178454795953
 30
0.0
  0
VERTEX
  5
19E
330
193
100
AcDbEntity
  8
UMRISS05
100
AcDbVertex
100
AcDb2dVertex
 10
-2352.143992276782
 20
2498.045935190527
 30
0.0
  0
VERTEX
  5
19F
330
193
100
AcDbEntity
  8
UMRISS05
100
AcDbVertex
100
AcDb2dVertex
 10
-2352.022840469436
 20
2497.922204290149
 30
0.0
  0
VERTEX
  5
1A0
330
193
100
AcDbEntity
  8
UMRISS05
100
AcDbVertex
100
AcDb2dVertex
 10
-2351.895092811966
 20
2497.808538230289
 30
0.0
  0
VERTEX
  5
1A1
330
193
100
AcDbEntity
  8
UMRISS05
100
AcDbVertex
100
AcDb2dVertex
 10
-2351.762442076319
 20
2497.705736905296
 30
0.0
  0
VERTEX
  5
1A2
330
193
100
AcDbEntity
  8
UMRISS05
100
AcDbVertex
100
AcDb2dVertex
 10
-2351.62653215863
 20
2497.614160327231
 30
0.0
  0
VERTEX
  5
1A3
330
193
100
AcDbEntity
  8
UMRISS05
100
AcDbVertex
100
AcDb2dVertex
 10
-2351.488757807616
 20
2497.533735182381
 30
0.0
  0
VERTEX
  5
1A4
330
193
100
AcDbEntity
  8
UMRISS05
100
AcDbVertex
100
AcDb2dVertex
 10
-2351.350522116641
 20
2497.464310074943
 30
0.0
  0
VERTEX
  5
1A5
330
193
100
AcDbEntity
  8
UMRISS05
100
AcDbVertex
100
AcDb2dVertex
 10
-2351.21294088468
 20
2497.405402207287
 30
0.0
  0
VERTEX
  5
1A6
330
193
100
AcDbEntity
  8
UMRISS05
100
AcDbVertex
100
AcDb2dVertex
 10
-2351.076906393281
 20
2497.356407188302
 30
0.0
  0
VERTEX
  5
1A7
330
193
100
AcDbEntity
  8
UMRISS05
100
AcDbVertex
100
AcDb2dVertex
 10
-2350.943142838894
 20
2497.316653273627
 30
0.0
  0
VERTEX
  5
1A8
330
193
100
AcDbEntity
  8
UMRISS05
100
AcDbVertex
100
AcDb2dVertex
 10
-2350.812156861008
 20
2497.285431167977
 30
0.0
  0
VERTEX
  5
1A9
330
193
100
AcDbEntity
  8
UMRISS05
100
AcDbVertex
100
AcDb2dVertex
 10
-2350.683909716606
 20
2497.261964222813
 30
0.0
  0
VERTEX
  5
1AA
330
193
100
AcDbEntity
  8
UMRISS05
100
AcDbVertex
100
AcDb2dVertex
 10
-2350.555559456165
 20
2497.245312472869
 30
0.0
  0
VERTEX
  5
1AB
330
193
100
AcDbEntity
  8
UMRISS05
100
AcDbVertex
100
AcDb2dVertex
 10
-2350.426873621568
 20
2497.235340615599
 30
0.0
  0
VERTEX
  5
1AC
330
193
100
AcDbEntity
  8
UMRISS05
100
AcDbVertex
100
AcDb2dVertex
 10
-2350.298156792554
 20
2497.232023021004
 30
0.0
  0
SEQEND
  5
1AD
330
193
100
AcDbEntity
  8
UMRISS05
  0
POLYLINE
  5
1AE
330
2
100
AcDbEntity
  8
UMRISS05
100
AcDb2dPolyline
 66
     1
 10
0.0
 20
0.0
 30
0.0
 70
   128
  0
VERTEX
  5
1AF
330
1AE
100
AcDbEntity
  8
UMRISS05
100
AcDbVertex
100
AcDb2dVertex
 10
-2350.298156792554
 20
2506.232022962585
 30
0.0
  0
VERTEX
  5
1B0
330
1AE
100
AcDbEntity
  8
UMRISS05
100
AcDbVertex
100
AcDb2dVertex
 10
-2350.427689013124
 20
2506.228664758543
 30
0.0
  0
VERTEX
  5
1B1
330
1AE
100
AcDbEntity
  8
UMRISS05
100
AcDbVertex
100
AcDb2dVertex
 10
-2350.557209908812
 20
2506.218565036792
 30
0.0
  0
VERTEX
  5
1B2
330
1AE
100
AcDbEntity
  8
UMRISS05
100
AcDbVertex
100
AcDb2dVertex
 10
-2350.686379733135
 20
2506.201695604162
 30
0.0
  0
VERTEX
  5
1B3
330
1AE
100
AcDbEntity
  8
UMRISS05
100
AcDbVertex
100
AcDb2dVertex
 10
-2350.816056196948
 20
2506.177786241185
 30
0.0
  0
VERTEX
  5
1B4
330
1AE
100
AcDbEntity
  8
UMRISS05
100
AcDbVertex
100
AcDb2dVertex
 10
-2350.951917834873
 20
2506.145017930482
 30
0.0
  0
VERTEX
  5
1B5
330
1AE
100
AcDbEntity
  8
UMRISS05
100
AcDbVertex
100
AcDb2dVertex
 10
-2351.093566487875
 20
2506.102111917237
 30
0.0
  0
VERTEX
  5
1B6
330
1AE
100
AcDbEntity
  8
UMRISS05
100
AcDbVertex
100
AcDb2dVertex
 10
-2351.239584161427
 20
2506.04796621865
 30
0.0
  0
VERTEX
  5
1B7
330
1AE
100
AcDbEntity
  8
UMRISS05
100
AcDbVertex
100
AcDb2dVertex
 10
-2351.388237552423
 20
2505.981824265498
 30
0.0
  0
VERTEX
  5
1B8
330
1AE
100
AcDbEntity
  8
UMRISS05
100
AcDbVertex
100
AcDb2dVertex
 10
-2351.537573416616
 20
2505.903159022326
 30
0.0
  0
VERTEX
  5
1B9
330
1AE
100
AcDbEntity
  8
UMRISS05
100
AcDbVertex
100
AcDb2dVertex
 10
-2351.685148559568
 20
2505.811903080004
 30
0.0
  0
VERTEX
  5
1BA
330
1AE
100
AcDbEntity
  8
UMRISS05
100
AcDbVertex
100
AcDb2dVertex
 10
-2351.828223551748
 20
2505.709084767687
 30
0.0
  0
VERTEX
  5
1BB
330
1AE
100
AcDbEntity
  8
UMRISS05
100
AcDbVertex
100
AcDb2dVertex
 10
-2351.964172808503
 20
2505.595992886832
 30
0.0
  0
VERTEX
  5
1BC
330
1AE
100
AcDbEntity
  8
UMRISS05
100
AcDbVertex
100
AcDb2dVertex
 10
-2352.09039965343
 20
2505.474963492527
 30
0.0
  0
VERTEX
  5
1BD
330
1AE
100
AcDbEntity
  8
UMRISS05
100
AcDbVertex
100
AcDb2dVertex
 10
-2352.204970213793
 20
2505.348830077882
 30
0.0
  0
VERTEX
  5
1BE
330
1AE
100
AcDbEntity
  8
UMRISS05
100
AcDbVertex
100
AcDb2dVertex
 10
-2352.306938861882
 20
2505.22025965278
 30
0.0
  0
VERTEX
  5
1BF
330
1AE
100
AcDbEntity
  8
UMRISS05
100
AcDbVertex
100
AcDb2dVertex
 10
-2352.396846211836
 20
2505.090516580775
 30
0.0
  0
VERTEX
  5
1C0
330
1AE
100
AcDbEntity
  8
UMRISS05
100
AcDbVertex
100
AcDb2dVertex
 10
-2352.475653388572
 20
2504.960280503842
 30
0.0
  0
VERTEX
  5
1C1
330
1AE
100
AcDbEntity
  8
UMRISS05
100
AcDbVertex
100
AcDb2dVertex
 10
-2352.54468927767
 20
2504.828878783551
 30
0.0
  0
VERTEX
  5
1C2
330
1AE
100
AcDbEntity
  8
UMRISS05
100
AcDbVertex
100
AcDb2dVertex
 10
-2352.605820100598
 20
2504.693686952835
 30
0.0
  0
VERTEX
  5
1C3
330
1AE
100
AcDbEntity
  8
UMRISS05
100
AcDbVertex
100
AcDb2dVertex
 10
-2352.660802406271
 20
2504.549320775011
 30
0.0
  0
VERTEX
  5
1C4
330
1AE
100
AcDbEntity
  8
UMRISS05
100
AcDbVertex
100
AcDb2dVertex
 10
-2352.711270256058
 20
2504.385388180056
 30
0.0
  0
VERTEX
  5
1C5
330
1AE
100
AcDbEntity
  8
UMRISS05
100
AcDbVertex
100
AcDb2dVertex
 10
-2352.756942912077
 20
2504.18409926731
 30
0.0
  0
VERTEX
  5
1C6
330
1AE
100
AcDbEntity
  8
UMRISS05
100
AcDbVertex
100
AcDb2dVertex
 10
-2352.790536984614
 20
2503.926079695613
 30
0.0
  0
VERTEX
  5
1C7
330
1AE
100
AcDbEntity
  8
UMRISS05
100
AcDbVertex
100
AcDb2dVertex
 10
-2352.798156842554
 20
2503.732022912586
 30
0.0
  0
SEQEND
  5
1C8
330
1AE
100
AcDbEntity
  8
UMRISS05
  0
LINE
  5
1C9
330
2
100
AcDbEntity
  8
UMRISS05
100
AcDbLine
 10
-2352.798156842554
 20
2503.732022614562
 30
0.0
 11
-2352.798156842554
 21
2499.732023071004
 31
0.0
  0
ELLIPSE
  5
1CA
330
2
100
AcDbEntity
  8
UMRISS05
100
AcDbEllipse
 10
-2346.437858640867
 20
2039.732012632585
 30
0.0
 11
-0.0000000000000006
 21
-3.300000065999998
 31
0.0
210
0.0
220
0.0
230
1.0
 40
0.6946583704589975
 41
0.0000000000004422
 42
6.283185307179585
  0
LINE
  5
1CB
330
2
100
AcDbEntity
  8
UMRISS05
100
AcDbLine
 10
-2343.798156900974
 20
2037.732012831003
 30
0.0
 11
-2343.798156900974
 21
2041.732012672584
 31
0.0
  0
POLYLINE
  5
1CC
330
2
100
AcDbEntity
  8
UMRISS05
100
AcDb2dPolyline
 66
     1
 10
0.0
 20
0.0
 30
0.0
 70
   128
  0
VERTEX
  5
1CD
330
1CC
100
AcDbEntity
  8
UMRISS05
100
AcDbVertex
100
AcDb2dVertex
 10
-2346.298156950974
 20
2035.232012781003
 30
0.0
  0
VERTEX
  5
1CE
330
1CC
100
AcDbEntity
  8
UMRISS05
100
AcDbVertex
100
AcDb2dVertex
 10
-2346.158418626875
 20
2035.235921057639
 30
0.0
  0
VERTEX
  5
1CF
330
1CC
100
AcDbEntity
  8
UMRISS05
100
AcDbVertex
100
AcDb2dVertex
 10
-2346.018968789262
 20
2035.247650655919
 30
0.0
  0
VERTEX
  5
1D0
330
1CC
100
AcDbEntity
  8
UMRISS05
100
AcDbVertex
100
AcDb2dVertex
 10
-2345.879964794402
 20
2035.26723733863
 30
0.0
  0
VERTEX
  5
1D1
330
1CC
100
AcDbEntity
  8
UMRISS05
100
AcDbVertex
100
AcDb2dVertex
 10
-2345.741536580421
 20
2035.294765148324
 30
0.0
  0
VERTEX
  5
1D2
330
1CC
100
AcDbEntity
  8
UMRISS05
100
AcDbVertex
100
AcDb2dVertex
 10
-2345.603949984041
 20
2035.330330644526
 30
0.0
  0
VERTEX
  5
1D3
330
1CC
100
AcDbEntity
  8
UMRISS05
100
AcDbVertex
100
AcDb2dVertex
 10
-2345.467534022908
 20
2035.374033366996
 30
0.0
  0
VERTEX
  5
1D4
330
1CC
100
AcDbEntity
  8
UMRISS05
100
AcDbVertex
100
AcDb2dVertex
 10
-2345.332562878394
 20
2035.426013982698
 30
0.0
  0
VERTEX
  5
1D5
330
1CC
100
AcDbEntity
  8
UMRISS05
100
AcDbVertex
100
AcDb2dVertex
 10
-2345.199294042568
 20
2035.486460842312
 30
0.0
  0
VERTEX
  5
1D6
330
1CC
100
AcDbEntity
  8
UMRISS05
100
AcDbVertex
100
AcDb2dVertex
 10
-2345.068056533076
 20
2035.555580773962
 30
0.0
  0
VERTEX
  5
1D7
330
1CC
100
AcDbEntity
  8
UMRISS05
100
AcDbVertex
100
AcDb2dVertex
 10
-2344.939240164304
 20
2035.633597891116
 30
0.0
  0
VERTEX
  5
1D8
330
1CC
100
AcDbEntity
  8
UMRISS05
100
AcDbVertex
100
AcDb2dVertex
 10
-2344.81328124226
 20
2035.72075836096
 30
0.0
  0
VERTEX
  5
1D9
330
1CC
100
AcDbEntity
  8
UMRISS05
100
AcDbVertex
100
AcDb2dVertex
 10
-2344.690685214341
 20
2035.817323251845
 30
0.0
  0
VERTEX
  5
1DA
330
1CC
100
AcDbEntity
  8
UMRISS05
100
AcDbVertex
100
AcDb2dVertex
 10
-2344.572000443291
 20
2035.923587606769
 30
0.0
  0
VERTEX
  5
1DB
330
1CC
100
AcDbEntity
  8
UMRISS05
100
AcDbVertex
100
AcDb2dVertex
 10
-2344.457918343002
 20
2036.039816070359
 30
0.0
  0
VERTEX
  5
1DC
330
1CC
100
AcDbEntity
  8
UMRISS05
100
AcDbVertex
100
AcDb2dVertex
 10
-2344.349194700386
 20
2036.166267326779
 30
0.0
  0
VERTEX
  5
1DD
330
1CC
100
AcDbEntity
  8
UMRISS05
100
AcDbVertex
100
AcDb2dVertex
 10
-2344.246736698153
 20
2036.303138667407
 30
0.0
  0
VERTEX
  5
1DE
330
1CC
100
AcDbEntity
  8
UMRISS05
100
AcDbVertex
100
AcDb2dVertex
 10
-2344.151556423193
 20
2036.450567182929
 30
0.0
  0
VERTEX
  5
1DF
330
1CC
100
AcDbEntity
  8
UMRISS05
100
AcDbVertex
100
AcDb2dVertex
 10
-2344.064860273541
 20
2036.608455717772
 30
0.0
  0
VERTEX
  5
1E0
330
1CC
100
AcDbEntity
  8
UMRISS05
100
AcDbVertex
100
AcDb2dVertex
 10
-2343.987978624893
 20
2036.7764651215
 30
0.0
  0
VERTEX
  5
1E1
330
1CC
100
AcDbEntity
  8
UMRISS05
100
AcDbVertex
100
AcDb2dVertex
 10
-2343.922264502714
 20
2036.954109616248
 30
0.0
  0
VERTEX
  5
1E2
330
1CC
100
AcDbEntity
  8
UMRISS05
100
AcDbVertex
100
AcDb2dVertex
 10
-2343.869196102223
 20
2037.140468906283
 30
0.0
  0
VERTEX
  5
1E3
330
1CC
100
AcDbEntity
  8
UMRISS05
100
AcDbVertex
100
AcDb2dVertex
 10
-2343.830263539571
 20
2037.333466961787
 30
0.0
  0
VERTEX
  5
1E4
330
1CC
100
AcDbEntity
  8
UMRISS05
100
AcDbVertex
100
AcDb2dVertex
 10
-2343.806316777007
 20
2037.531247694083
 30
0.0
  0
VERTEX
  5
1E5
330
1CC
100
AcDbEntity
  8
UMRISS05
100
AcDbVertex
100
AcDb2dVertex
 10
-2343.798156900974
 20
2037.732012831003
 30
0.0
  0
SEQEND
  5
1E6
330
1CC
100
AcDbEntity
  8
UMRISS05
  0
POLYLINE
  5
1E7
330
2
100
AcDbEntity
  8
UMRISS05
100
AcDb2dPolyline
 66
     1
 10
0.0
 20
0.0
 30
0.0
 70
   128
  0
VERTEX
  5
1E8
330
1E7
100
AcDbEntity
  8
UMRISS05
100
AcDbVertex
100
AcDb2dVertex
 10
-2343.798156900974
 20
2041.732012672584
 30
0.0
  0
VERTEX
  5
1E9
330
1E7
100
AcDbEntity
  8
UMRISS05
100
AcDbVertex
100
AcDb2dVertex
 10
-2343.806223793759
 20
2041.932607340216
 30
0.0
  0
VERTEX
  5
1EA
330
1E7
100
AcDbEntity
  8
UMRISS05
100
AcDbVertex
100
AcDb2dVertex
 10
-2343.830075188889
 20
2042.130204192178
 30
0.0
  0
VERTEX
  5
1EB
330
1E7
100
AcDbEntity
  8
UMRISS05
100
AcDbVertex
100
AcDb2dVertex
 10
-2343.869136497577
 20
2042.323436344929
 30
0.0
  0
VERTEX
  5
1EC
330
1E7
100
AcDbEntity
  8
UMRISS05
100
AcDbVertex
100
AcDb2dVertex
 10
-2343.922264502714
 20
2042.509915589314
 30
0.0
  0
VERTEX
  5
1ED
330
1E7
100
AcDbEntity
  8
UMRISS05
100
AcDbVertex
100
AcDb2dVertex
 10
-2343.987978624893
 20
2042.687559935052
 30
0.0
  0
VERTEX
  5
1EE
330
1E7
100
AcDbEntity
  8
UMRISS05
100
AcDbVertex
100
AcDb2dVertex
 10
-2344.064860273541
 20
2042.855569785814
 30
0.0
  0
VERTEX
  5
1EF
330
1E7
100
AcDbEntity
  8
UMRISS05
100
AcDbVertex
100
AcDb2dVertex
 10
-2344.151556423193
 20
2043.013458320657
 30
0.0
  0
VERTEX
  5
1F0
330
1E7
100
AcDbEntity
  8
UMRISS05
100
AcDbVertex
100
AcDb2dVertex
 10
-2344.246736698153
 20
2043.160886836179
 30
0.0
  0
VERTEX
  5
1F1
330
1E7
100
AcDbEntity
  8
UMRISS05
100
AcDbVertex
100
AcDb2dVertex
 10
-2344.349194700386
 20
2043.297757878784
 30
0.0
  0
VERTEX
  5
1F2
330
1E7
100
AcDbEntity
  8
UMRISS05
100
AcDbVertex
100
AcDb2dVertex
 10
-2344.457918343002
 20
2043.424209135204
 30
0.0
  0
VERTEX
  5
1F3
330
1E7
100
AcDbEntity
  8
UMRISS05
100
AcDbVertex
100
AcDb2dVertex
 10
-2344.572000443291
 20
2043.540437747805
 30
0.0
  0
VERTEX
  5
1F4
330
1E7
100
AcDbEntity
  8
UMRISS05
100
AcDbVertex
100
AcDb2dVertex
 10
-2344.690685214341
 20
2043.6467017302
 30
0.0
  0
VERTEX
  5
1F5
330
1E7
100
AcDbEntity
  8
UMRISS05
100
AcDbVertex
100
AcDb2dVertex
 10
-2344.813280050167
 20
2043.743269415053
 30
0.0
  0
VERTEX
  5
1F6
330
1E7
100
AcDbEntity
  8
UMRISS05
100
AcDbVertex
100
AcDb2dVertex
 10
-2344.939240164304
 20
2043.830427910494
 30
0.0
  0
VERTEX
  5
1F7
330
1E7
100
AcDbEntity
  8
UMRISS05
100
AcDbVertex
100
AcDb2dVertex
 10
-2345.068055340984
 20
2043.908446741281
 30
0.0
  0
VERTEX
  5
1F8
330
1E7
100
AcDbEntity
  8
UMRISS05
100
AcDbVertex
100
AcDb2dVertex
 10
-2345.199292850475
 20
2043.977566393534
 30
0.0
  0
VERTEX
  5
1F9
330
1E7
100
AcDbEntity
  8
UMRISS05
100
AcDbVertex
100
AcDb2dVertex
 10
-2345.332562878394
 20
2044.038012228694
 30
0.0
  0
VERTEX
  5
1FA
330
1E7
100
AcDbEntity
  8
UMRISS05
100
AcDbVertex
100
AcDb2dVertex
 10
-2345.467535215001
 20
2044.089997324058
 30
0.0
  0
VERTEX
  5
1FB
330
1E7
100
AcDbEntity
  8
UMRISS05
100
AcDbVertex
100
AcDb2dVertex
 10
-2345.603949984041
 20
2044.133695361975
 30
0.0
  0
VERTEX
  5
1FC
330
1E7
100
AcDbEntity
  8
UMRISS05
100
AcDbVertex
100
AcDb2dVertex
 10
-2345.741527043677
 20
2044.16925972662
 30
0.0
  0
VERTEX
  5
1FD
330
1E7
100
AcDbEntity
  8
UMRISS05
100
AcDbVertex
100
AcDb2dVertex
 10
-2345.879954065565
 20
2044.196787925141
 30
0.0
  0
VERTEX
  5
1FE
330
1E7
100
AcDbEntity
  8
UMRISS05
100
AcDbVertex
100
AcDb2dVertex
 10
-2346.018969981355
 20
2044.216374809251
 30
0.0
  0
VERTEX
  5
1FF
330
1E7
100
AcDbEntity
  8
UMRISS05
100
AcDbVertex
100
AcDb2dVertex
 10
-2346.158429355711
 20
2044.22810615347
 30
0.0
  0
VERTEX
  5
200
330
1E7
100
AcDbEntity
  8
UMRISS05
100
AcDbVertex
100
AcDb2dVertex
 10
-2346.298156950974
 20
2044.232012722584
 30
0.0
  0
SEQEND
  5
201
330
1E7
100
AcDbEntity
  8
UMRISS05
  0
LINE
  5
202
330
2
100
AcDbEntity
  8
UMRISS05
100
AcDbLine
 10
-2350.298156792556
 20
2035.232012781004
 30
0.0
 11
-2346.298156950974
 21
2035.232012781003
 31
0.0
  0
LINE
  5
203
330
2
100
AcDbEntity
  8
UMRISS05
100
AcDbLine
 10
-2346.298156950974
 20
2044.232012722584
 30
0.0
 11
-2350.298156792556
 21
2044.232012722586
 31
0.0
  0
POLYLINE
  5
204
330
2
100
AcDbEntity
  8
UMRISS05
100
AcDb2dPolyline
 66
     1
 10
0.0
 20
0.0
 30
0.0
 70
   128
  0
VERTEX
  5
205
330
204
100
AcDbEntity
  8
UMRISS05
100
AcDbVertex
100
AcDb2dVertex
 10
-2352.798156842555
 20
2037.732012831005
 30
0.0
  0
VERTEX
  5
206
330
204
100
AcDbEntity
  8
UMRISS05
100
AcDbVertex
100
AcDb2dVertex
 10
-2352.786693080997
 20
2037.492966014166
 30
0.0
  0
VERTEX
  5
207
330
204
100
AcDbEntity
  8
UMRISS05
100
AcDbVertex
100
AcDb2dVertex
 10
-2352.753801151189
 20
2037.263167454196
 30
0.0
  0
VERTEX
  5
208
330
204
100
AcDbEntity
  8
UMRISS05
100
AcDbVertex
100
AcDb2dVertex
 10
-2352.710227174755
 20
2037.074805448056
 30
0.0
  0
VERTEX
  5
209
330
204
100
AcDbEntity
  8
UMRISS05
100
AcDbVertex
100
AcDb2dVertex
 10
-2352.659699720321
 20
2036.911553091123
 30
0.0
  0
VERTEX
  5
20A
330
204
100
AcDbEntity
  8
UMRISS05
100
AcDbVertex
100
AcDb2dVertex
 10
-2352.600916426375
 20
2036.758686843749
 30
0.0
  0
VERTEX
  5
20B
330
204
100
AcDbEntity
  8
UMRISS05
100
AcDbVertex
100
AcDb2dVertex
 10
-2352.531941930062
 20
2036.609425485364
 30
0.0
  0
VERTEX
  5
20C
330
204
100
AcDbEntity
  8
UMRISS05
100
AcDbVertex
100
AcDb2dVertex
 10
-2352.451642551014
 20
2036.462182340291
 30
0.0
  0
VERTEX
  5
20D
330
204
100
AcDbEntity
  8
UMRISS05
100
AcDbVertex
100
AcDb2dVertex
 10
-2352.359753942629
 20
2036.317868167521
 30
0.0
  0
VERTEX
  5
20E
330
204
100
AcDbEntity
  8
UMRISS05
100
AcDbVertex
100
AcDb2dVertex
 10
-2352.256802115904
 20
2036.178444555952
 30
0.0
  0
VERTEX
  5
20F
330
204
100
AcDbEntity
  8
UMRISS05
100
AcDbVertex
100
AcDb2dVertex
 10
-2352.143992276783
 20
2036.045924950527
 30
0.0
  0
VERTEX
  5
210
330
204
100
AcDbEntity
  8
UMRISS05
100
AcDbVertex
100
AcDb2dVertex
 10
-2352.022840469436
 20
2035.922194050149
 30
0.0
  0
VERTEX
  5
211
330
204
100
AcDbEntity
  8
UMRISS05
100
AcDbVertex
100
AcDb2dVertex
 10
-2351.895092811966
 20
2035.808527990289
 30
0.0
  0
VERTEX
  5
212
330
204
100
AcDbEntity
  8
UMRISS05
100
AcDbVertex
100
AcDb2dVertex
 10
-2351.762442076319
 20
2035.705726665296
 30
0.0
  0
VERTEX
  5
213
330
204
100
AcDbEntity
  8
UMRISS05
100
AcDbVertex
100
AcDb2dVertex
 10
-2351.626532158631
 20
2035.614150087231
 30
0.0
  0
VERTEX
  5
214
330
204
100
AcDbEntity
  8
UMRISS05
100
AcDbVertex
100
AcDb2dVertex
 10
-2351.488757807616
 20
2035.533724942381
 30
0.0
  0
VERTEX
  5
215
330
204
100
AcDbEntity
  8
UMRISS05
100
AcDbVertex
100
AcDb2dVertex
 10
-2351.350522116642
 20
2035.464299834943
 30
0.0
  0
VERTEX
  5
216
330
204
100
AcDbEntity
  8
UMRISS05
100
AcDbVertex
100
AcDb2dVertex
 10
-2351.21294088468
 20
2035.405391967287
 30
0.0
  0
VERTEX
  5
217
330
204
100
AcDbEntity
  8
UMRISS05
100
AcDbVertex
100
AcDb2dVertex
 10
-2351.076906393282
 20
2035.356396948302
 30
0.0
  0
VERTEX
  5
218
330
204
100
AcDbEntity
  8
UMRISS05
100
AcDbVertex
100
AcDb2dVertex
 10
-2350.943142838894
 20
2035.316643033628
 30
0.0
  0
VERTEX
  5
219
330
204
100
AcDbEntity
  8
UMRISS05
100
AcDbVertex
100
AcDb2dVertex
 10
-2350.81215686101
 20
2035.285420927977
 30
0.0
  0
VERTEX
  5
21A
330
204
100
AcDbEntity
  8
UMRISS05
100
AcDbVertex
100
AcDb2dVertex
 10
-2350.683909716606
 20
2035.261953982813
 30
0.0
  0
VERTEX
  5
21B
330
204
100
AcDbEntity
  8
UMRISS05
100
AcDbVertex
100
AcDb2dVertex
 10
-2350.555559456166
 20
2035.245302232869
 30
0.0
  0
VERTEX
  5
21C
330
204
100
AcDbEntity
  8
UMRISS05
100
AcDbVertex
100
AcDb2dVertex
 10
-2350.426873621568
 20
2035.235330375599
 30
0.0
  0
VERTEX
  5
21D
330
204
100
AcDbEntity
  8
UMRISS05
100
AcDbVertex
100
AcDb2dVertex
 10
-2350.298156792556
 20
2035.232012781004
 30
0.0
  0
SEQEND
  5
21E
330
204
100
AcDbEntity
  8
UMRISS05
  0
POLYLINE
  5
21F
330
2
100
AcDbEntity
  8
UMRISS05
100
AcDb2dPolyline
 66
     1
 10
0.0
 20
0.0
 30
0.0
 70
   128
  0
VERTEX
  5
220
330
21F
100
AcDbEntity
  8
UMRISS05
100
AcDbVertex
100
AcDb2dVertex
 10
-2350.298156792556
 20
2044.232012722586
 30
0.0
  0
VERTEX
  5
221
330
21F
100
AcDbEntity
  8
UMRISS05
100
AcDbVertex
100
AcDb2dVertex
 10
-2350.427689013125
 20
2044.228654518542
 30
0.0
  0
VERTEX
  5
222
330
21F
100
AcDbEntity
  8
UMRISS05
100
AcDbVertex
100
AcDb2dVertex
 10
-2350.557209908813
 20
2044.218554796792
 30
0.0
  0
VERTEX
  5
223
330
21F
100
AcDbEntity
  8
UMRISS05
100
AcDbVertex
100
AcDb2dVertex
 10
-2350.686379733135
 20
2044.201685364162
 30
0.0
  0
VERTEX
  5
224
330
21F
100
AcDbEntity
  8
UMRISS05
100
AcDbVertex
100
AcDb2dVertex
 10
-2350.816056196949
 20
2044.177776001185
 30
0.0
  0
VERTEX
  5
225
330
21F
100
AcDbEntity
  8
UMRISS05
100
AcDbVertex
100
AcDb2dVertex
 10
-2350.951917834874
 20
2044.145007690482
 30
0.0
  0
VERTEX
  5
226
330
21F
100
AcDbEntity
  8
UMRISS05
100
AcDbVertex
100
AcDb2dVertex
 10
-2351.093566487876
 20
2044.102101677238
 30
0.0
  0
VERTEX
  5
227
330
21F
100
AcDbEntity
  8
UMRISS05
100
AcDbVertex
100
AcDb2dVertex
 10
-2351.239584161428
 20
2044.04795597865
 30
0.0
  0
VERTEX
  5
228
330
21F
100
AcDbEntity
  8
UMRISS05
100
AcDbVertex
100
AcDb2dVertex
 10
-2351.388237552424
 20
2043.981814025498
 30
0.0
  0
VERTEX
  5
229
330
21F
100
AcDbEntity
  8
UMRISS05
100
AcDbVertex
100
AcDb2dVertex
 10
-2351.537573416617
 20
2043.903148782326
 30
0.0
  0
VERTEX
  5
22A
330
21F
100
AcDbEntity
  8
UMRISS05
100
AcDbVertex
100
AcDb2dVertex
 10
-2351.685148559568
 20
2043.811892840004
 30
0.0
  0
VERTEX
  5
22B
330
21F
100
AcDbEntity
  8
UMRISS05
100
AcDbVertex
100
AcDb2dVertex
 10
-2351.828223551748
 20
2043.709074527687
 30
0.0
  0
VERTEX
  5
22C
330
21F
100
AcDbEntity
  8
UMRISS05
100
AcDbVertex
100
AcDb2dVertex
 10
-2351.964172808504
 20
2043.595982646832
 30
0.0
  0
VERTEX
  5
22D
330
21F
100
AcDbEntity
  8
UMRISS05
100
AcDbVertex
100
AcDb2dVertex
 10
-2352.090399653431
 20
2043.474953252526
 30
0.0
  0
VERTEX
  5
22E
330
21F
100
AcDbEntity
  8
UMRISS05
100
AcDbVertex
100
AcDb2dVertex
 10
-2352.204970213794
 20
2043.348819837881
 30
0.0
  0
VERTEX
  5
22F
330
21F
100
AcDbEntity
  8
UMRISS05
100
AcDbVertex
100
AcDb2dVertex
 10
-2352.306938861883
 20
2043.22024941278
 30
0.0
  0
VERTEX
  5
230
330
21F
100
AcDbEntity
  8
UMRISS05
100
AcDbVertex
100
AcDb2dVertex
 10
-2352.396846211837
 20
2043.090506340774
 30
0.0
  0
VERTEX
  5
231
330
21F
100
AcDbEntity
  8
UMRISS05
100
AcDbVertex
100
AcDb2dVertex
 10
-2352.475653388573
 20
2042.960270263842
 30
0.0
  0
VERTEX
  5
232
330
21F
100
AcDbEntity
  8
UMRISS05
100
AcDbVertex
100
AcDb2dVertex
 10
-2352.544689277671
 20
2042.828868543551
 30
0.0
  0
VERTEX
  5
233
330
21F
100
AcDbEntity
  8
UMRISS05
100
AcDbVertex
100
AcDb2dVertex
 10
-2352.605820100599
 20
2042.693676712834
 30
0.0
  0
VERTEX
  5
234
330
21F
100
AcDbEntity
  8
UMRISS05
100
AcDbVertex
100
AcDb2dVertex
 10
-2352.660802406272
 20
2042.549310535011
 30
0.0
  0
VERTEX
  5
235
330
21F
100
AcDbEntity
  8
UMRISS05
100
AcDbVertex
100
AcDb2dVertex
 10
-2352.711270256059
 20
2042.385377940056
 30
0.0
  0
VERTEX
  5
236
330
21F
100
AcDbEntity
  8
UMRISS05
100
AcDbVertex
100
AcDb2dVertex
 10
-2352.756942912078
 20
2042.18408902731
 30
0.0
  0
VERTEX
  5
237
330
21F
100
AcDbEntity
  8
UMRISS05
100
AcDbVertex
100
AcDb2dVertex
 10
-2352.790536984615
 20
2041.926069455613
 30
0.0
  0
VERTEX
  5
238
330
21F
100
AcDbEntity
  8
UMRISS05
100
AcDbVertex
100
AcDb2dVertex
 10
-2352.798156842555
 20
2041.732012672586
 30
0.0
  0
SEQEND
  5
239
330
21F
100
AcDbEntity
  8
UMRISS05
  0
LINE
  5
23A
330
2
100
AcDbEntity
  8
UMRISS05
100
AcDbLine
 10
-2352.798156842555
 20
2041.732012374563
 30
0.0
 11
-2352.798156842555
 21
2037.732012831005
 31
0.0
  0
POLYLINE
  5
23B
330
2
100
AcDbEntity
  8
UMRISS05
100
AcDb2dPolyline
 66
     1
 10
0.0
 20
0.0
 30
0.0
 70
   128
  0
VERTEX
  5
23C
330
23B
100
AcDbEntity
  8
UMRISS05
100
AcDbVertex
100
AcDb2dVertex
 10
-2557.181296184369
 20
1880.534449260172
 30
0.0
  0
VERTEX
  5
23D
330
23B
100
AcDbEntity
  8
UMRISS05
100
AcDbVertex
100
AcDb2dVertex
 10
-2557.197772163349
 20
1880.534706501276
 30
0.0
  0
VERTEX
  5
23E
330
23B
100
AcDbEntity
  8
UMRISS05
100
AcDbVertex
100
AcDb2dVertex
 10
-2557.214323432408
 20
1880.535487008429
 30
0.0
  0
VERTEX
  5
23F
330
23B
100
AcDbEntity
  8
UMRISS05
100
AcDbVertex
100
AcDb2dVertex
 10
-2557.230927404523
 20
1880.536794546136
 30
0.0
  0
VERTEX
  5
240
330
23B
100
AcDbEntity
  8
UMRISS05
100
AcDbVertex
100
AcDb2dVertex
 10
-2557.247558982999
 20
1880.538636643406
 30
0.0
  0
VERTEX
  5
241
330
23B
100
AcDbEntity
  8
UMRISS05
100
AcDbVertex
100
AcDb2dVertex
 10
-2557.264190561477
 20
1880.541018319575
 30
0.0
  0
VERTEX
  5
242
330
23B
100
AcDbEntity
  8
UMRISS05
100
AcDbVertex
100
AcDb2dVertex
 10
-2557.28079955293
 20
1880.543940829479
 30
0.0
  0
VERTEX
  5
243
330
23B
100
AcDbEntity
  8
UMRISS05
100
AcDbVertex
100
AcDb2dVertex
 10
-2557.297355841328
 20
1880.547405427953
 30
0.0
  0
VERTEX
  5
244
330
23B
100
AcDbEntity
  8
UMRISS05
100
AcDbVertex
100
AcDb2dVertex
 10
-2557.313834329977
 20
1880.551410860163
 30
0.0
  0
VERTEX
  5
245
330
23B
100
AcDbEntity
  8
UMRISS05
100
AcDbVertex
100
AcDb2dVertex
 10
-2557.330212431854
 20
1880.555955871272
 30
0.0
  0
VERTEX
  5
246
330
23B
100
AcDbEntity
  8
UMRISS05
100
AcDbVertex
100
AcDb2dVertex
 10
-2557.346457521258
 20
1880.561035441943
 30
0.0
  0
VERTEX
  5
247
330
23B
100
AcDbEntity
  8
UMRISS05
100
AcDbVertex
100
AcDb2dVertex
 10
-2557.362547011165
 20
1880.566643298002
 30
0.0
  0
VERTEX
  5
248
330
23B
100
AcDbEntity
  8
UMRISS05
100
AcDbVertex
100
AcDb2dVertex
 10
-2557.378455804883
 20
1880.572773165277
 30
0.0
  0
VERTEX
  5
249
330
23B
100
AcDbEntity
  8
UMRISS05
100
AcDbVertex
100
AcDb2dVertex
 10
-2557.394158805717
 20
1880.57941500509
 30
0.0
  0
VERTEX
  5
24A
330
23B
100
AcDbEntity
  8
UMRISS05
100
AcDbVertex
100
AcDb2dVertex
 10
-2557.409628407306
 20
1880.586557523929
 30
0.0
  0
VERTEX
  5
24B
330
23B
100
AcDbEntity
  8
UMRISS05
100
AcDbVertex
100
AcDb2dVertex
 10
-2557.424844532296
 20
1880.594189428282
 30
0.0
  0
VERTEX
  5
24C
330
23B
100
AcDbEntity
  8
UMRISS05
100
AcDbVertex
100
AcDb2dVertex
 10
-2557.439782083993
 20
1880.602296914968
 30
0.0
  0
VERTEX
  5
24D
330
23B
100
AcDbEntity
  8
UMRISS05
100
AcDbVertex
100
AcDb2dVertex
 10
-2557.454418475373
 20
1880.610862416302
 30
0.0
  0
VERTEX
  5
24E
330
23B
100
AcDbEntity
  8
UMRISS05
100
AcDbVertex
100
AcDb2dVertex
 10
-2557.468736138752
 20
1880.619872129103
 30
0.0
  0
VERTEX
  5
24F
330
23B
100
AcDbEntity
  8
UMRISS05
100
AcDbVertex
100
AcDb2dVertex
 10
-2557.482712487105
 20
1880.629305976017
 30
0.0
  0
VERTEX
  5
250
330
23B
100
AcDbEntity
  8
UMRISS05
100
AcDbVertex
100
AcDb2dVertex
 10
-2557.496329952748
 20
1880.639147644192
 30
0.0
  0
VERTEX
  5
251
330
23B
100
AcDbEntity
  8
UMRISS05
100
AcDbVertex
100
AcDb2dVertex
 10
-2557.509573477665
 20
1880.649374546606
 30
0.0
  0
VERTEX
  5
252
330
23B
100
AcDbEntity
  8
UMRISS05
100
AcDbVertex
100
AcDb2dVertex
 10
-2557.52242549417
 20
1880.659967860737
 30
0.0
  0
VERTEX
  5
253
330
23B
100
AcDbEntity
  8
UMRISS05
100
AcDbVertex
100
AcDb2dVertex
 10
-2557.534873453918
 20
1880.670904999563
 30
0.0
  0
VERTEX
  5
254
330
23B
100
AcDbEntity
  8
UMRISS05
100
AcDbVertex
100
AcDb2dVertex
 10
-2557.54690480856
 20
1880.682164630895
 30
0.0
  0
SEQEND
  5
255
330
23B
100
AcDbEntity
  8
UMRISS05
  0
LINE
  5
256
330
2
100
AcDbEntity
  8
UMRISS05
100
AcDbLine
 10
-2545.958790054186
 20
1890.008133533177
 30
0.0
 11
-2565.119943365541
 21
1890.008133533177
 31
0.0
  0
LINE
  5
257
330
2
100
AcDbEntity
  8
UMRISS05
100
AcDbLine
 10
-2557.18129416015
 20
1880.534449133177
 30
0.0
 11
-2545.958790054186
 21
1880.534449133177
 31
0.0
  0
POLYLINE
  5
258
330
2
100
AcDbEntity
  8
UMRISS05
100
AcDb2dPolyline
 66
     1
 10
0.0
 20
0.0
 30
0.0
 70
   128
  0
VERTEX
  5
259
330
258
100
AcDbEntity
  8
UMRISS05
100
AcDbVertex
100
AcDb2dVertex
 10
-2565.119943528037
 20
1890.008133409205
 30
0.0
  0
VERTEX
  5
25A
330
258
100
AcDbEntity
  8
UMRISS05
100
AcDbVertex
100
AcDb2dVertex
 10
-2565.366247492859
 20
1889.971300875084
 30
0.0
  0
VERTEX
  5
25B
330
258
100
AcDbEntity
  8
UMRISS05
100
AcDbVertex
100
AcDb2dVertex
 10
-2565.590978340346
 20
1889.864042942082
 30
0.0
  0
VERTEX
  5
25C
330
258
100
AcDbEntity
  8
UMRISS05
100
AcDbVertex
100
AcDb2dVertex
 10
-2565.774485359847
 20
1889.695782477312
 30
0.0
  0
VERTEX
  5
25D
330
258
100
AcDbEntity
  8
UMRISS05
100
AcDbVertex
100
AcDb2dVertex
 10
-2565.900756861203
 20
1889.481249984751
 30
0.0
  0
VERTEX
  5
25E
330
258
100
AcDbEntity
  8
UMRISS05
100
AcDbVertex
100
AcDb2dVertex
 10
-2565.958790454186
 20
1889.239195831185
 30
0.0
  0
VERTEX
  5
25F
330
258
100
AcDbEntity
  8
UMRISS05
100
AcDbVertex
100
AcDb2dVertex
 10
-2565.943531664818
 20
1888.990758647454
 30
0.0
  0
VERTEX
  5
260
330
258
100
AcDbEntity
  8
UMRISS05
100
AcDbVertex
100
AcDb2dVertex
 10
-2565.8563131275
 20
1888.757627936807
 30
0.0
  0
VERTEX
  5
261
330
258
100
AcDbEntity
  8
UMRISS05
100
AcDbVertex
100
AcDb2dVertex
 10
-2565.704919836412
 20
1888.560268797584
 30
0.0
  0
SEQEND
  5
262
330
258
100
AcDbEntity
  8
UMRISS05
  0
LINE
  5
263
330
2
100
AcDbEntity
  8
UMRISS05
100
AcDbLine
 10
-2557.546903468418
 20
1880.682164630895
 30
0.0
 11
-2559.726967863954
 21
1882.787428332829
 31
0.0
  0
LINE
  5
264
330
2
100
AcDbEntity
  8
UMRISS05
100
AcDbLine
 10
-2559.726967863954
 20
1882.787428332829
 30
0.0
 11
-2564.087096655027
 21
1886.997954481862
 31
0.0
  0
LINE
  5
265
330
2
100
AcDbEntity
  8
UMRISS05
100
AcDbLine
 10
-2564.087096655027
 20
1886.997954481862
 30
0.0
 11
-2565.704919836412
 21
1888.560268797584
 31
0.0
  0
LINE
  5
266
330
2
100
AcDbEntity
  8
UMRISS05
100
AcDbLine
 10
-2559.424628002914
 20
2035.003863209029
 30
0.0
 11
-2545.958790054187
 21
2035.003863209029
 31
0.0
  0
LINE
  5
267
330
2
100
AcDbEntity
  8
UMRISS05
100
AcDbLine
 10
-2559.379890637904
 20
2044.467825378089
 30
0.0
 11
-2545.958790054187
 21
2044.467825378089
 31
0.0
  0
ELLIPSE
  5
268
330
2
100
AcDbEntity
  8
UMRISS05
100
AcDbEllipse
 10
-2560.268041254567
 20
2501.732022342784
 30
0.0
 11
0.0
 21
-3.473684279999999
 31
0.0
210
0.0
220
0.0
230
1.0
 40
0.719339800338651
 41
0.0
 42
6.283185307179187
  0
LINE
  5
269
330
2
100
AcDbEntity
  8
UMRISS05
100
AcDbLine
 10
-2559.358100471501
 20
2506.468864542784
 30
0.0
 11
-2545.958790054186
 21
2506.468864542784
 31
0.0
  0
LINE
  5
26A
330
2
100
AcDbEntity
  8
UMRISS05
100
AcDbLine
 10
-2545.958790054186
 20
2503.837285542785
 30
0.0
 11
-2557.178036609394
 21
2503.837285542785
 31
0.0
  0
LINE
  5
26B
330
2
100
AcDbEntity
  8
UMRISS05
100
AcDbLine
 10
-2557.178036609394
 20
2499.626759142785
 30
0.0
 11
-2545.958790054186
 21
2499.626759142785
 31
0.0
  0
LINE
  5
26C
330
2
100
AcDbEntity
  8
UMRISS05
100
AcDbLine
 10
-2545.958790054186
 20
2496.995180142784
 30
0.0
 11
-2559.358100471501
 21
2496.995180142784
 31
0.0
  0
POLYLINE
  5
26D
330
2
100
AcDbEntity
  8
UMRISS05
100
AcDb2dPolyline
 66
     1
 10
0.0
 20
0.0
 30
0.0
 70
   128
  0
VERTEX
  5
26E
330
26D
100
AcDbEntity
  8
UMRISS05
100
AcDbVertex
100
AcDb2dVertex
 10
-2563.718227970409
 20
2496.99518039375
 30
0.0
  0
VERTEX
  5
26F
330
26D
100
AcDbEntity
  8
UMRISS05
100
AcDbVertex
100
AcDb2dVertex
 10
-2564.149446879213
 20
2497.028501273097
 30
0.0
  0
VERTEX
  5
270
330
26D
100
AcDbEntity
  8
UMRISS05
100
AcDbVertex
100
AcDb2dVertex
 10
-2564.364234416917
 20
2497.072283081521
 30
0.0
  0
VERTEX
  5
271
330
26D
100
AcDbEntity
  8
UMRISS05
100
AcDbVertex
100
AcDb2dVertex
 10
-2564.575415559831
 20
2497.137927874085
 30
0.0
  0
VERTEX
  5
272
330
26D
100
AcDbEntity
  8
UMRISS05
100
AcDbVertex
100
AcDb2dVertex
 10
-2564.780091639911
 20
2497.227745801385
 30
0.0
  0
VERTEX
  5
273
330
26D
100
AcDbEntity
  8
UMRISS05
100
AcDbVertex
100
AcDb2dVertex
 10
-2564.976209747663
 20
2497.34364672176
 30
0.0
  0
VERTEX
  5
274
330
26D
100
AcDbEntity
  8
UMRISS05
100
AcDbVertex
100
AcDb2dVertex
 10
-2565.161054420903
 20
2497.48608363052
 30
0.0
  0
VERTEX
  5
275
330
26D
100
AcDbEntity
  8
UMRISS05
100
AcDbVertex
100
AcDb2dVertex
 10
-2565.33181483001
 20
2497.655521443903
 30
0.0
  0
VERTEX
  5
276
330
26D
100
AcDbEntity
  8
UMRISS05
100
AcDbVertex
100
AcDb2dVertex
 10
-2565.485504468511
 20
2497.850071635758
 30
0.0
  0
VERTEX
  5
277
330
26D
100
AcDbEntity
  8
UMRISS05
100
AcDbVertex
100
AcDb2dVertex
 10
-2565.618173116922
 20
2498.066098322681
 30
0.0
  0
VERTEX
  5
278
330
26D
100
AcDbEntity
  8
UMRISS05
100
AcDbVertex
100
AcDb2dVertex
 10
-2565.727424041059
 20
2498.301803954034
 30
0.0
  0
VERTEX
  5
279
330
26D
100
AcDbEntity
  8
UMRISS05
100
AcDbVertex
100
AcDb2dVertex
 10
-2565.81301129333
 20
2498.553134159055
 30
0.0
  0
VERTEX
  5
27A
330
26D
100
AcDbEntity
  8
UMRISS05
100
AcDbVertex
100
AcDb2dVertex
 10
-2565.875228505043
 20
2498.814102749038
 30
0.0
  0
VERTEX
  5
27B
330
26D
100
AcDbEntity
  8
UMRISS05
100
AcDbVertex
100
AcDb2dVertex
 10
-2565.920221856324
 20
2499.081520561714
 30
0.0
  0
VERTEX
  5
27C
330
26D
100
AcDbEntity
  8
UMRISS05
100
AcDbVertex
100
AcDb2dVertex
 10
-2565.948676486891
 20
2499.353211713798
 30
0.0
  0
VERTEX
  5
27D
330
26D
100
AcDbEntity
  8
UMRISS05
100
AcDbVertex
100
AcDb2dVertex
 10
-2565.958790454186
 20
2499.626945736694
 30
0.0
  0
SEQEND
  5
27E
330
26D
100
AcDbEntity
  8
UMRISS05
  0
LINE
  5
27F
330
2
100
AcDbEntity
  8
UMRISS05
100
AcDbLine
 10
-2557.17803729347
 20
2499.626759393752
 30
0.0
 11
-2557.17803729347
 21
2503.837285542785
 31
0.0
  0
POLYLINE
  5
280
330
2
100
AcDbEntity
  8
UMRISS05
100
AcDb2dPolyline
 66
     1
 10
0.0
 20
0.0
 30
0.0
 70
   128
  0
VERTEX
  5
281
330
280
100
AcDbEntity
  8
UMRISS05
100
AcDbVertex
100
AcDb2dVertex
 10
-2559.358101689006
 20
2496.995180393751
 30
0.0
  0
VERTEX
  5
282
330
280
100
AcDbEntity
  8
UMRISS05
100
AcDbVertex
100
AcDb2dVertex
 10
-2559.236244695955
 20
2496.999294369157
 30
0.0
  0
VERTEX
  5
283
330
280
100
AcDbEntity
  8
UMRISS05
100
AcDbVertex
100
AcDb2dVertex
 10
-2559.114641179505
 20
2497.011641314715
 30
0.0
  0
VERTEX
  5
284
330
280
100
AcDbEntity
  8
UMRISS05
100
AcDbVertex
100
AcDb2dVertex
 10
-2558.993426661796
 20
2497.032258875464
 30
0.0
  0
VERTEX
  5
285
330
280
100
AcDbEntity
  8
UMRISS05
100
AcDbVertex
100
AcDb2dVertex
 10
-2558.872714077948
 20
2497.061235517247
 30
0.0
  0
VERTEX
  5
286
330
280
100
AcDbEntity
  8
UMRISS05
100
AcDbVertex
100
AcDb2dVertex
 10
-2558.752734317537
 20
2497.09867288167
 30
0.0
  0
VERTEX
  5
287
330
280
100
AcDbEntity
  8
UMRISS05
100
AcDbVertex
100
AcDb2dVertex
 10
-2558.633775992532
 20
2497.144675747427
 30
0.0
  0
VERTEX
  5
288
330
280
100
AcDbEntity
  8
UMRISS05
100
AcDbVertex
100
AcDb2dVertex
 10
-2558.516077521518
 20
2497.199392185009
 30
0.0
  0
VERTEX
  5
289
330
280
100
AcDbEntity
  8
UMRISS05
100
AcDbVertex
100
AcDb2dVertex
 10
-2558.399864774732
 20
2497.263020458288
 30
0.0
  0
VERTEX
  5
28A
330
280
100
AcDbEntity
  8
UMRISS05
100
AcDbVertex
100
AcDb2dVertex
 10
-2558.285421344804
 20
2497.335778281077
 30
0.0
  0
VERTEX
  5
28B
330
280
100
AcDbEntity
  8
UMRISS05
100
AcDbVertex
100
AcDb2dVertex
 10
-2558.173091056432
 20
2497.417901562291
 30
0.0
  0
VERTEX
  5
28C
330
280
100
AcDbEntity
  8
UMRISS05
100
AcDbVertex
100
AcDb2dVertex
 10
-2558.063250360008
 20
2497.509649425285
 30
0.0
  0
VERTEX
  5
28D
330
280
100
AcDbEntity
  8
UMRISS05
100
AcDbVertex
100
AcDb2dVertex
 10
-2557.956343467001
 20
2497.611296678849
 30
0.0
  0
VERTEX
  5
28E
330
280
100
AcDbEntity
  8
UMRISS05
100
AcDbVertex
100
AcDb2dVertex
 10
-2557.852847214578
 20
2497.723153894559
 30
0.0
  0
VERTEX
  5
28F
330
280
100
AcDbEntity
  8
UMRISS05
100
AcDbVertex
100
AcDb2dVertex
 10
-2557.75336643304
 20
2497.845499645706
 30
0.0
  0
VERTEX
  5
290
330
280
100
AcDbEntity
  8
UMRISS05
100
AcDbVertex
100
AcDb2dVertex
 10
-2557.658556146078
 20
2497.978606231411
 30
0.0
  0
VERTEX
  5
291
330
280
100
AcDbEntity
  8
UMRISS05
100
AcDbVertex
100
AcDb2dVertex
 10
-2557.56920940919
 20
2498.122681326809
 30
0.0
  0
VERTEX
  5
292
330
280
100
AcDbEntity
  8
UMRISS05
100
AcDbVertex
100
AcDb2dVertex
 10
-2557.486209625972
 20
2498.277869237885
 30
0.0
  0
VERTEX
  5
293
330
280
100
AcDbEntity
  8
UMRISS05
100
AcDbVertex
100
AcDb2dVertex
 10
-2557.410608347862
 20
2498.444067695614
 30
0.0
  0
VERTEX
  5
294
330
280
100
AcDbEntity
  8
UMRISS05
100
AcDbVertex
100
AcDb2dVertex
 10
-2557.343567551746
 20
2498.620919699538
 30
0.0
  0
VERTEX
  5
295
330
280
100
AcDbEntity
  8
UMRISS05
100
AcDbVertex
100
AcDb2dVertex
 10
-2557.286261762862
 20
2498.807913904537
 30
0.0
  0
VERTEX
  5
296
330
280
100
AcDbEntity
  8
UMRISS05
100
AcDbVertex
100
AcDb2dVertex
 10
-2557.239985970567
 20
2499.004081578258
 30
0.0
  0
VERTEX
  5
297
330
280
100
AcDbEntity
  8
UMRISS05
100
AcDbVertex
100
AcDb2dVertex
 10
-2557.206035164224
 20
2499.207237426157
 30
0.0
  0
VERTEX
  5
298
330
280
100
AcDbEntity
  8
UMRISS05
100
AcDbVertex
100
AcDb2dVertex
 10
-2557.185152205946
 20
2499.415427670679
 30
0.0
  0
VERTEX
  5
299
330
280
100
AcDbEntity
  8
UMRISS05
100
AcDbVertex
100
AcDb2dVertex
 10
-2557.17803729347
 20
2499.626759393752
 30
0.0
  0
SEQEND
  5
29A
330
280
100
AcDbEntity
  8
UMRISS05
  0
POLYLINE
  5
29B
330
2
100
AcDbEntity
  8
UMRISS05
100
AcDb2dPolyline
 66
     1
 10
0.0
 20
0.0
 30
0.0
 70
   128
  0
VERTEX
  5
29C
330
29B
100
AcDbEntity
  8
UMRISS05
100
AcDbVertex
100
AcDb2dVertex
 10
-2557.17803729347
 20
2503.837285542785
 30
0.0
  0
VERTEX
  5
29D
330
29B
100
AcDbEntity
  8
UMRISS05
100
AcDbVertex
100
AcDb2dVertex
 10
-2557.185071896528
 20
2504.048437824503
 30
0.0
  0
VERTEX
  5
29E
330
29B
100
AcDbEntity
  8
UMRISS05
100
AcDbVertex
100
AcDb2dVertex
 10
-2557.20586952605
 20
2504.256434510779
 30
0.0
  0
VERTEX
  5
29F
330
29B
100
AcDbEntity
  8
UMRISS05
100
AcDbVertex
100
AcDb2dVertex
 10
-2557.239933267512
 20
2504.459836776832
 30
0.0
  0
VERTEX
  5
2A0
330
29B
100
AcDbEntity
  8
UMRISS05
100
AcDbVertex
100
AcDb2dVertex
 10
-2557.286261762862
 20
2504.65613071829
 30
0.0
  0
VERTEX
  5
2A1
330
29B
100
AcDbEntity
  8
UMRISS05
100
AcDbVertex
100
AcDb2dVertex
 10
-2557.343567551746
 20
2504.843124766435
 30
0.0
  0
VERTEX
  5
2A2
330
29B
100
AcDbEntity
  8
UMRISS05
100
AcDbVertex
100
AcDb2dVertex
 10
-2557.410608347862
 20
2505.019977240922
 30
0.0
  0
VERTEX
  5
2A3
330
29B
100
AcDbEntity
  8
UMRISS05
100
AcDbVertex
100
AcDb2dVertex
 10
-2557.486209625972
 20
2505.18617569865
 30
0.0
  0
VERTEX
  5
2A4
330
29B
100
AcDbEntity
  8
UMRISS05
100
AcDbVertex
100
AcDb2dVertex
 10
-2557.56920940919
 20
2505.341363609726
 30
0.0
  0
VERTEX
  5
2A5
330
29B
100
AcDbEntity
  8
UMRISS05
100
AcDbVertex
100
AcDb2dVertex
 10
-2557.658556146078
 20
2505.485438391416
 30
0.0
  0
VERTEX
  5
2A6
330
29B
100
AcDbEntity
  8
UMRISS05
100
AcDbVertex
100
AcDb2dVertex
 10
-2557.75336643304
 20
2505.618544977121
 30
0.0
  0
VERTEX
  5
2A7
330
29B
100
AcDbEntity
  8
UMRISS05
100
AcDbVertex
100
AcDb2dVertex
 10
-2557.852847214578
 20
2505.740890885123
 30
0.0
  0
VERTEX
  5
2A8
330
29B
100
AcDbEntity
  8
UMRISS05
100
AcDbVertex
100
AcDb2dVertex
 10
-2557.956343467001
 20
2505.852747708696
 30
0.0
  0
VERTEX
  5
2A9
330
29B
100
AcDbEntity
  8
UMRISS05
100
AcDbVertex
100
AcDb2dVertex
 10
-2558.063250360008
 20
2505.954397903278
 30
0.0
  0
VERTEX
  5
2AA
330
29B
100
AcDbEntity
  8
UMRISS05
100
AcDbVertex
100
AcDb2dVertex
 10
-2558.173091056432
 20
2506.046143687953
 30
0.0
  0
VERTEX
  5
2AB
330
29B
100
AcDbEntity
  8
UMRISS05
100
AcDbVertex
100
AcDb2dVertex
 10
-2558.285421344804
 20
2506.128268772991
 30
0.0
  0
VERTEX
  5
2AC
330
29B
100
AcDbEntity
  8
UMRISS05
100
AcDbVertex
100
AcDb2dVertex
 10
-2558.399862265062
 20
2506.201026301678
 30
0.0
  0
VERTEX
  5
2AD
330
29B
100
AcDbEntity
  8
UMRISS05
100
AcDbVertex
100
AcDb2dVertex
 10
-2558.516077521518
 20
2506.264653496584
 30
0.0
  0
VERTEX
  5
2AE
330
29B
100
AcDbEntity
  8
UMRISS05
100
AcDbVertex
100
AcDb2dVertex
 10
-2558.633778502201
 20
2506.319374649598
 30
0.0
  0
VERTEX
  5
2AF
330
29B
100
AcDbEntity
  8
UMRISS05
100
AcDbVertex
100
AcDb2dVertex
 10
-2558.752734317537
 20
2506.365372584248
 30
0.0
  0
VERTEX
  5
2B0
330
29B
100
AcDbEntity
  8
UMRISS05
100
AcDbVertex
100
AcDb2dVertex
 10
-2558.87270403927
 20
2506.402808757559
 30
0.0
  0
VERTEX
  5
2B1
330
29B
100
AcDbEntity
  8
UMRISS05
100
AcDbVertex
100
AcDb2dVertex
 10
-2558.993416623119
 20
2506.431785808633
 30
0.0
  0
VERTEX
  5
2B2
330
29B
100
AcDbEntity
  8
UMRISS05
100
AcDbVertex
100
AcDb2dVertex
 10
-2559.114641179505
 20
2506.452403581381
 30
0.0
  0
VERTEX
  5
2B3
330
29B
100
AcDbEntity
  8
UMRISS05
100
AcDbVertex
100
AcDb2dVertex
 10
-2559.236254734633
 20
2506.464752364769
 30
0.0
  0
VERTEX
  5
2B4
330
29B
100
AcDbEntity
  8
UMRISS05
100
AcDbVertex
100
AcDb2dVertex
 10
-2559.358101689006
 20
2506.468864542784
 30
0.0
  0
SEQEND
  5
2B5
330
29B
100
AcDbEntity
  8
UMRISS05
  0
LINE
  5
2B6
330
2
100
AcDbEntity
  8
UMRISS05
100
AcDbLine
 10
-2563.718227970409
 20
2496.99518039375
 30
0.0
 11
-2559.358101689006
 21
2496.995180393751
 31
0.0
  0
ELLIPSE
  5
2B7
330
2
100
AcDbEntity
  8
UMRISS05
100
AcDbEllipse
 10
-2560.268041254568
 20
2039.731918805828
 30
0.0
 11
0.0
 21
-3.473684279999999
 31
0.0
210
0.0
220
0.0
230
1.0
 40
0.719339800338651
 41
0.0
 42
6.283185307179187
  0
LINE
  5
2B8
330
2
100
AcDbEntity
  8
UMRISS05
100
AcDbLine
 10
-2545.958790054187
 20
2041.837182005829
 30
0.0
 11
-2557.178036609395
 21
2041.83718200583
 31
0.0
  0
LINE
  5
2B9
330
2
100
AcDbEntity
  8
UMRISS05
100
AcDbLine
 10
-2557.178036609395
 20
2037.62665560583
 30
0.0
 11
-2545.958790054187
 21
2037.62665560583
 31
0.0
  0
POLYLINE
  5
2BA
330
2
100
AcDbEntity
  8
UMRISS05
100
AcDb2dPolyline
 66
     1
 10
0.0
 20
0.0
 30
0.0
 70
   128
  0
VERTEX
  5
2BB
330
2BA
100
AcDbEntity
  8
UMRISS05
100
AcDbVertex
100
AcDb2dVertex
 10
-2563.71822797041
 20
2034.995076856794
 30
0.0
  0
VERTEX
  5
2BC
330
2BA
100
AcDbEntity
  8
UMRISS05
100
AcDbVertex
100
AcDb2dVertex
 10
-2564.149446879214
 20
2035.028397736142
 30
0.0
  0
VERTEX
  5
2BD
330
2BA
100
AcDbEntity
  8
UMRISS05
100
AcDbVertex
100
AcDb2dVertex
 10
-2564.364234416918
 20
2035.072179544565
 30
0.0
  0
VERTEX
  5
2BE
330
2BA
100
AcDbEntity
  8
UMRISS05
100
AcDbVertex
100
AcDb2dVertex
 10
-2564.575415559833
 20
2035.13782433713
 30
0.0
  0
VERTEX
  5
2BF
330
2BA
100
AcDbEntity
  8
UMRISS05
100
AcDbVertex
100
AcDb2dVertex
 10
-2564.780091639912
 20
2035.22764226443
 30
0.0
  0
VERTEX
  5
2C0
330
2BA
100
AcDbEntity
  8
UMRISS05
100
AcDbVertex
100
AcDb2dVertex
 10
-2564.976209747665
 20
2035.343543184805
 30
0.0
  0
VERTEX
  5
2C1
330
2BA
100
AcDbEntity
  8
UMRISS05
100
AcDbVertex
100
AcDb2dVertex
 10
-2565.161054420904
 20
2035.485980093565
 30
0.0
  0
VERTEX
  5
2C2
330
2BA
100
AcDbEntity
  8
UMRISS05
100
AcDbVertex
100
AcDb2dVertex
 10
-2565.331814830011
 20
2035.655417906948
 30
0.0
  0
VERTEX
  5
2C3
330
2BA
100
AcDbEntity
  8
UMRISS05
100
AcDbVertex
100
AcDb2dVertex
 10
-2565.485504468512
 20
2035.849968098803
 30
0.0
  0
VERTEX
  5
2C4
330
2BA
100
AcDbEntity
  8
UMRISS05
100
AcDbVertex
100
AcDb2dVertex
 10
-2565.618173116923
 20
2036.065994785726
 30
0.0
  0
VERTEX
  5
2C5
330
2BA
100
AcDbEntity
  8
UMRISS05
100
AcDbVertex
100
AcDb2dVertex
 10
-2565.72742404106
 20
2036.301700417078
 30
0.0
  0
VERTEX
  5
2C6
330
2BA
100
AcDbEntity
  8
UMRISS05
100
AcDbVertex
100
AcDb2dVertex
 10
-2565.813011293331
 20
2036.5530306221
 30
0.0
  0
VERTEX
  5
2C7
330
2BA
100
AcDbEntity
  8
UMRISS05
100
AcDbVertex
100
AcDb2dVertex
 10
-2565.875228505044
 20
2036.813999212083
 30
0.0
  0
VERTEX
  5
2C8
330
2BA
100
AcDbEntity
  8
UMRISS05
100
AcDbVertex
100
AcDb2dVertex
 10
-2565.920221856324
 20
2037.081417024759
 30
0.0
  0
VERTEX
  5
2C9
330
2BA
100
AcDbEntity
  8
UMRISS05
100
AcDbVertex
100
AcDb2dVertex
 10
-2565.948676486892
 20
2037.353108176843
 30
0.0
  0
VERTEX
  5
2CA
330
2BA
100
AcDbEntity
  8
UMRISS05
100
AcDbVertex
100
AcDb2dVertex
 10
-2565.958790454187
 20
2037.62684219974
 30
0.0
  0
SEQEND
  5
2CB
330
2BA
100
AcDbEntity
  8
UMRISS05
  0
POLYLINE
  5
2CC
330
2
100
AcDbEntity
  8
UMRISS05
100
AcDb2dPolyline
 66
     1
 10
0.0
 20
0.0
 30
0.0
 70
   128
  0
VERTEX
  5
2CD
330
2CC
100
AcDbEntity
  8
UMRISS05
100
AcDbVertex
100
AcDb2dVertex
 10
-2565.958790454187
 20
2041.837182005826
 30
0.0
  0
VERTEX
  5
2CE
330
2CC
100
AcDbEntity
  8
UMRISS05
100
AcDbVertex
100
AcDb2dVertex
 10
-2565.944264488256
 20
2042.107794627527
 30
0.0
  0
VERTEX
  5
2CF
330
2CC
100
AcDbEntity
  8
UMRISS05
100
AcDbVertex
100
AcDb2dVertex
 10
-2565.902787183671
 20
2042.375128836845
 30
0.0
  0
VERTEX
  5
2D0
330
2CC
100
AcDbEntity
  8
UMRISS05
100
AcDbVertex
100
AcDb2dVertex
 10
-2565.837633658872
 20
2042.633754964241
 30
0.0
  0
VERTEX
  5
2D1
330
2CC
100
AcDbEntity
  8
UMRISS05
100
AcDbVertex
100
AcDb2dVertex
 10
-2565.754325186329
 20
2042.882417547646
 30
0.0
  0
VERTEX
  5
2D2
330
2CC
100
AcDbEntity
  8
UMRISS05
100
AcDbVertex
100
AcDb2dVertex
 10
-2565.656852140235
 20
2043.120677551787
 30
0.0
  0
VERTEX
  5
2D3
330
2CC
100
AcDbEntity
  8
UMRISS05
100
AcDbVertex
100
AcDb2dVertex
 10
-2565.547505848664
 20
2043.347855640554
 30
0.0
  0
VERTEX
  5
2D4
330
2CC
100
AcDbEntity
  8
UMRISS05
100
AcDbVertex
100
AcDb2dVertex
 10
-2565.424190737748
 20
2043.563858485619
 30
0.0
  0
VERTEX
  5
2D5
330
2CC
100
AcDbEntity
  8
UMRISS05
100
AcDbVertex
100
AcDb2dVertex
 10
-2565.285175135667
 20
2043.764175583826
 30
0.0
  0
VERTEX
  5
2D6
330
2CC
100
AcDbEntity
  8
UMRISS05
100
AcDbVertex
100
AcDb2dVertex
 10
-2565.128978337531
 20
2043.943872415546
 30
0.0
  0
VERTEX
  5
2D7
330
2CC
100
AcDbEntity
  8
UMRISS05
100
AcDbVertex
100
AcDb2dVertex
 10
-2564.955090880472
 20
2044.098815124089
 30
0.0
  0
VERTEX
  5
2D8
330
2CC
100
AcDbEntity
  8
UMRISS05
100
AcDbVertex
100
AcDb2dVertex
 10
-2564.766622244758
 20
2044.225833467737
 30
0.0
  0
VERTEX
  5
2D9
330
2CC
100
AcDbEntity
  8
UMRISS05
100
AcDbVertex
100
AcDb2dVertex
 10
-2564.566230170181
 20
2044.323219636138
 30
0.0
  0
VERTEX
  5
2DA
330
2CC
100
AcDbEntity
  8
UMRISS05
100
AcDbVertex
100
AcDb2dVertex
 10
-2564.35697896296
 20
2044.392555382682
 30
0.0
  0
VERTEX
  5
2DB
330
2CC
100
AcDbEntity
  8
UMRISS05
100
AcDbVertex
100
AcDb2dVertex
 10
-2564.143195292978
 20
2044.436510346034
 30
0.0
  0
VERTEX
  5
2DC
330
2CC
100
AcDbEntity
  8
UMRISS05
100
AcDbVertex
100
AcDb2dVertex
 10
-2563.71822797041
 20
2044.468761005827
 30
0.0
  0
SEQEND
  5
2DD
330
2CC
100
AcDbEntity
  8
UMRISS05
  0
LINE
  5
2DE
330
2
100
AcDbEntity
  8
UMRISS05
100
AcDbLine
 10
-2565.958790454187
 20
2037.62684219974
 30
0.0
 11
-2565.958790454187
 21
2041.837182005826
 31
0.0
  0
LINE
  5
2DF
330
2
100
AcDbEntity
  8
UMRISS05
100
AcDbLine
 10
-2557.17803729347
 20
2037.626655856796
 30
0.0
 11
-2557.17803729347
 21
2041.83718200583
 31
0.0
  0
POLYLINE
  5
2E0
330
2
100
AcDbEntity
  8
UMRISS05
100
AcDb2dPolyline
 66
     1
 10
0.0
 20
0.0
 30
0.0
 70
   128
  0
VERTEX
  5
2E1
330
2E0
100
AcDbEntity
  8
UMRISS05
100
AcDbVertex
100
AcDb2dVertex
 10
-2559.358101689007
 20
2034.995076856795
 30
0.0
  0
VERTEX
  5
2E2
330
2E0
100
AcDbEntity
  8
UMRISS05
100
AcDbVertex
100
AcDb2dVertex
 10
-2559.236244695956
 20
2034.999190832202
 30
0.0
  0
VERTEX
  5
2E3
330
2E0
100
AcDbEntity
  8
UMRISS05
100
AcDbVertex
100
AcDb2dVertex
 10
-2559.114641179505
 20
2035.01153777776
 30
0.0
  0
VERTEX
  5
2E4
330
2E0
100
AcDbEntity
  8
UMRISS05
100
AcDbVertex
100
AcDb2dVertex
 10
-2558.993426661797
 20
2035.032155338508
 30
0.0
  0
VERTEX
  5
2E5
330
2E0
100
AcDbEntity
  8
UMRISS05
100
AcDbVertex
100
AcDb2dVertex
 10
-2558.872714077948
 20
2035.061131980291
 30
0.0
  0
VERTEX
  5
2E6
330
2E0
100
AcDbEntity
  8
UMRISS05
100
AcDbVertex
100
AcDb2dVertex
 10
-2558.752734317537
 20
2035.098569344715
 30
0.0
  0
VERTEX
  5
2E7
330
2E0
100
AcDbEntity
  8
UMRISS05
100
AcDbVertex
100
AcDb2dVertex
 10
-2558.633775992533
 20
2035.144572210473
 30
0.0
  0
VERTEX
  5
2E8
330
2E0
100
AcDbEntity
  8
UMRISS05
100
AcDbVertex
100
AcDb2dVertex
 10
-2558.516077521519
 20
2035.199288648054
 30
0.0
  0
VERTEX
  5
2E9
330
2E0
100
AcDbEntity
  8
UMRISS05
100
AcDbVertex
100
AcDb2dVertex
 10
-2558.399864774733
 20
2035.262916921332
 30
0.0
  0
VERTEX
  5
2EA
330
2E0
100
AcDbEntity
  8
UMRISS05
100
AcDbVertex
100
AcDb2dVertex
 10
-2558.285421344806
 20
2035.335674744122
 30
0.0
  0
VERTEX
  5
2EB
330
2E0
100
AcDbEntity
  8
UMRISS05
100
AcDbVertex
100
AcDb2dVertex
 10
-2558.173091056433
 20
2035.417798025335
 30
0.0
  0
VERTEX
  5
2EC
330
2E0
100
AcDbEntity
  8
UMRISS05
100
AcDbVertex
100
AcDb2dVertex
 10
-2558.063250360009
 20
2035.50954588833
 30
0.0
  0
VERTEX
  5
2ED
330
2E0
100
AcDbEntity
  8
UMRISS05
100
AcDbVertex
100
AcDb2dVertex
 10
-2557.956343467002
 20
2035.611193141894
 30
0.0
  0
VERTEX
  5
2EE
330
2E0
100
AcDbEntity
  8
UMRISS05
100
AcDbVertex
100
AcDb2dVertex
 10
-2557.852847214579
 20
2035.723050357603
 30
0.0
  0
VERTEX
  5
2EF
330
2E0
100
AcDbEntity
  8
UMRISS05
100
AcDbVertex
100
AcDb2dVertex
 10
-2557.753366433042
 20
2035.845396108751
 30
0.0
  0
VERTEX
  5
2F0
330
2E0
100
AcDbEntity
  8
UMRISS05
100
AcDbVertex
100
AcDb2dVertex
 10
-2557.658556146079
 20
2035.978502694456
 30
0.0
  0
VERTEX
  5
2F1
330
2E0
100
AcDbEntity
  8
UMRISS05
100
AcDbVertex
100
AcDb2dVertex
 10
-2557.569209409191
 20
2036.122577789854
 30
0.0
  0
VERTEX
  5
2F2
330
2E0
100
AcDbEntity
  8
UMRISS05
100
AcDbVertex
100
AcDb2dVertex
 10
-2557.486209625972
 20
2036.27776570093
 30
0.0
  0
VERTEX
  5
2F3
330
2E0
100
AcDbEntity
  8
UMRISS05
100
AcDbVertex
100
AcDb2dVertex
 10
-2557.410608347863
 20
2036.443964158659
 30
0.0
  0
VERTEX
  5
2F4
330
2E0
100
AcDbEntity
  8
UMRISS05
100
AcDbVertex
100
AcDb2dVertex
 10
-2557.343567551747
 20
2036.620816162583
 30
0.0
  0
VERTEX
  5
2F5
330
2E0
100
AcDbEntity
  8
UMRISS05
100
AcDbVertex
100
AcDb2dVertex
 10
-2557.286261762862
 20
2036.807810367581
 30
0.0
  0
VERTEX
  5
2F6
330
2E0
100
AcDbEntity
  8
UMRISS05
100
AcDbVertex
100
AcDb2dVertex
 10
-2557.239985970568
 20
2037.003978041303
 30
0.0
  0
VERTEX
  5
2F7
330
2E0
100
AcDbEntity
  8
UMRISS05
100
AcDbVertex
100
AcDb2dVertex
 10
-2557.206035164225
 20
2037.207133889201
 30
0.0
  0
VERTEX
  5
2F8
330
2E0
100
AcDbEntity
  8
UMRISS05
100
AcDbVertex
100
AcDb2dVertex
 10
-2557.185152205947
 20
2037.415324133723
 30
0.0
  0
VERTEX
  5
2F9
330
2E0
100
AcDbEntity
  8
UMRISS05
100
AcDbVertex
100
AcDb2dVertex
 10
-2557.17803729347
 20
2037.626655856796
 30
0.0
  0
SEQEND
  5
2FA
330
2E0
100
AcDbEntity
  8
UMRISS05
  0
POLYLINE
  5
2FB
330
2
100
AcDbEntity
  8
UMRISS05
100
AcDb2dPolyline
 66
     1
 10
0.0
 20
0.0
 30
0.0
 70
   128
  0
VERTEX
  5
2FC
330
2FB
100
AcDbEntity
  8
UMRISS05
100
AcDbVertex
100
AcDb2dVertex
 10
-2557.17803729347
 20
2041.83718200583
 30
0.0
  0
VERTEX
  5
2FD
330
2FB
100
AcDbEntity
  8
UMRISS05
100
AcDbVertex
100
AcDb2dVertex
 10
-2557.18507189653
 20
2042.048334287547
 30
0.0
  0
VERTEX
  5
2FE
330
2FB
100
AcDbEntity
  8
UMRISS05
100
AcDbVertex
100
AcDb2dVertex
 10
-2557.205869526051
 20
2042.256330973824
 30
0.0
  0
VERTEX
  5
2FF
330
2FB
100
AcDbEntity
  8
UMRISS05
100
AcDbVertex
100
AcDb2dVertex
 10
-2557.239933267512
 20
2042.459733239877
 30
0.0
  0
VERTEX
  5
300
330
2FB
100
AcDbEntity
  8
UMRISS05
100
AcDbVertex
100
AcDb2dVertex
 10
-2557.286261762862
 20
2042.656027181335
 30
0.0
  0
VERTEX
  5
301
330
2FB
100
AcDbEntity
  8
UMRISS05
100
AcDbVertex
100
AcDb2dVertex
 10
-2557.343567551747
 20
2042.843021229479
 30
0.0
  0
VERTEX
  5
302
330
2FB
100
AcDbEntity
  8
UMRISS05
100
AcDbVertex
100
AcDb2dVertex
 10
-2557.410608347863
 20
2043.019873703966
 30
0.0
  0
VERTEX
  5
303
330
2FB
100
AcDbEntity
  8
UMRISS05
100
AcDbVertex
100
AcDb2dVertex
 10
-2557.486209625972
 20
2043.186072161696
 30
0.0
  0
VERTEX
  5
304
330
2FB
100
AcDbEntity
  8
UMRISS05
100
AcDbVertex
100
AcDb2dVertex
 10
-2557.569209409191
 20
2043.341260072771
 30
0.0
  0
VERTEX
  5
305
330
2FB
100
AcDbEntity
  8
UMRISS05
100
AcDbVertex
100
AcDb2dVertex
 10
-2557.658556146079
 20
2043.485334854461
 30
0.0
  0
VERTEX
  5
306
330
2FB
100
AcDbEntity
  8
UMRISS05
100
AcDbVertex
100
AcDb2dVertex
 10
-2557.753366433042
 20
2043.618441440165
 30
0.0
  0
VERTEX
  5
307
330
2FB
100
AcDbEntity
  8
UMRISS05
100
AcDbVertex
100
AcDb2dVertex
 10
-2557.852847214579
 20
2043.740787348167
 30
0.0
  0
VERTEX
  5
308
330
2FB
100
AcDbEntity
  8
UMRISS05
100
AcDbVertex
100
AcDb2dVertex
 10
-2557.956343467002
 20
2043.852644171741
 30
0.0
  0
VERTEX
  5
309
330
2FB
100
AcDbEntity
  8
UMRISS05
100
AcDbVertex
100
AcDb2dVertex
 10
-2558.063250360009
 20
2043.954294366323
 30
0.0
  0
VERTEX
  5
30A
330
2FB
100
AcDbEntity
  8
UMRISS05
100
AcDbVertex
100
AcDb2dVertex
 10
-2558.173091056433
 20
2044.046040150997
 30
0.0
  0
VERTEX
  5
30B
330
2FB
100
AcDbEntity
  8
UMRISS05
100
AcDbVertex
100
AcDb2dVertex
 10
-2558.285421344806
 20
2044.128165236037
 30
0.0
  0
VERTEX
  5
30C
330
2FB
100
AcDbEntity
  8
UMRISS05
100
AcDbVertex
100
AcDb2dVertex
 10
-2558.399862265063
 20
2044.200922764723
 30
0.0
  0
VERTEX
  5
30D
330
2FB
100
AcDbEntity
  8
UMRISS05
100
AcDbVertex
100
AcDb2dVertex
 10
-2558.516077521519
 20
2044.264549959629
 30
0.0
  0
VERTEX
  5
30E
330
2FB
100
AcDbEntity
  8
UMRISS05
100
AcDbVertex
100
AcDb2dVertex
 10
-2558.633778502202
 20
2044.319271112643
 30
0.0
  0
VERTEX
  5
30F
330
2FB
100
AcDbEntity
  8
UMRISS05
100
AcDbVertex
100
AcDb2dVertex
 10
-2558.752734317537
 20
2044.365269047293
 30
0.0
  0
VERTEX
  5
310
330
2FB
100
AcDbEntity
  8
UMRISS05
100
AcDbVertex
100
AcDb2dVertex
 10
-2558.872704039272
 20
2044.402705220603
 30
0.0
  0
VERTEX
  5
311
330
2FB
100
AcDbEntity
  8
UMRISS05
100
AcDbVertex
100
AcDb2dVertex
 10
-2558.993416623119
 20
2044.431682271678
 30
0.0
  0
VERTEX
  5
312
330
2FB
100
AcDbEntity
  8
UMRISS05
100
AcDbVertex
100
AcDb2dVertex
 10
-2559.114641179505
 20
2044.452300044425
 30
0.0
  0
VERTEX
  5
313
330
2FB
100
AcDbEntity
  8
UMRISS05
100
AcDbVertex
100
AcDb2dVertex
 10
-2559.236254734634
 20
2044.464648827814
 30
0.0
  0
VERTEX
  5
314
330
2FB
100
AcDbEntity
  8
UMRISS05
100
AcDbVertex
100
AcDb2dVertex
 10
-2559.358101689007
 20
2044.468761005829
 30
0.0
  0
SEQEND
  5
315
330
2FB
100
AcDbEntity
  8
UMRISS05
  0
LINE
  5
316
330
2
100
AcDbEntity
  8
UMRISS05
100
AcDbLine
 10
-2563.71822797041
 20
2034.995076856794
 30
0.0
 11
-2559.358101689007
 21
2034.995076856795
 31
0.0
  0
LINE
  5
317
330
2
100
AcDbEntity
  8
UMRISS05
100
AcDbLine
 10
-2559.358101689007
 20
2044.468761005829
 30
0.0
 11
-2563.71822797041
 21
2044.468761005827
 31
0.0
  0
LINE
  5
318
330
2
100
AcDbEntity
  8
ACHSEN
100
AcDbLine
 10
-2340.499985500245
 20
2322.232009397676
 30
0.0
 11
-2358.499985860245
 21
2322.232009397676
 31
0.0
  0
LINE
  5
319
330
2
100
AcDbEntity
  8
ACHSEN
100
AcDbLine
 10
-2539.958772502413
 20
2322.232009397676
 30
0.0
 11
-2557.958772862413
 21
2322.232009397676
 31
0.0
  0
LINE
  5
31A
330
2
100
AcDbEntity
  8
ACHSEN
100
AcDbLine
 10
-2543.958790014186
 20
2244.232007837675
 30
0.0
 11
-2567.958790494186
 21
2244.232007837675
 31
0.0
  0
CIRCLE
  5
31B
330
2
100
AcDbEntity
  8
UMRISS05
100
AcDbCircle
 10
-2485.958788854186
 20
2346.232019232784
 30
0.0
 40
4.500000089999999
  0
LINE
  5
31C
330
2
100
AcDbEntity
  8
UMRISS05
100
AcDbLine
 10
-2488.258788900186
 20
2351.732019342785
 30
0.0
 11
-2483.658788808186
 21
2351.732019342785
 31
0.0
  0
LINE
  5
31D
330
2
100
AcDbEntity
  8
ACHSEN
100
AcDbLine
 10
-2360.833301760441
 20
2300.232018312785
 30
0.0
 11
-2333.545640833118
 21
2300.232018312785
 31
0.0
  0
LINE
  5
31E
330
2
100
AcDbEntity
  8
UMRISS05
100
AcDbLine
 10
-2545.958790054186
 20
1979.037929867405
 30
0.0
 11
-2545.958790054186
 21
1963.679380002783
 31
0.0
  0
LINE
  5
31F
330
2
100
AcDbEntity
  8
UMRISS05
100
AcDbLine
 10
-2545.958790054187
 20
2018.876192444612
 30
0.0
 11
-2545.958790054186
 21
1981.282843208109
 31
0.0
  0
LINE
  5
320
330
2
100
AcDbEntity
  8
UMRISS05
100
AcDbLine
 10
-2542.958789994187
 20
1979.649231183438
 30
0.0
 11
-2542.958789994187
 21
1963.679380002783
 31
0.0
  0
LINE
  5
321
330
2
100
AcDbEntity
  8
UMRISS05
100
AcDbLine
 10
-2542.958789994187
 20
2019.487493760645
 30
0.0
 11
-2542.958789994187
 21
1981.894144524143
 31
0.0
  0
LINE
  5
322
330
2
100
AcDbEntity
  8
UMRISS03
100
AcDbLine
 10
-2538.458789904187
 20
2097.721266405689
 30
0.0
 11
-2538.458789904187
 21
2068.882013685783
 31
0.0
  0
LINE
  5
323
330
2
100
AcDbEntity
  8
UMRISS03
100
AcDbLine
 10
-2540.958789954187
 20
2097.211848642329
 30
0.0
 11
-2540.958789954187
 21
2068.882013685783
 31
0.0
  0
LINE
  5
324
330
2
100
AcDbEntity
  8
UMRISS05
100
AcDbLine
 10
-2542.958789994186
 20
2097.823149958361
 30
0.0
 11
-2542.958789994187
 21
2021.73240710135
 31
0.0
  0
LINE
  5
325
330
2
100
AcDbEntity
  8
UMRISS05
100
AcDbLine
 10
-2545.958790054187
 20
2097.211848642329
 30
0.0
 11
-2545.958790054187
 21
2021.121105785317
 31
0.0
  0
LINE
  5
326
330
2
100
AcDbEntity
  8
UMRISS05
100
AcDbLine
 10
-2545.958790054187
 20
2114.904508647189
 30
0.0
 11
-2545.958790054187
 21
2099.456761983033
 31
0.0
  0
LINE
  5
327
330
2
100
AcDbEntity
  8
UMRISS05
100
AcDbLine
 10
-2542.958789994186
 20
2115.515809963222
 30
0.0
 11
-2542.958789994186
 21
2100.068063299066
 31
0.0
  0
LINE
  5
328
330
2
100
AcDbEntity
  8
UMRISS03
100
AcDbLine
 10
-2540.958789954187
 20
2114.904508647189
 30
0.0
 11
-2540.958789954187
 21
2099.456761983033
 31
0.0
  0
LINE
  5
329
330
2
100
AcDbEntity
  8
UMRISS03
100
AcDbLine
 10
-2538.458789904187
 20
2115.41392641055
 30
0.0
 11
-2538.458789904187
 21
2099.966179746393
 31
0.0
  0
LINE
  5
32A
330
2
100
AcDbEntity
  8
UMRISS03
100
AcDbLine
 10
-2538.458789904186
 20
2133.859263458111
 30
0.0
 11
-2538.458789904187
 21
2117.658839751255
 31
0.0
  0
LINE
  5
32B
330
2
100
AcDbEntity
  8
UMRISS03
100
AcDbLine
 10
-2540.958789954186
 20
2133.34984569475
 30
0.0
 11
-2540.958789954187
 21
2117.149421987894
 31
0.0
  0
LINE
  5
32C
330
2
100
AcDbEntity
  8
UMRISS05
100
AcDbLine
 10
-2542.958789994186
 20
2133.961147010783
 30
0.0
 11
-2542.958789994186
 21
2117.760723303927
 31
0.0
  0
LINE
  5
32D
330
2
100
AcDbEntity
  8
UMRISS05
100
AcDbLine
 10
-2545.958790054186
 20
2133.34984569475
 30
0.0
 11
-2545.958790054187
 21
2117.149421987894
 31
0.0
  0
LINE
  5
32E
330
2
100
AcDbEntity
  8
UMRISS05
100
AcDbLine
 10
-2545.958790054186
 20
2151.621875829648
 30
0.0
 11
-2545.958790054186
 21
2135.594759035454
 31
0.0
  0
LINE
  5
32F
330
2
100
AcDbEntity
  8
UMRISS05
100
AcDbLine
 10
-2542.958789994186
 20
2152.233177145681
 30
0.0
 11
-2542.958789994186
 21
2136.206060351487
 31
0.0
  0
LINE
  5
330
330
2
100
AcDbEntity
  8
UMRISS03
100
AcDbLine
 10
-2540.958789954186
 20
2151.621875829648
 30
0.0
 11
-2540.958789954186
 21
2135.594759035454
 31
0.0
  0
LINE
  5
331
330
2
100
AcDbEntity
  8
UMRISS03
100
AcDbLine
 10
-2538.458789904186
 20
2152.131293593008
 30
0.0
 11
-2538.458789904186
 21
2136.104176798815
 31
0.0
  0
LINE
  5
332
330
2
100
AcDbEntity
  8
UMRISS03
100
AcDbLine
 10
-2538.458789904186
 20
2169.555060595227
 30
0.0
 11
-2538.458789904186
 21
2154.376206933713
 31
0.0
  0
LINE
  5
333
330
2
100
AcDbEntity
  8
UMRISS03
100
AcDbLine
 10
-2540.958789954186
 20
2169.045642831866
 30
0.0
 11
-2540.958789954186
 21
2153.866789170352
 31
0.0
  0
LINE
  5
334
330
2
100
AcDbEntity
  8
UMRISS05
100
AcDbLine
 10
-2545.958790054186
 20
2169.045642831866
 30
0.0
 11
-2545.958790054186
 21
2153.866789170352
 31
0.0
  0
LINE
  5
335
330
2
100
AcDbEntity
  8
UMRISS05
100
AcDbLine
 10
-2545.958790054186
 20
2373.385571561388
 30
0.0
 11
-2545.958790054186
 21
2171.290556172571
 31
0.0
  0
LINE
  5
336
330
2
100
AcDbEntity
  8
UMRISS05
100
AcDbLine
 10
-2542.958789994186
 20
2373.996872877421
 30
0.0
 11
-2542.958789994186
 21
2154.478090486386
 31
0.0
  0
LINE
  5
337
330
2
100
AcDbEntity
  8
UMRISS03
100
AcDbLine
 10
-2540.958789954186
 20
2375.630484902092
 30
0.0
 11
-2540.958789954186
 21
2391.378353394859
 31
0.0
  0
LINE
  5
338
330
2
100
AcDbEntity
  8
UMRISS03
100
AcDbLine
 10
-2538.458789904186
 20
2376.139902665453
 30
0.0
 11
-2538.458789904186
 21
2391.887771158219
 31
0.0
  0
LINE
  5
339
330
2
100
AcDbEntity
  8
UMRISS03
100
AcDbLine
 10
-2538.458789904186
 20
2394.132684498924
 30
0.0
 11
-2538.458789904186
 21
2410.628836637115
 31
0.0
  0
LINE
  5
33A
330
2
100
AcDbEntity
  8
UMRISS03
100
AcDbLine
 10
-2540.958789954186
 20
2393.623266735563
 30
0.0
 11
-2540.958789954186
 21
2410.119418873755
 31
0.0
  0
LINE
  5
33B
330
2
100
AcDbEntity
  8
UMRISS05
100
AcDbLine
 10
-2542.958789994186
 20
2391.989654710892
 30
0.0
 11
-2542.958789994186
 21
2376.241786218125
 31
0.0
  0
LINE
  5
33C
330
2
100
AcDbEntity
  8
UMRISS05
100
AcDbLine
 10
-2545.958790054186
 20
2391.378353394859
 30
0.0
 11
-2545.958790054186
 21
2375.630484902092
 31
0.0
  0
LINE
  5
33D
330
2
100
AcDbEntity
  8
UMRISS05
100
AcDbLine
 10
-2545.958790054186
 20
2410.119418873755
 30
0.0
 11
-2545.958790054186
 21
2393.623266735563
 31
0.0
  0
LINE
  5
33E
330
2
100
AcDbEntity
  8
UMRISS05
100
AcDbLine
 10
-2542.958789994186
 20
2410.730720189788
 30
0.0
 11
-2542.958789994186
 21
2394.234568051596
 31
0.0
  0
LINE
  5
33F
330
2
100
AcDbEntity
  8
UMRISS03
100
AcDbLine
 10
-2540.958789954186
 20
2412.364332214459
 30
0.0
 11
-2540.958789954186
 21
2427.651607002036
 31
0.0
  0
LINE
  5
340
330
2
100
AcDbEntity
  8
UMRISS03
100
AcDbLine
 10
-2538.458789904186
 20
2412.87374997782
 30
0.0
 11
-2538.458789904186
 21
2428.161024765397
 31
0.0
  0
LINE
  5
341
330
2
100
AcDbEntity
  8
UMRISS03
100
AcDbLine
 10
-2538.458789904186
 20
2430.405938106102
 30
0.0
 11
-2538.458789904186
 21
2445.309959218948
 31
0.0
  0
LINE
  5
342
330
2
100
AcDbEntity
  8
UMRISS03
100
AcDbLine
 10
-2540.958789954186
 20
2429.896520342741
 30
0.0
 11
-2540.958789954186
 21
2444.800541455586
 31
0.0
  0
LINE
  5
343
330
2
100
AcDbEntity
  8
UMRISS05
100
AcDbLine
 10
-2542.958789994186
 20
2428.262908318069
 30
0.0
 11
-2542.958789994186
 21
2412.975633530493
 31
0.0
  0
LINE
  5
344
330
2
100
AcDbEntity
  8
UMRISS05
100
AcDbLine
 10
-2545.958790054186
 20
2427.651607002036
 30
0.0
 11
-2545.958790054186
 21
2412.364332214459
 31
0.0
  0
LINE
  5
345
330
2
100
AcDbEntity
  8
UMRISS05
100
AcDbLine
 10
-2545.958790054186
 20
2444.800541455586
 30
0.0
 11
-2545.958790054186
 21
2429.896520342741
 31
0.0
  0
LINE
  5
346
330
2
100
AcDbEntity
  8
UMRISS05
100
AcDbLine
 10
-2542.958789994186
 20
2445.41184277162
 30
0.0
 11
-2542.958789994186
 21
2430.507821658773
 31
0.0
  0
LINE
  5
347
330
2
100
AcDbEntity
  8
UMRISS03
100
AcDbLine
 10
-2540.958789954186
 20
2447.045454796291
 30
0.0
 11
-2540.958789954186
 21
2493.782022183784
 31
0.0
  0
LINE
  5
348
330
2
100
AcDbEntity
  8
UMRISS03
100
AcDbLine
 10
-2538.458789904186
 20
2447.554872559652
 30
0.0
 11
-2538.458789904186
 21
2493.782022183784
 31
0.0
  0
LINE
  5
349
330
2
100
AcDbEntity
  8
UMRISS05
100
AcDbLine
 10
-2542.958789994186
 20
2541.822520046868
 30
0.0
 11
-2542.958789994186
 21
2447.656756112324
 31
0.0
  0
LINE
  5
34A
330
2
100
AcDbEntity
  8
UMRISS05
100
AcDbLine
 10
-2545.958790054186
 20
2541.211218730835
 30
0.0
 11
-2545.958790054186
 21
2447.045454796291
 31
0.0
  0
LINE
  5
34B
330
2
100
AcDbEntity
  8
UMRISS02
100
AcDbLine
 10
-2540.958789954186
 20
2444.800541455586
 30
0.0
 11
-2538.458789904186
 21
2445.309959218948
 31
0.0
  0
LINE
  5
34C
330
2
100
AcDbEntity
  8
UMRISS02
100
AcDbLine
 10
-2540.958789954186
 20
2429.896520342741
 30
0.0
 11
-2538.458789904186
 21
2430.405938106102
 31
0.0
  0
LINE
  5
34D
330
2
100
AcDbEntity
  8
UMRISS02
100
AcDbLine
 10
-2540.958789954186
 20
2427.651607002036
 30
0.0
 11
-2538.458789904186
 21
2428.161024765397
 31
0.0
  0
LINE
  5
34E
330
2
100
AcDbEntity
  8
UMRISS02
100
AcDbLine
 10
-2540.958789954186
 20
2412.364332214459
 30
0.0
 11
-2538.458789904186
 21
2412.87374997782
 31
0.0
  0
LINE
  5
34F
330
2
100
AcDbEntity
  8
UMRISS02
100
AcDbLine
 10
-2540.958789954186
 20
2410.119418873755
 30
0.0
 11
-2538.458789904186
 21
2410.628836637115
 31
0.0
  0
LINE
  5
350
330
2
100
AcDbEntity
  8
UMRISS02
100
AcDbLine
 10
-2540.958789954186
 20
2393.623266735563
 30
0.0
 11
-2538.458789904186
 21
2394.132684498924
 31
0.0
  0
LINE
  5
351
330
2
100
AcDbEntity
  8
UMRISS02
100
AcDbLine
 10
-2540.958789954186
 20
2391.378353394859
 30
0.0
 11
-2538.458789904186
 21
2391.887771158219
 31
0.0
  0
LINE
  5
352
330
2
100
AcDbEntity
  8
UMRISS02
100
AcDbLine
 10
-2540.958789954186
 20
2447.045454796291
 30
0.0
 11
-2538.458789904186
 21
2447.554872559652
 31
0.0
  0
LINE
  5
353
330
2
100
AcDbEntity
  8
UMRISS02
100
AcDbLine
 10
-2540.958789954186
 20
2375.630484902092
 30
0.0
 11
-2538.458789904186
 21
2376.139902665453
 31
0.0
  0
LINE
  5
354
330
2
100
AcDbEntity
  8
UMRISS02
100
AcDbLine
 10
-2540.958789954186
 20
2373.385571561388
 30
0.0
 11
-2538.458789904186
 21
2373.894989324748
 31
0.0
  0
LINE
  5
355
330
2
100
AcDbEntity
  8
UMRISS02
100
AcDbLine
 10
-2540.958789954186
 20
2171.290556172571
 30
0.0
 11
-2538.458789904186
 21
2171.799973935932
 31
0.0
  0
LINE
  5
356
330
2
100
AcDbEntity
  8
UMRISS02
100
AcDbLine
 10
-2540.958789954186
 20
2169.045642831866
 30
0.0
 11
-2538.458789904186
 21
2169.555060595227
 31
0.0
  0
LINE
  5
357
330
2
100
AcDbEntity
  8
UMRISS02
100
AcDbLine
 10
-2540.958789954186
 20
2153.866789170352
 30
0.0
 11
-2538.458789904186
 21
2154.376206933713
 31
0.0
  0
LINE
  5
358
330
2
100
AcDbEntity
  8
UMRISS02
100
AcDbLine
 10
-2540.958789954186
 20
2151.621875829648
 30
0.0
 11
-2538.458789904186
 21
2152.131293593008
 31
0.0
  0
LINE
  5
359
330
2
100
AcDbEntity
  8
UMRISS02
100
AcDbLine
 10
-2540.958789954186
 20
2135.594759035454
 30
0.0
 11
-2538.458789904186
 21
2136.104176798815
 31
0.0
  0
LINE
  5
35A
330
2
100
AcDbEntity
  8
UMRISS02
100
AcDbLine
 10
-2540.958789954186
 20
2133.34984569475
 30
0.0
 11
-2538.458789904186
 21
2133.859263458111
 31
0.0
  0
LINE
  5
35B
330
2
100
AcDbEntity
  8
UMRISS02
100
AcDbLine
 10
-2540.958789954186
 20
2117.149421987894
 30
0.0
 11
-2538.458789904186
 21
2117.658839751255
 31
0.0
  0
LINE
  5
35C
330
2
100
AcDbEntity
  8
UMRISS02
100
AcDbLine
 10
-2540.958789954186
 20
2114.904508647189
 30
0.0
 11
-2538.458789904186
 21
2115.41392641055
 31
0.0
  0
LINE
  5
35D
330
2
100
AcDbEntity
  8
UMRISS02
100
AcDbLine
 10
-2540.958789954187
 20
2099.456761983033
 30
0.0
 11
-2538.458789904187
 21
2099.966179746393
 31
0.0
  0
LINE
  5
35E
330
2
100
AcDbEntity
  8
UMRISS02
100
AcDbLine
 10
-2540.958789954187
 20
2097.211848642329
 30
0.0
 11
-2538.458789904187
 21
2097.721266405689
 31
0.0
  0
LINE
  5
35F
330
2
100
AcDbEntity
  8
UMRISS02
100
AcDbLine
 10
-2545.958790054186
 20
2541.211218730835
 30
0.0
 11
-2542.958789994186
 21
2541.822520046868
 31
0.0
  0
LINE
  5
360
330
2
100
AcDbEntity
  8
UMRISS02
100
AcDbLine
 10
-2545.958790054186
 20
2543.456132071539
 30
0.0
 11
-2542.958789994186
 21
2544.067433387572
 31
0.0
  0
LINE
  5
361
330
2
100
AcDbEntity
  8
UMRISS02
100
AcDbLine
 10
-2545.958790054186
 20
2444.800541455586
 30
0.0
 11
-2542.958789994186
 21
2445.41184277162
 31
0.0
  0
LINE
  5
362
330
2
100
AcDbEntity
  8
UMRISS02
100
AcDbLine
 10
-2545.958790054186
 20
2447.045454796291
 30
0.0
 11
-2542.958789994186
 21
2447.656756112324
 31
0.0
  0
LINE
  5
363
330
2
100
AcDbEntity
  8
UMRISS02
100
AcDbLine
 10
-2545.958790054186
 20
2427.651607002036
 30
0.0
 11
-2542.958789994186
 21
2428.262908318069
 31
0.0
  0
LINE
  5
364
330
2
100
AcDbEntity
  8
UMRISS02
100
AcDbLine
 10
-2545.958790054186
 20
2429.896520342741
 30
0.0
 11
-2542.958789994186
 21
2430.507821658773
 31
0.0
  0
LINE
  5
365
330
2
100
AcDbEntity
  8
UMRISS02
100
AcDbLine
 10
-2545.958790054186
 20
2410.119418873755
 30
0.0
 11
-2542.958789994186
 21
2410.730720189787
 31
0.0
  0
LINE
  5
366
330
2
100
AcDbEntity
  8
UMRISS02
100
AcDbLine
 10
-2545.958790054186
 20
2412.364332214459
 30
0.0
 11
-2542.958789994186
 21
2412.975633530493
 31
0.0
  0
LINE
  5
367
330
2
100
AcDbEntity
  8
UMRISS02
100
AcDbLine
 10
-2545.958790054186
 20
2391.378353394859
 30
0.0
 11
-2542.958789994186
 21
2391.989654710892
 31
0.0
  0
LINE
  5
368
330
2
100
AcDbEntity
  8
UMRISS02
100
AcDbLine
 10
-2545.958790054186
 20
2393.623266735563
 30
0.0
 11
-2542.958789994186
 21
2394.234568051595
 31
0.0
  0
LINE
  5
369
330
2
100
AcDbEntity
  8
UMRISS02
100
AcDbLine
 10
-2545.958790054186
 20
2373.385571561388
 30
0.0
 11
-2542.958789994186
 21
2373.996872877421
 31
0.0
  0
LINE
  5
36A
330
2
100
AcDbEntity
  8
UMRISS02
100
AcDbLine
 10
-2545.958790054186
 20
2375.630484902092
 30
0.0
 11
-2542.958789994186
 21
2376.241786218125
 31
0.0
  0
LINE
  5
36B
330
2
100
AcDbEntity
  8
UMRISS02
100
AcDbLine
 10
-2545.958790054186
 20
2169.045642831866
 30
0.0
 11
-2542.958789994186
 21
2169.656944147899
 31
0.0
  0
LINE
  5
36C
330
2
100
AcDbEntity
  8
UMRISS02
100
AcDbLine
 10
-2545.958790054186
 20
2171.290556172571
 30
0.0
 11
-2542.958789994186
 21
2171.901857488604
 31
0.0
  0
LINE
  5
36D
330
2
100
AcDbEntity
  8
UMRISS02
100
AcDbLine
 10
-2545.958790054186
 20
2151.621875829648
 30
0.0
 11
-2542.958789994186
 21
2152.23317714568
 31
0.0
  0
LINE
  5
36E
330
2
100
AcDbEntity
  8
UMRISS02
100
AcDbLine
 10
-2545.958790054186
 20
2153.866789170352
 30
0.0
 11
-2542.958789994186
 21
2154.478090486385
 31
0.0
  0
LINE
  5
36F
330
2
100
AcDbEntity
  8
UMRISS02
100
AcDbLine
 10
-2545.958790054186
 20
2133.34984569475
 30
0.0
 11
-2542.958789994186
 21
2133.961147010783
 31
0.0
  0
LINE
  5
370
330
2
100
AcDbEntity
  8
UMRISS02
100
AcDbLine
 10
-2545.958790054186
 20
2135.594759035454
 30
0.0
 11
-2542.958789994186
 21
2136.206060351487
 31
0.0
  0
LINE
  5
371
330
2
100
AcDbEntity
  8
UMRISS02
100
AcDbLine
 10
-2545.958790054186
 20
2114.904508647189
 30
0.0
 11
-2542.958789994186
 21
2115.515809963222
 31
0.0
  0
LINE
  5
372
330
2
100
AcDbEntity
  8
UMRISS02
100
AcDbLine
 10
-2545.958790054186
 20
2117.149421987894
 30
0.0
 11
-2542.958789994186
 21
2117.760723303927
 31
0.0
  0
LINE
  5
373
330
2
100
AcDbEntity
  8
UMRISS02
100
AcDbLine
 10
-2545.958790054187
 20
2097.211848642329
 30
0.0
 11
-2542.958789994187
 21
2097.823149958361
 31
0.0
  0
LINE
  5
374
330
2
100
AcDbEntity
  8
UMRISS02
100
AcDbLine
 10
-2545.958790054187
 20
2099.456761983033
 30
0.0
 11
-2542.958789994187
 21
2100.068063299066
 31
0.0
  0
LINE
  5
375
330
2
100
AcDbEntity
  8
UMRISS02
100
AcDbLine
 10
-2545.958790054187
 20
2018.876192444612
 30
0.0
 11
-2542.958789994187
 21
2019.487493760645
 31
0.0
  0
LINE
  5
376
330
2
100
AcDbEntity
  8
UMRISS02
100
AcDbLine
 10
-2545.958790054187
 20
2021.121105785317
 30
0.0
 11
-2542.958789994187
 21
2021.73240710135
 31
0.0
  0
LINE
  5
377
330
2
100
AcDbEntity
  8
UMRISS05
100
AcDbLine
 10
-2356.324472702555
 20
1979.037929867405
 30
0.0
 11
-2356.324472702555
 21
1972.679380182783
 31
0.0
  0
LINE
  5
378
330
2
100
AcDbEntity
  8
UMRISS05
100
AcDbLine
 10
-2356.324472702555
 20
2000.090561867406
 30
0.0
 11
-2356.324472702555
 21
1981.28284320811
 31
0.0
  0
LINE
  5
379
330
2
100
AcDbEntity
  8
UMRISS05
100
AcDbLine
 10
-2338.324472342554
 20
2002.33547520811
 30
0.0
 11
-2338.324472342554
 21
2097.211848642329
 31
0.0
  0
LINE
  5
37A
330
2
100
AcDbEntity
  8
UMRISS05
100
AcDbLine
 10
-2356.324472702555
 20
2097.211848642329
 30
0.0
 11
-2356.324472702555
 21
2002.33547520811
 31
0.0
  0
LINE
  5
37B
330
2
100
AcDbEntity
  8
UMRISS05
100
AcDbLine
 10
-2338.324472342554
 20
2099.456761983033
 30
0.0
 11
-2338.324472342554
 21
2114.904508647189
 31
0.0
  0
LINE
  5
37C
330
2
100
AcDbEntity
  8
UMRISS05
100
AcDbLine
 10
-2356.324472702555
 20
2114.904508647189
 30
0.0
 11
-2356.324472702555
 21
2099.456761983033
 31
0.0
  0
LINE
  5
37D
330
2
100
AcDbEntity
  8
UMRISS05
100
AcDbLine
 10
-2338.324472342554
 20
2117.149421987893
 30
0.0
 11
-2338.324472342554
 21
2133.34984569475
 31
0.0
  0
LINE
  5
37E
330
2
100
AcDbEntity
  8
UMRISS05
100
AcDbLine
 10
-2338.324472342554
 20
2135.594759035454
 30
0.0
 11
-2338.324472342554
 21
2151.621875829648
 31
0.0
  0
LINE
  5
37F
330
2
100
AcDbEntity
  8
UMRISS05
100
AcDbLine
 10
-2356.324472702555
 20
2133.34984569475
 30
0.0
 11
-2356.324472702555
 21
2117.149421987893
 31
0.0
  0
LINE
  5
380
330
2
100
AcDbEntity
  8
UMRISS05
100
AcDbLine
 10
-2356.324472702555
 20
2151.621875829648
 30
0.0
 11
-2356.324472702555
 21
2135.594759035454
 31
0.0
  0
LINE
  5
381
330
2
100
AcDbEntity
  8
UMRISS05
100
AcDbLine
 10
-2338.324472342554
 20
2153.866789170352
 30
0.0
 11
-2338.324472342554
 21
2169.045642831866
 31
0.0
  0
LINE
  5
382
330
2
100
AcDbEntity
  8
UMRISS05
100
AcDbLine
 10
-2338.324472342554
 20
2171.290556172571
 30
0.0
 11
-2338.324472342554
 21
2373.385571561388
 31
0.0
  0
LINE
  5
383
330
2
100
AcDbEntity
  8
UMRISS05
100
AcDbLine
 10
-2356.324472702555
 20
2169.045642831866
 30
0.0
 11
-2356.324472702555
 21
2153.866789170352
 31
0.0
  0
LINE
  5
384
330
2
100
AcDbEntity
  8
UMRISS05
100
AcDbLine
 10
-2356.324472702554
 20
2427.651607002036
 30
0.0
 11
-2356.324472702554
 21
2412.364332214459
 31
0.0
  0
LINE
  5
385
330
2
100
AcDbEntity
  8
UMRISS05
100
AcDbLine
 10
-2356.324472702554
 20
2410.119418873754
 30
0.0
 11
-2356.324472702554
 21
2393.623266735563
 31
0.0
  0
LINE
  5
386
330
2
100
AcDbEntity
  8
UMRISS05
100
AcDbLine
 10
-2356.324472702554
 20
2391.378353394859
 30
0.0
 11
-2356.324472702554
 21
2375.630484902092
 31
0.0
  0
LINE
  5
387
330
2
100
AcDbEntity
  8
UMRISS05
100
AcDbLine
 10
-2356.324472702554
 20
2373.385571561388
 30
0.0
 11
-2356.324472702555
 21
2171.290556172571
 31
0.0
  0
LINE
  5
388
330
2
100
AcDbEntity
  8
UMRISS05
100
AcDbLine
 10
-2338.324472342554
 20
2375.630484902092
 30
0.0
 11
-2338.324472342554
 21
2391.378353394859
 31
0.0
  0
LINE
  5
389
330
2
100
AcDbEntity
  8
UMRISS05
100
AcDbLine
 10
-2338.324472342554
 20
2393.623266735563
 30
0.0
 11
-2338.324472342554
 21
2410.119418873754
 31
0.0
  0
LINE
  5
38A
330
2
100
AcDbEntity
  8
UMRISS05
100
AcDbLine
 10
-2338.324472342554
 20
2412.364332214459
 30
0.0
 11
-2338.324472342554
 21
2427.651607002036
 31
0.0
  0
LINE
  5
38B
330
2
100
AcDbEntity
  8
UMRISS05
100
AcDbLine
 10
-2338.324472342554
 20
2429.896520342741
 30
0.0
 11
-2338.324472342554
 21
2444.800541455587
 31
0.0
  0
LINE
  5
38C
330
2
100
AcDbEntity
  8
UMRISS05
100
AcDbLine
 10
-2338.324472342554
 20
2447.045454796291
 30
0.0
 11
-2338.324472342554
 21
2541.211218730835
 31
0.0
  0
LINE
  5
38D
330
2
100
AcDbEntity
  8
UMRISS05
100
AcDbLine
 10
-2356.324472702554
 20
2444.800541455586
 30
0.0
 11
-2356.324472702554
 21
2429.896520342741
 31
0.0
  0
LINE
  5
38E
330
2
100
AcDbEntity
  8
UMRISS05
100
AcDbLine
 10
-2356.324472702553
 20
2541.211218730835
 30
0.0
 11
-2356.324472702554
 21
2447.045454796291
 31
0.0
  0
LINE
  5
38F
330
2
100
AcDbEntity
  8
UMRISS05
100
AcDbLine
 10
-2338.324472342554
 20
2543.456132071539
 30
0.0
 11
-2338.324472342554
 21
2569.784655282783
 31
0.0
  0
LINE
  5
390
330
2
100
AcDbEntity
  8
UMRISS05
100
AcDbLine
 10
-2565.958790454186
 20
1881.446066120775
 30
0.0
 11
-2558.337946622895
 21
1881.446066120775
 31
0.0
  0
LINE
  5
391
330
2
100
AcDbEntity
  8
UMRISS05
100
AcDbLine
 10
-2565.958790454186
 20
1881.446066120775
 30
0.0
 11
-2565.958790454186
 21
1889.996066291774
 31
0.0
  0
LINE
  5
392
330
2
100
AcDbEntity
  8
UMRISS05
100
AcDbLine
 10
-2565.958790454186
 20
1889.996066291774
 30
0.0
 11
-2554.833772799912
 21
1889.996066291774
 31
0.0
  0
LINE
  5
393
330
2
100
AcDbEntity
  8
UMRISS05
100
AcDbLine
 10
-2546.01704589941
 20
1879.496066081774
 30
0.0
 11
-2547.315024713663
 21
1880.534449133177
 31
0.0
  0
LINE
  5
394
330
2
100
AcDbEntity
  8
UMRISS05
100
AcDbLine
 10
-2548.76195078912
 20
1880.534449133177
 30
0.0
 11
-2547.463971974867
 21
1879.496066081774
 31
0.0
  0
LINE
  5
395
330
2
100
AcDbEntity
  8
UMRISS05
100
AcDbLine
 10
-2554.788520644653
 20
1890.008133533177
 30
0.0
 11
-2552.958772762414
 21
1890.496066301774
 31
0.0
  0
LINE
  5
396
330
2
100
AcDbEntity
  8
UMRISS05
100
AcDbLine
 10
-2547.463971974867
 20
1879.496066081774
 30
0.0
 11
-2545.958790054186
 21
1879.496066081774
 31
0.0
  0
LINE
  5
397
330
2
100
AcDbEntity
  8
UMRISS05
100
AcDbLine
 10
-2552.958772762414
 20
1890.496066301774
 30
0.0
 11
-2545.958790054186
 21
1890.496066301774
 31
0.0
  0
LINE
  5
398
330
2
100
AcDbEntity
  8
UMRISS05
100
AcDbLine
 10
-2545.958790054186
 20
1875.496066001774
 30
0.0
 11
-2542.958789994186
 21
1875.496066001774
 31
0.0
  0
LINE
  5
399
330
2
100
AcDbEntity
  8
UMRISS05
100
AcDbLine
 10
-2545.958790054186
 20
1893.496066361775
 30
0.0
 11
-2542.958789994186
 21
1893.496066361775
 31
0.0
  0
LINE
  5
39A
330
2
100
AcDbEntity
  8
UMRISS05
100
AcDbLine
 10
-2545.958790054186
 20
1893.496066361775
 30
0.0
 11
-2545.958790054186
 21
1875.496066001774
 31
0.0
  0
ARC
  5
39B
330
2
100
AcDbEntity
  8
UMRISS05
100
AcDbCircle
 10
-2541.458789964187
 20
1890.996066311775
 30
0.0
 40
1.500000029999999
100
AcDbArc
 50
90.0
 51
180.0
  0
LINE
  5
39C
330
2
100
AcDbEntity
  8
UMRISS05
100
AcDbLine
 10
-2511.819449543179
 20
1890.996066311775
 30
0.0
 11
-2511.819449543179
 21
1880.796066107775
 31
0.0
  0
ARC
  5
39D
330
2
100
AcDbEntity
  8
UMRISS05
100
AcDbCircle
 10
-2503.758789210186
 20
1890.996066311775
 30
0.0
 40
1.500000029999999
100
AcDbArc
 50
0.0
 51
90.0
  0
LINE
  5
39E
330
2
100
AcDbEntity
  8
UMRISS05
100
AcDbLine
 10
-2512.880109736172
 20
1890.996066311775
 30
0.0
 11
-2511.819449543179
 21
1890.996066311775
 31
0.0
  0
LINE
  5
39F
330
2
100
AcDbEntity
  8
UMRISS05
100
AcDbLine
 10
-2512.880109736172
 20
1880.796066107775
 30
0.0
 11
-2502.258789180185
 21
1880.796066107775
 31
0.0
  0
LINE
  5
3A0
330
2
100
AcDbEntity
  8
UMRISS05
100
AcDbLine
 10
-2512.880109736172
 20
1879.296066077774
 30
0.0
 11
-2512.880109736172
 21
1890.996066311775
 31
0.0
  0
LINE
  5
3A1
330
2
100
AcDbEntity
  8
UMRISS05
100
AcDbLine
 10
-2530.458789744186
 20
1880.796066107775
 30
0.0
 11
-2530.458789744186
 21
1879.296066077774
 31
0.0
  0
LINE
  5
3A2
330
2
100
AcDbEntity
  8
UMRISS05
100
AcDbLine
 10
-2542.958789994186
 20
1879.296066077774
 30
0.0
 11
-2502.258789180185
 21
1879.296066077774
 31
0.0
  0
LINE
  5
3A3
330
2
100
AcDbEntity
  8
UMRISS05
100
AcDbLine
 10
-2541.458789964186
 20
1890.996066311775
 30
0.0
 11
-2541.458789964186
 21
1880.796066107775
 31
0.0
  0
LINE
  5
3A4
330
2
100
AcDbEntity
  8
UMRISS05
100
AcDbLine
 10
-2530.458789744186
 20
1880.796066107775
 30
0.0
 11
-2542.958789994186
 21
1880.796066107775
 31
0.0
  0
LINE
  5
3A5
330
2
100
AcDbEntity
  8
UMRISS05
100
AcDbLine
 10
-2542.958789994186
 20
1893.496066361775
 30
0.0
 11
-2542.958789994186
 21
1875.496066001774
 31
0.0
  0
LINE
  5
3A6
330
2
100
AcDbEntity
  8
UMRISS05
100
AcDbLine
 10
-2502.258789180185
 20
1890.996066311775
 30
0.0
 11
-2502.258789180185
 21
1879.296066077774
 31
0.0
  0
LINE
  5
3A7
330
2
100
AcDbEntity
  8
ACHSEN
100
AcDbLine
 10
-2485.958788854186
 20
1895.496066401774
 30
0.0
 11
-2485.958788854186
 21
1875.296065997774
 31
0.0
  0
LINE
  5
3A8
330
2
100
AcDbEntity
  8
UMRISS05
100
AcDbLine
 10
-2487.958788894186
 20
1890.996066311775
 30
0.0
 11
-2487.958788894186
 21
1892.496066341774
 31
0.0
  0
LINE
  5
3A9
330
2
100
AcDbEntity
  8
UMRISS05
100
AcDbLine
 10
-2483.958788814187
 20
1890.996066311775
 30
0.0
 11
-2483.958788814187
 21
1892.496066341774
 31
0.0
  0
ARC
  5
3AA
330
2
100
AcDbEntity
  8
UMRISS05
100
AcDbCircle
 10
-2458.458788304187
 20
1890.996066311775
 30
0.0
 40
1.500000029999999
100
AcDbArc
 50
0.0
 51
90.0
  0
LINE
  5
3AB
330
2
100
AcDbEntity
  8
UMRISS05
100
AcDbLine
 10
-2541.458789964187
 20
1892.496066341775
 30
0.0
 11
-2458.458788304187
 21
1892.496066341774
 31
0.0
  0
ARC
  5
3AC
330
2
100
AcDbEntity
  8
UMRISS05
100
AcDbCircle
 10
-2429.104474158155
 20
2322.232018752783
 30
0.0
 40
79.88000159760024
100
AcDbArc
 50
350.9244549841886
 51
9.075545015811462
  0
SPLINE
  5
3AD
330
2
100
AcDbEntity
  8
UMRISS02
100
AcDbSpline
210
0.0
220
0.0
230
1.0
 70
  1064
 71
     3
 72
    11
 73
     7
 74
     5
 42
0.0000000001
 43
0.0000000001
 44
0.0000000001
 40
0.0
 40
0.0
 40
0.0
 40
0.0
 40
5.729095966562434
 40
10.84827500458241
 40
15.57843713818914
 40
18.28275595302881
 40
18.28275595302881
 40
18.28275595302881
 40
18.28275595302881
 10
-2356.324472702553
 20
2169.045642831866
 30
0.0
 10
-2354.413993888284
 20
2169.507498442645
 30
0.0
 10
-2350.796424957933
 20
2170.382040727741
 30
0.0
 10
-2345.77921726869
 20
2167.625794391921
 30
0.0
 10
-2341.676058411451
 20
2169.823330600832
 30
0.0
 10
-2339.218439821673
 20
2169.253075241498
 30
0.0
 10
-2338.324472342555
 20
2169.045642831866
 30
0.0
 11
-2356.324472702553
 21
2169.045642831866
 31
0.0
 11
-2350.627553716331
 21
2169.651988161277
 31
0.0
 11
-2345.641189209836
 21
2168.493470560344
 31
0.0
 11
-2341.002714716433
 21
2169.420286714851
 31
0.0
 11
-2338.324472342555
 21
2169.045642831866
 31
0.0
  0
SPLINE
  5
3AE
330
2
100
AcDbEntity
  8
UMRISS02
100
AcDbSpline
210
0.0
220
0.0
230
1.0
 70
  1064
 71
     3
 72
    11
 73
     7
 74
     5
 42
0.0000000001
 43
0.0000000001
 44
0.0000000001
 40
0.0
 40
0.0
 40
0.0
 40
0.0
 40
5.729095966562434
 40
10.84827500458241
 40
15.57843713818914
 40
18.28275595302881
 40
18.28275595302881
 40
18.28275595302881
 40
18.28275595302881
 10
-2356.324472702553
 20
2171.290556172571
 30
0.0
 10
-2354.413993888284
 20
2171.75241178335
 30
0.0
 10
-2350.796424957933
 20
2172.626954068446
 30
0.0
 10
-2345.77921726869
 20
2169.870707732627
 30
0.0
 10
-2341.676058411451
 20
2172.068243941537
 30
0.0
 10
-2339.218439821673
 20
2171.497988582204
 30
0.0
 10
-2338.324472342555
 20
2171.290556172571
 30
0.0
 11
-2356.324472702553
 21
2171.290556172571
 31
0.0
 11
-2350.627553716331
 21
2171.896901501983
 31
0.0
 11
-2345.641189209836
 21
2170.738383901049
 31
0.0
 11
-2341.002714716433
 21
2171.665200055557
 31
0.0
 11
-2338.324472342555
 21
2171.290556172571
 31
0.0
  0
SPLINE
  5
3AF
330
2
100
AcDbEntity
  8
UMRISS02
100
AcDbSpline
210
0.0
220
0.0
230
1.0
 70
  1064
 71
     3
 72
    11
 73
     7
 74
     5
 42
0.0000000001
 43
0.0000000001
 44
0.0000000001
 40
0.0
 40
0.0
 40
0.0
 40
0.0
 40
5.729095966562386
 40
10.84827500458236
 40
15.57843713818918
 40
18.28275595303245
 40
18.28275595303245
 40
18.28275595303245
 40
18.28275595303245
 10
-2356.324472702553
 20
2375.630484902092
 30
0.0
 10
-2354.413993888283
 20
2376.09234051287
 30
0.0
 10
-2350.796424957933
 20
2376.966882797967
 30
0.0
 10
-2345.77921726869
 20
2374.210636462147
 30
0.0
 10
-2341.67605841145
 20
2376.408172671059
 30
0.0
 10
-2339.218439821671
 20
2375.837917311725
 30
0.0
 10
-2338.324472342552
 20
2375.630484902092
 30
0.0
 11
-2356.324472702553
 21
2375.630484902092
 31
0.0
 11
-2350.627553716331
 21
2376.236830231503
 31
0.0
 11
-2345.641189209836
 21
2375.07831263057
 31
0.0
 11
-2341.002714716433
 21
2376.005128785078
 31
0.0
 11
-2338.324472342552
 21
2375.630484902092
 31
0.0
  0
SPLINE
  5
3B0
330
2
100
AcDbEntity
  8
UMRISS02
100
AcDbSpline
210
0.0
220
0.0
230
1.0
 70
  1064
 71
     3
 72
    11
 73
     7
 74
     5
 42
0.0000000001
 43
0.0000000001
 44
0.0000000001
 40
0.0
 40
0.0
 40
0.0
 40
0.0
 40
5.729095966562193
 40
10.84827500458165
 40
15.57843713818785
 40
18.28275595303075
 40
18.28275595303075
 40
18.28275595303075
 40
18.28275595303075
 10
-2356.324472702553
 20
2373.385571561388
 30
0.0
 10
-2354.413993888283
 20
2373.847427172165
 30
0.0
 10
-2350.796424957933
 20
2374.72196945726
 30
0.0
 10
-2345.77921726869
 20
2371.965723121447
 30
0.0
 10
-2341.67605841145
 20
2374.163259330351
 30
0.0
 10
-2339.218439821671
 20
2373.59300397102
 30
0.0
 10
-2338.324472342552
 20
2373.385571561388
 30
0.0
 11
-2356.324472702553
 21
2373.385571561388
 31
0.0
 11
-2350.627553716331
 21
2373.991916890798
 31
0.0
 11
-2345.641189209836
 21
2372.833399289866
 31
0.0
 11
-2341.002714716433
 21
2373.760215444372
 31
0.0
 11
-2338.324472342552
 21
2373.385571561388
 31
0.0
  0
SPLINE
  5
3B1
330
2
100
AcDbEntity
  8
UMRISS02
100
AcDbSpline
210
0.0
220
0.0
230
1.0
 70
  1064
 71
     3
 72
    11
 73
     7
 74
     5
 42
0.0000000001
 43
0.0000000001
 44
0.0000000001
 40
0.0
 40
0.0
 40
0.0
 40
0.0
 40
5.729095966562626
 40
10.8482750045825
 40
15.57843713818923
 40
18.28275595303282
 40
18.28275595303282
 40
18.28275595303282
 40
18.28275595303282
 10
-2356.324472702553
 20
2393.623266735561
 30
0.0
 10
-2354.413993888283
 20
2394.08512234634
 30
0.0
 10
-2350.796424957933
 20
2394.959664631439
 30
0.0
 10
-2345.77921726869
 20
2392.203418295618
 30
0.0
 10
-2341.676058411449
 20
2394.400954504532
 30
0.0
 10
-2339.218439821671
 20
2393.830699145195
 30
0.0
 10
-2338.324472342552
 20
2393.623266735561
 30
0.0
 11
-2356.324472702553
 21
2393.623266735561
 31
0.0
 11
-2350.627553716331
 21
2394.229612064974
 31
0.0
 11
-2345.641189209836
 21
2393.071094464041
 31
0.0
 11
-2341.002714716433
 21
2393.99791061855
 31
0.0
 11
-2338.324472342552
 21
2393.623266735561
 31
0.0
  0
SPLINE
  5
3B2
330
2
100
AcDbEntity
  8
UMRISS02
100
AcDbSpline
210
0.0
220
0.0
230
1.0
 70
  1064
 71
     3
 72
    11
 73
     7
 74
     5
 42
0.0000000001
 43
0.0000000001
 44
0.0000000001
 40
0.0
 40
0.0
 40
0.0
 40
0.0
 40
5.729095966562386
 40
10.84827500458226
 40
15.57843713818899
 40
18.28275595303226
 40
18.28275595303226
 40
18.28275595303226
 40
18.28275595303226
 10
-2356.324472702553
 20
2391.378353394858
 30
0.0
 10
-2354.413993888284
 20
2391.840209005637
 30
0.0
 10
-2350.796424957934
 20
2392.714751290733
 30
0.0
 10
-2345.77921726869
 20
2389.958504954914
 30
0.0
 10
-2341.67605841145
 20
2392.156041163825
 30
0.0
 10
-2339.218439821671
 20
2391.585785804491
 30
0.0
 10
-2338.324472342552
 20
2391.378353394858
 30
0.0
 11
-2356.324472702553
 21
2391.378353394858
 31
0.0
 11
-2350.627553716331
 21
2391.984698724269
 31
0.0
 11
-2345.641189209836
 21
2390.826181123336
 31
0.0
 11
-2341.002714716433
 21
2391.752997277844
 31
0.0
 11
-2338.324472342552
 21
2391.378353394858
 31
0.0
  0
SPLINE
  5
3B3
330
2
100
AcDbEntity
  8
UMRISS02
100
AcDbSpline
210
0.0
220
0.0
230
1.0
 70
  1064
 71
     3
 72
    11
 73
     7
 74
     5
 42
0.0000000001
 43
0.0000000001
 44
0.0000000001
 40
0.0
 40
0.0
 40
0.0
 40
0.0
 40
5.729095966564003
 40
10.84827500458169
 40
15.57843713818807
 40
18.28275595303109
 40
18.28275595303109
 40
18.28275595303109
 40
18.28275595303109
 10
-2356.324472702553
 20
2543.456132071539
 30
0.0
 10
-2354.413993888283
 20
2543.917987682318
 30
0.0
 10
-2350.796424957933
 20
2544.792529967411
 30
0.0
 10
-2345.779217268689
 20
2542.036283631598
 30
0.0
 10
-2341.67605841145
 20
2544.233819840503
 30
0.0
 10
-2339.218439821671
 20
2543.663564481172
 30
0.0
 10
-2338.324472342552
 20
2543.456132071539
 30
0.0
 11
-2356.324472702553
 21
2543.456132071539
 31
0.0
 11
-2350.627553716329
 21
2544.062477400949
 31
0.0
 11
-2345.641189209836
 21
2542.903959800018
 31
0.0
 11
-2341.002714716433
 21
2543.830775954524
 31
0.0
 11
-2338.324472342552
 21
2543.456132071539
 31
0.0
  0
SPLINE
  5
3B4
330
2
100
AcDbEntity
  8
UMRISS02
100
AcDbSpline
210
0.0
220
0.0
230
1.0
 70
  1064
 71
     3
 72
    11
 73
     7
 74
     5
 42
0.0000000001
 43
0.0000000001
 44
0.0000000001
 40
0.0
 40
0.0
 40
0.0
 40
0.0
 40
5.729095966564003
 40
10.84827500458169
 40
15.57843713818807
 40
18.28275595303109
 40
18.28275595303109
 40
18.28275595303109
 40
18.28275595303109
 10
-2356.324472702553
 20
2541.211218730834
 30
0.0
 10
-2354.413993888283
 20
2541.673074341611
 30
0.0
 10
-2350.796424957933
 20
2542.547616626706
 30
0.0
 10
-2345.779217268689
 20
2539.791370290892
 30
0.0
 10
-2341.67605841145
 20
2541.988906499798
 30
0.0
 10
-2339.218439821671
 20
2541.418651140466
 30
0.0
 10
-2338.324472342552
 20
2541.211218730834
 30
0.0
 11
-2356.324472702553
 21
2541.211218730834
 31
0.0
 11
-2350.627553716329
 21
2541.817564060244
 31
0.0
 11
-2345.641189209836
 21
2540.659046459313
 31
0.0
 11
-2341.002714716433
 21
2541.585862613819
 31
0.0
 11
-2338.324472342552
 21
2541.211218730834
 31
0.0
  0
SPLINE
  5
3B5
330
2
100
AcDbEntity
  8
UMRISS02
100
AcDbSpline
210
0.0
220
0.0
230
1.0
 70
  1064
 71
     3
 72
    11
 73
     7
 74
     5
 42
0.0000000001
 43
0.0000000001
 44
0.0000000001
 40
0.0
 40
0.0
 40
0.0
 40
0.0
 40
5.729095966562193
 40
10.84827500458165
 40
15.57843713818794
 40
18.2827559530273
 40
18.2827559530273
 40
18.2827559530273
 40
18.2827559530273
 10
-2356.324472702553
 20
2002.335475208111
 30
0.0
 10
-2354.413993888283
 20
2002.797330818888
 30
0.0
 10
-2350.796424957933
 20
2003.671873103983
 30
0.0
 10
-2345.77921726869
 20
2000.915626768169
 30
0.0
 10
-2341.676058411451
 20
2003.113162977073
 30
0.0
 10
-2339.218439821673
 20
2002.542907617743
 30
0.0
 10
-2338.324472342555
 20
2002.335475208111
 30
0.0
 11
-2356.324472702553
 21
2002.335475208111
 31
0.0
 11
-2350.627553716331
 21
2002.94182053752
 31
0.0
 11
-2345.641189209836
 21
2001.783302936589
 31
0.0
 11
-2341.002714716433
 21
2002.710119091095
 31
0.0
 11
-2338.324472342555
 21
2002.335475208111
 31
0.0
  0
SPLINE
  5
3B6
330
2
100
AcDbEntity
  8
UMRISS02
100
AcDbSpline
210
0.0
220
0.0
230
1.0
 70
  1064
 71
     3
 72
    11
 73
     7
 74
     5
 42
0.0000000001
 43
0.0000000001
 44
0.0000000001
 40
0.0
 40
0.0
 40
0.0
 40
0.0
 40
5.729095966562241
 40
10.84827500458181
 40
15.57843713818854
 40
18.28275595302821
 40
18.28275595302821
 40
18.28275595302821
 40
18.28275595302821
 10
-2356.324472702553
 20
2000.090561867406
 30
0.0
 10
-2354.413993888284
 20
2000.552417478183
 30
0.0
 10
-2350.796424957933
 20
2001.426959763279
 30
0.0
 10
-2345.77921726869
 20
1998.670713427461
 30
0.0
 10
-2341.676058411451
 20
2000.868249636372
 30
0.0
 10
-2339.218439821674
 20
2000.297994277039
 30
0.0
 10
-2338.324472342555
 20
2000.090561867406
 30
0.0
 11
-2356.324472702553
 21
2000.090561867406
 31
0.0
 11
-2350.627553716331
 21
2000.696907196815
 31
0.0
 11
-2345.641189209836
 21
1999.538389595883
 31
0.0
 11
-2341.002714716433
 21
2000.465205750391
 31
0.0
 11
-2338.324472342555
 21
2000.090561867406
 31
0.0
  0
SPLINE
  5
3B7
330
2
100
AcDbEntity
  8
UMRISS02
100
AcDbSpline
210
0.0
220
0.0
230
1.0
 70
  1064
 71
     3
 72
    11
 73
     7
 74
     5
 42
0.0000000001
 43
0.0000000001
 44
0.0000000001
 40
0.0
 40
0.0
 40
0.0
 40
0.0
 40
5.729095966562434
 40
10.84827500458241
 40
15.57843713818914
 40
18.28275595303242
 40
18.28275595303242
 40
18.28275595303242
 40
18.28275595303242
 10
-2356.324472702553
 20
2444.800541455585
 30
0.0
 10
-2354.413993888284
 20
2445.262397066365
 30
0.0
 10
-2350.796424957933
 20
2446.136939351462
 30
0.0
 10
-2345.77921726869
 20
2443.380693015641
 30
0.0
 10
-2341.67605841145
 20
2445.578229224552
 30
0.0
 10
-2339.218439821671
 20
2445.007973865219
 30
0.0
 10
-2338.324472342552
 20
2444.800541455585
 30
0.0
 11
-2356.324472702553
 21
2444.800541455585
 31
0.0
 11
-2350.627553716331
 21
2445.406886784997
 31
0.0
 11
-2345.641189209836
 21
2444.248369184064
 31
0.0
 11
-2341.002714716433
 21
2445.175185338571
 31
0.0
 11
-2338.324472342552
 21
2444.800541455585
 31
0.0
  0
SPLINE
  5
3B8
330
2
100
AcDbEntity
  8
UMRISS02
100
AcDbSpline
210
0.0
220
0.0
230
1.0
 70
  1064
 71
     3
 72
    11
 73
     7
 74
     5
 42
0.0000000001
 43
0.0000000001
 44
0.0000000001
 40
0.0
 40
0.0
 40
0.0
 40
0.0
 40
5.729095966562241
 40
10.8482750045817
 40
15.57843713818835
 40
18.28275595303162
 40
18.28275595303162
 40
18.28275595303162
 40
18.28275595303162
 10
-2356.324472702553
 20
2447.04545479629
 30
0.0
 10
-2354.413993888283
 20
2447.507310407068
 30
0.0
 10
-2350.796424957933
 20
2448.381852692163
 30
0.0
 10
-2345.77921726869
 20
2445.625606356349
 30
0.0
 10
-2341.676058411449
 20
2447.823142565257
 30
0.0
 10
-2339.218439821671
 20
2447.252887205924
 30
0.0
 10
-2338.324472342552
 20
2447.04545479629
 30
0.0
 11
-2356.324472702553
 21
2447.04545479629
 31
0.0
 11
-2350.627553716331
 21
2447.651800125701
 31
0.0
 11
-2345.641189209836
 21
2446.49328252477
 31
0.0
 11
-2341.002714716433
 21
2447.420098679277
 31
0.0
 11
-2338.324472342552
 21
2447.04545479629
 31
0.0
  0
SPLINE
  5
3B9
330
2
100
AcDbEntity
  8
UMRISS02
100
AcDbSpline
210
0.0
220
0.0
230
1.0
 70
  1064
 71
     3
 72
    11
 73
     7
 74
     5
 42
0.0000000001
 43
0.0000000001
 44
0.0000000001
 40
0.0
 40
0.0
 40
0.0
 40
0.0
 40
5.729095966562434
 40
10.84827500458179
 40
15.57843713818799
 40
18.28275595303126
 40
18.28275595303126
 40
18.28275595303126
 40
18.28275595303126
 10
-2356.324472702553
 20
2427.651607002035
 30
0.0
 10
-2354.413993888284
 20
2428.113462612814
 30
0.0
 10
-2350.796424957933
 20
2428.988004897909
 30
0.0
 10
-2345.77921726869
 20
2426.231758562095
 30
0.0
 10
-2341.676058411449
 20
2428.429294771001
 30
0.0
 10
-2339.218439821671
 20
2427.859039411668
 30
0.0
 10
-2338.324472342552
 20
2427.651607002035
 30
0.0
 11
-2356.324472702553
 21
2427.651607002035
 31
0.0
 11
-2350.627553716331
 21
2428.257952331447
 31
0.0
 11
-2345.641189209836
 21
2427.099434730516
 31
0.0
 11
-2341.002714716433
 21
2428.026250885021
 31
0.0
 11
-2338.324472342552
 21
2427.651607002035
 31
0.0
  0
SPLINE
  5
3BA
330
2
100
AcDbEntity
  8
UMRISS02
100
AcDbSpline
210
0.0
220
0.0
230
1.0
 70
  1064
 71
     3
 72
    11
 73
     7
 74
     5
 42
0.0000000001
 43
0.0000000001
 44
0.0000000001
 40
0.0
 40
0.0
 40
0.0
 40
0.0
 40
5.729095966562193
 40
10.84827500458165
 40
15.57843713818794
 40
18.2827559530309
 40
18.2827559530309
 40
18.2827559530309
 40
18.2827559530309
 10
-2356.324472702553
 20
2429.896520342741
 30
0.0
 10
-2354.413993888283
 20
2430.358375953518
 30
0.0
 10
-2350.796424957933
 20
2431.232918238613
 30
0.0
 10
-2345.77921726869
 20
2428.476671902798
 30
0.0
 10
-2341.67605841145
 20
2430.674208111704
 30
0.0
 10
-2339.218439821671
 20
2430.103952752373
 30
0.0
 10
-2338.324472342552
 20
2429.896520342741
 30
0.0
 11
-2356.324472702553
 21
2429.896520342741
 31
0.0
 11
-2350.627553716331
 21
2430.502865672151
 31
0.0
 11
-2345.641189209836
 21
2429.344348071219
 31
0.0
 11
-2341.002714716433
 21
2430.271164225725
 31
0.0
 11
-2338.324472342552
 21
2429.896520342741
 31
0.0
  0
SPLINE
  5
3BB
330
2
100
AcDbEntity
  8
UMRISS02
100
AcDbSpline
210
0.0
220
0.0
230
1.0
 70
  1064
 71
     3
 72
    11
 73
     7
 74
     5
 42
0.0000000001
 43
0.0000000001
 44
0.0000000001
 40
0.0
 40
0.0
 40
0.0
 40
0.0
 40
5.729095966562434
 40
10.84827500458251
 40
15.57843713818934
 40
18.28275595303261
 40
18.28275595303261
 40
18.28275595303261
 40
18.28275595303261
 10
-2356.324472702553
 20
2410.119418873754
 30
0.0
 10
-2354.413993888283
 20
2410.581274484533
 30
0.0
 10
-2350.796424957933
 20
2411.45581676963
 30
0.0
 10
-2345.77921726869
 20
2408.699570433809
 30
0.0
 10
-2341.67605841145
 20
2410.897106642721
 30
0.0
 10
-2339.218439821671
 20
2410.326851283388
 30
0.0
 10
-2338.324472342552
 20
2410.119418873754
 30
0.0
 11
-2356.324472702553
 21
2410.119418873754
 31
0.0
 11
-2350.627553716331
 21
2410.725764203166
 31
0.0
 11
-2345.641189209836
 21
2409.567246602232
 31
0.0
 11
-2341.002714716433
 21
2410.49406275674
 31
0.0
 11
-2338.324472342552
 21
2410.119418873754
 31
0.0
  0
SPLINE
  5
3BC
330
2
100
AcDbEntity
  8
UMRISS02
100
AcDbSpline
210
0.0
220
0.0
230
1.0
 70
  1064
 71
     3
 72
    11
 73
     7
 74
     5
 42
0.0000000001
 43
0.0000000001
 44
0.0000000001
 40
0.0
 40
0.0
 40
0.0
 40
0.0
 40
5.729095966562241
 40
10.8482750045817
 40
15.57843713818799
 40
18.28275595303101
 40
18.28275595303101
 40
18.28275595303101
 40
18.28275595303101
 10
-2356.324472702553
 20
2412.364332214459
 30
0.0
 10
-2354.413993888283
 20
2412.826187825236
 30
0.0
 10
-2350.796424957933
 20
2413.70073011033
 30
0.0
 10
-2345.77921726869
 20
2410.944483774518
 30
0.0
 10
-2341.67605841145
 20
2413.142019983422
 30
0.0
 10
-2339.218439821671
 20
2412.571764624092
 30
0.0
 10
-2338.324472342552
 20
2412.364332214459
 30
0.0
 11
-2356.324472702553
 21
2412.364332214459
 31
0.0
 11
-2350.627553716331
 21
2412.970677543869
 31
0.0
 11
-2345.641189209836
 21
2411.812159942938
 31
0.0
 11
-2341.002714716433
 21
2412.738976097444
 31
0.0
 11
-2338.324472342552
 21
2412.364332214459
 31
0.0
  0
SPLINE
  5
3BD
330
2
100
AcDbEntity
  8
UMRISS02
100
AcDbSpline
210
0.0
220
0.0
230
1.0
 70
  1064
 71
     3
 72
    11
 73
     7
 74
     5
 42
0.0000000001
 43
0.0000000001
 44
0.0000000001
 40
0.0
 40
0.0
 40
0.0
 40
0.0
 40
5.729095966562434
 40
10.848275004582
 40
15.57843713818837
 40
18.28275595302804
 40
18.28275595302804
 40
18.28275595302804
 40
18.28275595302804
 10
-2356.324472702553
 20
2151.621875829647
 30
0.0
 10
-2354.413993888284
 20
2152.083731440425
 30
0.0
 10
-2350.796424957933
 20
2152.958273725522
 30
0.0
 10
-2345.77921726869
 20
2150.202027389706
 30
0.0
 10
-2341.676058411451
 20
2152.399563598613
 30
0.0
 10
-2339.218439821673
 20
2151.82930823928
 30
0.0
 10
-2338.324472342555
 20
2151.621875829647
 30
0.0
 11
-2356.324472702553
 21
2151.621875829647
 31
0.0
 11
-2350.627553716331
 21
2152.228221159059
 31
0.0
 11
-2345.641189209836
 21
2151.069703558127
 31
0.0
 11
-2341.002714716433
 21
2151.996519712633
 31
0.0
 11
-2338.324472342555
 21
2151.621875829647
 31
0.0
  0
SPLINE
  5
3BE
330
2
100
AcDbEntity
  8
UMRISS02
100
AcDbSpline
210
0.0
220
0.0
230
1.0
 70
  1064
 71
     3
 72
    11
 73
     7
 74
     5
 42
0.0000000001
 43
0.0000000001
 44
0.0000000001
 40
0.0
 40
0.0
 40
0.0
 40
0.0
 40
5.729095966562193
 40
10.84827500458165
 40
15.57843713818803
 40
18.28275595302745
 40
18.28275595302745
 40
18.28275595302745
 40
18.28275595302745
 10
-2356.324472702553
 20
2153.866789170352
 30
0.0
 10
-2354.413993888283
 20
2154.328644781129
 30
0.0
 10
-2350.796424957933
 20
2155.203187066224
 30
0.0
 10
-2345.77921726869
 20
2152.446940730409
 30
0.0
 10
-2341.676058411451
 20
2154.644476939315
 30
0.0
 10
-2339.218439821674
 20
2154.074221579984
 30
0.0
 10
-2338.324472342555
 20
2153.866789170352
 30
0.0
 11
-2356.324472702553
 21
2153.866789170352
 31
0.0
 11
-2350.627553716331
 21
2154.473134499761
 31
0.0
 11
-2345.641189209836
 21
2153.31461689883
 31
0.0
 11
-2341.002714716433
 21
2154.241433053336
 31
0.0
 11
-2338.324472342555
 21
2153.866789170352
 31
0.0
  0
SPLINE
  5
3BF
330
2
100
AcDbEntity
  8
UMRISS02
100
AcDbSpline
210
0.0
220
0.0
230
1.0
 70
  1064
 71
     3
 72
    11
 73
     7
 74
     5
 42
0.0000000001
 43
0.0000000001
 44
0.0000000001
 40
0.0
 40
0.0
 40
0.0
 40
0.0
 40
5.729095966562386
 40
10.84827500458226
 40
15.57843713818899
 40
18.28275595302866
 40
18.28275595302866
 40
18.28275595302866
 40
18.28275595302866
 10
-2356.324472702553
 20
2133.34984569475
 30
0.0
 10
-2354.413993888284
 20
2133.811701305528
 30
0.0
 10
-2350.796424957934
 20
2134.686243590624
 30
0.0
 10
-2345.77921726869
 20
2131.929997254806
 30
0.0
 10
-2341.676058411451
 20
2134.127533463717
 30
0.0
 10
-2339.218439821674
 20
2133.557278104383
 30
0.0
 10
-2338.324472342555
 20
2133.34984569475
 30
0.0
 11
-2356.324472702553
 21
2133.34984569475
 31
0.0
 11
-2350.627553716331
 21
2133.956191024161
 31
0.0
 11
-2345.641189209836
 21
2132.797673423228
 31
0.0
 11
-2341.002714716433
 21
2133.724489577736
 31
0.0
 11
-2338.324472342555
 21
2133.34984569475
 31
0.0
  0
SPLINE
  5
3C0
330
2
100
AcDbEntity
  8
UMRISS02
100
AcDbSpline
210
0.0
220
0.0
230
1.0
 70
  1064
 71
     3
 72
    11
 73
     7
 74
     5
 42
0.0000000001
 43
0.0000000001
 44
0.0000000001
 40
0.0
 40
0.0
 40
0.0
 40
0.0
 40
5.729095966562386
 40
10.84827500458185
 40
15.57843713818822
 40
18.28275595302789
 40
18.28275595302789
 40
18.28275595302789
 40
18.28275595302789
 10
-2356.324472702553
 20
2135.594759035453
 30
0.0
 10
-2354.413993888284
 20
2136.056614646232
 30
0.0
 10
-2350.796424957933
 20
2136.931156931327
 30
0.0
 10
-2345.77921726869
 20
2134.174910595513
 30
0.0
 10
-2341.676058411451
 20
2136.372446804419
 30
0.0
 10
-2339.218439821673
 20
2135.802191445086
 30
0.0
 10
-2338.324472342555
 20
2135.594759035453
 30
0.0
 11
-2356.324472702553
 21
2135.594759035453
 31
0.0
 11
-2350.627553716331
 21
2136.201104364864
 31
0.0
 11
-2345.641189209836
 21
2135.042586763933
 31
0.0
 11
-2341.002714716433
 21
2135.969402918439
 31
0.0
 11
-2338.324472342555
 21
2135.594759035453
 31
0.0
  0
SPLINE
  5
3C1
330
2
100
AcDbEntity
  8
UMRISS02
100
AcDbSpline
210
0.0
220
0.0
230
1.0
 70
  1064
 71
     3
 72
    11
 73
     7
 74
     5
 42
0.0000000001
 43
0.0000000001
 44
0.0000000001
 40
0.0
 40
0.0
 40
0.0
 40
0.0
 40
5.729095966562483
 40
10.84827500458205
 40
15.57843713818833
 40
18.282755953028
 40
18.282755953028
 40
18.282755953028
 40
18.282755953028
 10
-2356.324472702553
 20
2114.904508647188
 30
0.0
 10
-2354.413993888284
 20
2115.366364257966
 30
0.0
 10
-2350.796424957934
 20
2116.240906543064
 30
0.0
 10
-2345.77921726869
 20
2113.484660207247
 30
0.0
 10
-2341.676058411451
 20
2115.682196416154
 30
0.0
 10
-2339.218439821673
 20
2115.111941056821
 30
0.0
 10
-2338.324472342555
 20
2114.904508647188
 30
0.0
 11
-2356.324472702553
 21
2114.904508647188
 31
0.0
 11
-2350.627553716331
 21
2115.5108539766
 31
0.0
 11
-2345.641189209836
 21
2114.352336375668
 31
0.0
 11
-2341.002714716433
 21
2115.279152530174
 31
0.0
 11
-2338.324472342555
 21
2114.904508647188
 31
0.0
  0
SPLINE
  5
3C2
330
2
100
AcDbEntity
  8
UMRISS02
100
AcDbSpline
210
0.0
220
0.0
230
1.0
 70
  1064
 71
     3
 72
    11
 73
     7
 74
     5
 42
0.0000000001
 43
0.0000000001
 44
0.0000000001
 40
0.0
 40
0.0
 40
0.0
 40
0.0
 40
5.729095966562483
 40
10.84827500458215
 40
15.57843713818853
 40
18.2827559530282
 40
18.2827559530282
 40
18.2827559530282
 40
18.2827559530282
 10
-2356.324472702553
 20
2117.149421987893
 30
0.0
 10
-2354.413993888283
 20
2117.611277598671
 30
0.0
 10
-2350.796424957933
 20
2118.485819883769
 30
0.0
 10
-2345.77921726869
 20
2115.729573547952
 30
0.0
 10
-2341.676058411451
 20
2117.927109756859
 30
0.0
 10
-2339.218439821673
 20
2117.356854397526
 30
0.0
 10
-2338.324472342555
 20
2117.149421987893
 30
0.0
 11
-2356.324472702553
 21
2117.149421987893
 31
0.0
 11
-2350.627553716331
 21
2117.755767317305
 31
0.0
 11
-2345.641189209836
 21
2116.597249716373
 31
0.0
 11
-2341.002714716433
 21
2117.524065870879
 31
0.0
 11
-2338.324472342555
 21
2117.149421987893
 31
0.0
  0
SPLINE
  5
3C3
330
2
100
AcDbEntity
  8
UMRISS02
100
AcDbSpline
210
0.0
220
0.0
230
1.0
 70
  1064
 71
     3
 72
    11
 73
     7
 74
     5
 42
0.0000000001
 43
0.0000000001
 44
0.0000000001
 40
0.0
 40
0.0
 40
0.0
 40
0.0
 40
5.729095966562193
 40
10.84827500458165
 40
15.57843713818838
 40
18.28275595302805
 40
18.28275595302805
 40
18.28275595302805
 40
18.28275595302805
 10
-2356.324472702553
 20
2097.211848642329
 30
0.0
 10
-2354.413993888283
 20
2097.673704253105
 30
0.0
 10
-2350.796424957934
 20
2098.548246538201
 30
0.0
 10
-2345.779217268689
 20
2095.792000202385
 30
0.0
 10
-2341.676058411451
 20
2097.989536411295
 30
0.0
 10
-2339.218439821674
 20
2097.419281051962
 30
0.0
 10
-2338.324472342555
 20
2097.211848642329
 30
0.0
 11
-2356.324472702553
 21
2097.211848642329
 31
0.0
 11
-2350.627553716331
 21
2097.818193971738
 31
0.0
 11
-2345.641189209836
 21
2096.659676370807
 31
0.0
 11
-2341.002714716433
 21
2097.586492525314
 31
0.0
 11
-2338.324472342555
 21
2097.211848642329
 31
0.0
  0
SPLINE
  5
3C4
330
2
100
AcDbEntity
  8
UMRISS02
100
AcDbSpline
210
0.0
220
0.0
230
1.0
 70
  1064
 71
     3
 72
    11
 73
     7
 74
     5
 42
0.0000000001
 43
0.0000000001
 44
0.0000000001
 40
0.0
 40
0.0
 40
0.0
 40
0.0
 40
5.729095966562434
 40
10.848275004582
 40
15.57843713818837
 40
18.28275595302804
 40
18.28275595302804
 40
18.28275595302804
 40
18.28275595302804
 10
-2356.324472702553
 20
2099.456761983032
 30
0.0
 10
-2354.413993888284
 20
2099.91861759381
 30
0.0
 10
-2350.796424957933
 20
2100.793159878906
 30
0.0
 10
-2345.77921726869
 20
2098.036913543091
 30
0.0
 10
-2341.676058411451
 20
2100.234449751998
 30
0.0
 10
-2339.218439821673
 20
2099.664194392665
 30
0.0
 10
-2338.324472342555
 20
2099.456761983032
 30
0.0
 11
-2356.324472702553
 21
2099.456761983032
 31
0.0
 11
-2350.627553716331
 21
2100.063107312444
 31
0.0
 11
-2345.641189209836
 21
2098.904589711512
 31
0.0
 11
-2341.002714716433
 21
2099.831405866018
 31
0.0
 11
-2338.324472342555
 21
2099.456761983032
 31
0.0
  0
ARC
  5
3C5
330
2
100
AcDbEntity
  8
UMRISS03
100
AcDbCircle
 10
-2538.458789904186
 20
2068.882013685783
 30
0.0
 40
2.50000005
100
AcDbArc
 50
180.0
 51
281.5369590328052
  0
ARC
  5
3C6
330
2
100
AcDbEntity
  8
UMRISS03
100
AcDbCircle
 10
-2538.458789904185
 20
2493.782022183784
 30
0.0
 40
2.50000005
100
AcDbArc
 50
78.46304096716959
 51
180.0
  0
LINE
  5
3C7
330
2
100
AcDbEntity
  8
UMRISS03
100
AcDbLine
 10
-2540.958789954187
 20
2068.882013685783
 30
0.0
 11
-2537.958789894187
 21
2068.882013685783
 31
0.0
  0
LINE
  5
3C8
330
2
100
AcDbEntity
  8
UMRISS03
100
AcDbLine
 10
-2540.958789954187
 20
2092.232014152783
 30
0.0
 11
-2541.458789964186
 21
2092.232014152783
 31
0.0
  0
LINE
  5
3C9
330
2
100
AcDbEntity
  8
UMRISS05
100
AcDbLine
 10
-2512.880109736172
 20
2024.732012802783
 30
0.0
 11
-2512.880109736172
 21
2026.432011836783
 31
0.0
  0
LINE
  5
3CA
330
2
100
AcDbEntity
  8
UMRISS03
100
AcDbLine
 10
-2540.958789954186
 20
2493.782022183784
 30
0.0
 11
-2537.958789894185
 21
2493.782022183784
 31
0.0
  0
LINE
  5
3CB
330
2
100
AcDbEntity
  8
UMRISS03
100
AcDbLine
 10
-2540.958789954186
 20
2449.232021292784
 30
0.0
 11
-2541.458789964185
 21
2449.232021292784
 31
0.0
  0
LWPOLYLINE
  5
3CC
330
2
100
AcDbEntity
  8
UMRISS05
100
AcDbPolyline
 90
       12
 70
     0
 43
0.0
 10
-2530.958789754186
 20
2449.232022292783
 10
-2530.958789754186
 20
2450.932022326784
 10
-2510.558789346186
 20
2450.932022326783
 10
-2502.258789180186
 20
2459.232022492784
 10
-2502.258789180185
 20
2506.732023442784
 10
-2510.558789346185
 20
2515.032023608784
 10
-2530.958789754186
 20
2515.032023608784
 10
-2530.958789754186
 20
2516.732023642784
 10
-2542.758789990186
 20
2516.732023642784
 10
-2542.758789990186
 20
2496.732023242784
 10
-2537.958789894185
 20
2496.732023242784
 10
-2537.958789894186
 20
2449.232022292785
  0
LWPOLYLINE
  5
3CD
330
2
100
AcDbEntity
  8
UMRISS05
100
AcDbPolyline
 90
       12
 70
     1
 43
0.0
 10
-2530.958789754186
 20
2026.432011836783
 10
-2530.958789754186
 20
2024.732011802783
 10
-2542.758789990187
 20
2024.732011802783
 10
-2542.758789990187
 20
2044.732012202783
 10
-2537.958789894186
 20
2044.732012202783
 10
-2537.958789894187
 20
2092.232013152783
 10
-2530.958789754186
 20
2092.232013152783
 10
-2530.958789754186
 20
2090.532013118783
 10
-2510.558789346186
 20
2090.532013118783
 10
-2502.258789180186
 20
2082.232012952783
 10
-2502.258789180185
 20
2034.732012002783
 10
-2510.558789346186
 20
2026.432011836783
  0
LINE
  5
3CE
330
2
100
AcDbEntity
  8
ACHSEN
100
AcDbLine
 10
-2536.958789874188
 20
2107.232014452783
 30
0.0
 11
-2551.446904082987
 21
2107.232014452783
 31
0.0
  0
LINE
  5
3CF
330
2
100
AcDbEntity
  8
ACHSEN
100
AcDbLine
 10
-2536.958789874188
 20
2125.232014812783
 30
0.0
 11
-2551.446904082987
 21
2125.232014812783
 31
0.0
  0
LINE
  5
3D0
330
2
100
AcDbEntity
  8
ACHSEN
100
AcDbLine
 10
-2536.958789874187
 20
2143.232015172783
 30
0.0
 11
-2551.446904082987
 21
2143.232015172783
 31
0.0
  0
LINE
  5
3D1
330
2
100
AcDbEntity
  8
ACHSEN
100
AcDbLine
 10
-2536.958789874186
 20
2401.232020332783
 30
0.0
 11
-2551.446904082985
 21
2401.232020332783
 31
0.0
  0
LINE
  5
3D2
330
2
100
AcDbEntity
  8
ACHSEN
100
AcDbLine
 10
-2536.958789874185
 20
2419.232020692783
 30
0.0
 11
-2551.446904082985
 21
2419.232020692783
 31
0.0
  0
LINE
  5
3D3
330
2
100
AcDbEntity
  8
ACHSEN
100
AcDbLine
 10
-2536.958789874186
 20
2437.232021052783
 30
0.0
 11
-2551.446904082985
 21
2437.232021052783
 31
0.0
  0
LINE
  5
3D4
330
2
100
AcDbEntity
  8
1859
100
AcDbLine
 10
-2490.432473154187
 20
2304.705702612785
 30
0.0
 11
-2490.432473154186
 21
2295.758334012785
 31
0.0
  0
LINE
  5
3D7
330
2
100
AcDbEntity
  8
1859
100
AcDbLine
 10
-2481.485104554186
 20
2304.705702612785
 30
0.0
 11
-2490.432473154187
 21
2304.705702612785
 31
0.0
  0
LINE
  5
3D8
330
2
100
AcDbEntity
  8
1859
100
AcDbLine
 10
-2481.485104554186
 20
2304.705702612785
 30
0.0
 11
-2481.485104554186
 21
2295.758334012785
 31
0.0
  0
LINE
  5
3D9
330
2
100
AcDbEntity
  8
1859
100
AcDbLine
 10
-2490.432473154186
 20
2295.758334012785
 30
0.0
 11
-2481.485104554186
 21
2295.758334012785
 31
0.0
  0
LINE
  5
3DA
330
2
100
AcDbEntity
  8
1855
100
AcDbLine
 10
-2481.958788774186
 20
2304.232018392784
 30
0.0
 11
-2489.958788934187
 21
2304.232018392784
 31
0.0
  0
LINE
  5
3DD
330
2
100
AcDbEntity
  8
1855
100
AcDbLine
 10
-2481.958788774186
 20
2304.232018392784
 30
0.0
 11
-2481.958788774186
 21
2296.232018232784
 31
0.0
  0
LINE
  5
3DE
330
2
100
AcDbEntity
  8
1855
100
AcDbLine
 10
-2489.958788934186
 20
2296.232018232784
 30
0.0
 11
-2481.958788774186
 21
2296.232018232784
 31
0.0
  0
LINE
  5
3DF
330
2
100
AcDbEntity
  8
1855
100
AcDbLine
 10
-2489.958788934187
 20
2304.232018392784
 30
0.0
 11
-2489.958788934186
 21
2296.232018232784
 31
0.0
  0
ARC
  5
3E0
330
2
100
AcDbEntity
  8
UMRISS05
100
AcDbCircle
 10
-2537.50898722306
 20
2335.279775108985
 30
0.0
 40
5.500000109999999
100
AcDbArc
 50
317.5000000000022
 51
20.79059068363473
  0
ARC
  5
3E1
330
2
100
AcDbEntity
  8
UMRISS05
100
AcDbCircle
 10
-2537.50898722306
 20
2335.279775108985
 30
0.0
 40
5.0000001
100
AcDbArc
 50
317.5000000000022
 51
22.98242674170726
  0
LINE
  5
3E2
330
2
100
AcDbEntity
  8
UMRISS05
100
AcDbLine
 10
-2539.563048787851
 20
2318.976381267611
 30
0.0
 11
-2539.225253677288
 21
2319.345019943388
 31
0.0
  0
LINE
  5
3E3
330
2
100
AcDbEntity
  8
UMRISS05
100
AcDbLine
 10
-2541.037603490963
 20
2320.327561709866
 30
0.0
 11
-2539.563048787851
 21
2318.976381267611
 31
0.0
  0
LINE
  5
3E4
330
2
100
AcDbEntity
  8
UMRISS05
100
AcDbLine
 10
-2540.699808380399
 20
2320.696200385643
 30
0.0
 11
-2539.225253677288
 21
2319.345019943388
 31
0.0
  0
ARC
  5
3E5
330
2
100
AcDbEntity
  8
UMRISS05
100
AcDbCircle
 10
-2539.348627938144
 20
2322.170755088754
 30
0.0
 40
2.000000039999999
100
AcDbArc
 50
137.5000000000021
 51
227.5000000000021
  0
ARC
  5
3E6
330
2
100
AcDbEntity
  8
UMRISS05
100
AcDbCircle
 10
-2539.348627938144
 20
2322.170755088754
 30
0.0
 40
2.50000005
100
AcDbArc
 50
137.5000000000021
 51
227.5000000000021
  0
LINE
  5
3E7
330
2
100
AcDbEntity
  8
UMRISS05
100
AcDbLine
 10
-2540.823182641255
 20
2323.52193553101
 30
0.0
 11
-2533.453961789503
 21
2331.564028892783
 31
0.0
  0
LINE
  5
3E8
330
2
100
AcDbEntity
  8
UMRISS05
100
AcDbLine
 10
-2541.191821317033
 20
2323.859730641574
 30
0.0
 11
-2533.822600465281
 21
2331.901824003348
 31
0.0
  0
LINE
  5
3E9
330
2
100
AcDbEntity
  8
UMRISS03
100
AcDbLine
 10
-2541.458789964186
 20
2339.232019092784
 30
0.0
 11
-2542.958789994186
 21
2339.232019092784
 31
0.0
  0
ARC
  5
3EA
330
2
100
AcDbEntity
  8
UMRISS03
100
AcDbCircle
 10
-2541.458789964186
 20
2337.732019062784
 30
0.0
 40
1.500000029999999
100
AcDbArc
 50
340.528400350041
 51
90.0
  0
LINE
  5
3EB
330
2
100
AcDbEntity
  8
UMRISS03
100
AcDbLine
 10
-2541.458789964186
 20
2339.232019092784
 30
0.0
 11
-2541.458789964186
 21
2369.232019692784
 31
0.0
  0
LINE
  5
3EC
330
2
100
AcDbEntity
  8
UMRISS03
100
AcDbLine
 10
-2540.958789954186
 20
2359.782019503784
 30
0.0
 11
-2540.958789954186
 21
2373.385571561388
 31
0.0
  0
LINE
  5
3ED
330
2
100
AcDbEntity
  8
UMRISS03
100
AcDbLine
 10
-2540.958789954186
 20
2370.432019716784
 30
0.0
 11
-2538.458789904186
 21
2370.432019716784
 31
0.0
  0
LINE
  5
3EE
330
2
100
AcDbEntity
  8
UMRISS03
100
AcDbLine
 10
-2540.958789954186
 20
2365.132019610784
 30
0.0
 11
-2538.458789904187
 21
2365.132019610784
 31
0.0
  0
LINE
  5
3EF
330
2
100
AcDbEntity
  8
UMRISS03
100
AcDbLine
 10
-2538.458789904186
 20
2359.782019503784
 30
0.0
 11
-2538.458789904186
 21
2373.894989324748
 31
0.0
  0
LINE
  5
3F0
330
2
100
AcDbEntity
  8
UMRISS03
100
AcDbLine
 10
-2538.458789904186
 20
2359.782019503784
 30
0.0
 11
-2540.958789954186
 21
2359.782019503784
 31
0.0
  0
LINE
  5
3F1
330
2
100
AcDbEntity
  8
UMRISS03
100
AcDbLine
 10
-2540.958789954186
 20
2192.732016162784
 30
0.0
 11
-2538.458789904186
 21
2192.732016162784
 31
0.0
  0
LINE
  5
3F2
330
2
100
AcDbEntity
  8
UMRISS03
100
AcDbLine
 10
-2538.458789904186
 20
2203.382016375784
 30
0.0
 11
-2538.458789904186
 21
2171.799973935932
 31
0.0
  0
LINE
  5
3F3
330
2
100
AcDbEntity
  8
UMRISS03
100
AcDbLine
 10
-2540.958789954186
 20
2198.032016268784
 30
0.0
 11
-2538.458789904186
 21
2198.032016268784
 31
0.0
  0
LINE
  5
3F4
330
2
100
AcDbEntity
  8
UMRISS03
100
AcDbLine
 10
-2540.958789954186
 20
2203.382016375784
 30
0.0
 11
-2540.958789954186
 21
2171.290556172571
 31
0.0
  0
LINE
  5
3F5
330
2
100
AcDbEntity
  8
UMRISS03
100
AcDbLine
 10
-2538.458789904186
 20
2203.382016375784
 30
0.0
 11
-2540.958789954186
 21
2203.382016375784
 31
0.0
  0
ARC
  5
3F6
330
2
100
AcDbEntity
  8
UMRISS03
100
AcDbCircle
 10
-2541.458789964186
 20
2201.232016332783
 30
0.0
 40
1.500000029999999
100
AcDbArc
 50
270.0
 51
289.4712206344717
  0
LINE
  5
3F7
330
2
100
AcDbEntity
  8
UMRISS03
100
AcDbLine
 10
-2542.958789994186
 20
2199.732016302783
 30
0.0
 11
-2541.458789964186
 21
2199.732016302783
 31
0.0
  0
LINE
  5
3F8
330
2
100
AcDbEntity
  8
UMRISS03
100
AcDbLine
 10
-2539.958789934186
 20
2203.382016375784
 30
0.0
 11
-2539.958789934186
 21
2205.732016422784
 31
0.0
  0
LINE
  5
3F9
330
2
100
AcDbEntity
  8
UMRISS03
100
AcDbLine
 10
-2541.458789964186
 20
2175.232015812783
 30
0.0
 11
-2541.458789964186
 21
2199.732016302783
 31
0.0
  0
LINE
  5
3FA
330
2
100
AcDbEntity
  8
UMRISS05
100
AcDbLine
 10
-2542.958789994186
 20
2337.232009697676
 30
0.0
 11
-2537.958789894187
 21
2337.232009697676
 31
0.0
  0
LINE
  5
3FB
330
2
100
AcDbEntity
  8
UMRISS05
100
AcDbLine
 10
-2545.958790054186
 20
2334.232009637676
 30
0.0
 11
-2555.958772822414
 21
2334.232009637676
 31
0.0
  0
LINE
  5
3FC
330
2
100
AcDbEntity
  8
UMRISS05
100
AcDbLine
 10
-2545.958790054186
 20
2310.232009157676
 30
0.0
 11
-2555.958772822414
 21
2310.232009157676
 31
0.0
  0
LINE
  5
3FD
330
2
100
AcDbEntity
  8
UMRISS05
100
AcDbLine
 10
-2565.958790454186
 20
2229.232007537675
 30
0.0
 11
-2565.958790454186
 21
2259.232008137675
 31
0.0
  0
LINE
  5
3FE
330
2
100
AcDbEntity
  8
UMRISS05
100
AcDbLine
 10
-2565.958790454186
 20
2229.232007537675
 30
0.0
 11
-2545.958790054186
 21
2229.232007537675
 31
0.0
  0
LINE
  5
3FF
330
2
100
AcDbEntity
  8
UMRISS05
100
AcDbLine
 10
-2565.958790454186
 20
2259.232008137675
 30
0.0
 11
-2545.958790054186
 21
2259.232008137675
 31
0.0
  0
LINE
  5
400
330
2
100
AcDbEntity
  8
UMRISS05
100
AcDbLine
 10
-2541.958772542414
 20
2334.232009637676
 30
0.0
 11
-2542.958789994186
 21
2334.232009637676
 31
0.0
  0
ARC
  5
401
330
2
100
AcDbEntity
  8
UMRISS05
100
AcDbCircle
 10
-2535.958772422413
 20
2322.232009397676
 30
0.0
 40
3.000000059999999
100
AcDbArc
 50
90.0
 51
270.0
  0
LINE
  5
402
330
2
100
AcDbEntity
  8
UMRISS05
100
AcDbLine
 10
-2538.95804387381
 20
2310.732152530714
 30
0.0
 11
-2538.95804387381
 21
2308.232018472784
 31
0.0
  0
ARC
  5
403
330
2
100
AcDbEntity
  8
UMRISS05
100
AcDbCircle
 10
-2536.95804383381
 20
2310.732152530714
 30
0.0
 40
2.000000039999999
100
AcDbArc
 50
90.0
 51
180.0
  0
LINE
  5
404
330
2
100
AcDbEntity
  8
UMRISS05
100
AcDbLine
 10
-2541.958772542414
 20
2310.232009157676
 30
0.0
 11
-2542.958789994186
 21
2310.232009157676
 31
0.0
  0
LINE
  5
405
330
2
100
AcDbEntity
  8
UMRISS05
100
AcDbLine
 10
-2555.958772822414
 20
2307.232009097676
 30
0.0
 11
-2545.958790054186
 21
2307.232009097676
 31
0.0
  0
LINE
  5
406
330
2
100
AcDbEntity
  8
UMRISS05
100
AcDbLine
 10
-2555.958772822414
 20
2307.232009097676
 30
0.0
 11
-2555.958772822414
 21
2337.232009697676
 31
0.0
  0
LINE
  5
407
330
2
100
AcDbEntity
  8
UMRISS05
100
AcDbLine
 10
-2546.958772642414
 20
2310.232009157676
 30
0.0
 11
-2546.958772642414
 21
2334.232009637676
 31
0.0
  0
LINE
  5
408
330
2
100
AcDbEntity
  8
UMRISS05
100
AcDbLine
 10
-2541.958772542414
 20
2310.232009157676
 30
0.0
 11
-2541.958772542414
 21
2334.232009637676
 31
0.0
  0
LINE
  5
409
330
2
100
AcDbEntity
  8
UMRISS05
100
AcDbLine
 10
-2555.958772822414
 20
2337.232009697676
 30
0.0
 11
-2545.958790054186
 21
2337.232009697676
 31
0.0
  0
LINE
  5
40A
330
2
100
AcDbEntity
  8
UMRISS05
100
AcDbLine
 10
-2535.958772422413
 20
2319.232009337675
 30
0.0
 11
-2531.458789764187
 21
2319.232009337675
 31
0.0
  0
LINE
  5
40B
330
2
100
AcDbEntity
  8
UMRISS05
100
AcDbLine
 10
-2535.958772422413
 20
2325.232009457676
 30
0.0
 11
-2531.458789764187
 21
2325.232009457676
 31
0.0
  0
LINE
  5
40C
330
2
100
AcDbEntity
  8
UMRISS05
100
AcDbLine
 10
-2536.95804383381
 20
2312.732152570714
 30
0.0
 11
-2531.458789764187
 21
2312.732152570714
 31
0.0
  0
LINE
  5
40D
330
2
100
AcDbEntity
  8
ACHSEN
100
AcDbLine
 10
-2347.324472522556
 20
2113.332014574783
 30
0.0
 11
-2347.324472522556
 21
2101.132014330783
 31
0.0
  0
CIRCLE
  5
40E
330
2
100
AcDbEntity
  8
UMRISS03
100
AcDbCircle
 10
-2347.324472522556
 20
2107.232014452783
 30
0.0
 40
2.150000042999999
  0
LINE
  5
40F
330
2
100
AcDbEntity
  8
ACHSEN
100
AcDbLine
 10
-2341.224472400556
 20
2107.232014452783
 30
0.0
 11
-2353.424472644555
 21
2107.232014452783
 31
0.0
  0
CIRCLE
  5
410
330
2
100
AcDbEntity
  8
UMRISS03
100
AcDbCircle
 10
-2347.324472522556
 20
2107.232014452783
 30
0.0
 40
4.100000081999999
  0
LINE
  5
411
330
2
100
AcDbEntity
  8
ACHSEN
100
AcDbLine
 10
-2347.324472522556
 20
2131.332014934784
 30
0.0
 11
-2347.324472522556
 21
2119.132014690784
 31
0.0
  0
CIRCLE
  5
412
330
2
100
AcDbEntity
  8
UMRISS03
100
AcDbCircle
 10
-2347.324472522556
 20
2125.232014812783
 30
0.0
 40
2.150000042999999
  0
LINE
  5
413
330
2
100
AcDbEntity
  8
ACHSEN
100
AcDbLine
 10
-2341.224472400556
 20
2125.232014812783
 30
0.0
 11
-2353.424472644555
 21
2125.232014812783
 31
0.0
  0
CIRCLE
  5
414
330
2
100
AcDbEntity
  8
UMRISS03
100
AcDbCircle
 10
-2347.324472522556
 20
2125.232014812783
 30
0.0
 40
4.100000081999999
  0
LINE
  5
415
330
2
100
AcDbEntity
  8
ACHSEN
100
AcDbLine
 10
-2347.324472522556
 20
2149.332015294783
 30
0.0
 11
-2347.324472522556
 21
2137.132015050783
 31
0.0
  0
CIRCLE
  5
416
330
2
100
AcDbEntity
  8
UMRISS03
100
AcDbCircle
 10
-2347.324472522556
 20
2143.232015172783
 30
0.0
 40
2.150000042999999
  0
LINE
  5
417
330
2
100
AcDbEntity
  8
ACHSEN
100
AcDbLine
 10
-2341.224472400555
 20
2143.232015172783
 30
0.0
 11
-2353.424472644555
 21
2143.232015172783
 31
0.0
  0
CIRCLE
  5
418
330
2
100
AcDbEntity
  8
UMRISS03
100
AcDbCircle
 10
-2347.324472522556
 20
2143.232015172783
 30
0.0
 40
4.100000081999999
  0
LINE
  5
419
330
2
100
AcDbEntity
  8
ACHSEN
100
AcDbLine
 10
-2347.324472522554
 20
2443.332021174783
 30
0.0
 11
-2347.324472522554
 21
2431.132020930784
 31
0.0
  0
CIRCLE
  5
41A
330
2
100
AcDbEntity
  8
UMRISS03
100
AcDbCircle
 10
-2347.324472522554
 20
2437.232021052783
 30
0.0
 40
2.150000042999999
  0
LINE
  5
41B
330
2
100
AcDbEntity
  8
ACHSEN
100
AcDbLine
 10
-2341.224472400554
 20
2437.232021052783
 30
0.0
 11
-2353.424472644554
 21
2437.232021052783
 31
0.0
  0
CIRCLE
  5
41C
330
2
100
AcDbEntity
  8
UMRISS03
100
AcDbCircle
 10
-2347.324472522554
 20
2437.232021052783
 30
0.0
 40
4.100000081999999
  0
LINE
  5
41D
330
2
100
AcDbEntity
  8
ACHSEN
100
AcDbLine
 10
-2347.324472522554
 20
2425.332020814784
 30
0.0
 11
-2347.324472522554
 21
2413.132020570783
 31
0.0
  0
CIRCLE
  5
41E
330
2
100
AcDbEntity
  8
UMRISS03
100
AcDbCircle
 10
-2347.324472522554
 20
2419.232020692783
 30
0.0
 40
2.150000042999999
  0
LINE
  5
41F
330
2
100
AcDbEntity
  8
ACHSEN
100
AcDbLine
 10
-2341.224472400554
 20
2419.232020692783
 30
0.0
 11
-2353.424472644554
 21
2419.232020692783
 31
0.0
  0
CIRCLE
  5
420
330
2
100
AcDbEntity
  8
UMRISS03
100
AcDbCircle
 10
-2347.324472522554
 20
2419.232020692783
 30
0.0
 40
4.100000081999999
  0
LINE
  5
421
330
2
100
AcDbEntity
  8
ACHSEN
100
AcDbLine
 10
-2347.324472522554
 20
2407.332020454783
 30
0.0
 11
-2347.324472522554
 21
2395.132020210783
 31
0.0
  0
CIRCLE
  5
422
330
2
100
AcDbEntity
  8
UMRISS03
100
AcDbCircle
 10
-2347.324472522554
 20
2401.232020332783
 30
0.0
 40
2.150000042999999
  0
LINE
  5
423
330
2
100
AcDbEntity
  8
ACHSEN
100
AcDbLine
 10
-2341.224472400554
 20
2401.232020332783
 30
0.0
 11
-2353.424472644554
 21
2401.232020332783
 31
0.0
  0
CIRCLE
  5
424
330
2
100
AcDbEntity
  8
UMRISS03
100
AcDbCircle
 10
-2347.324472522554
 20
2401.232020332783
 30
0.0
 40
4.100000081999999
  0
LINE
  5
425
330
2
100
AcDbEntity
  8
ACHSEN
100
AcDbLine
 10
-2341.224472400555
 20
2383.232019972784
 30
0.0
 11
-2353.424472644554
 21
2383.232019972784
 31
0.0
  0
LINE
  5
426
330
2
100
AcDbEntity
  8
ACHSEN
100
AcDbLine
 10
-2347.324472522554
 20
2389.332020094784
 30
0.0
 11
-2347.324472522554
 21
2377.132019850784
 31
0.0
  0
LINE
  5
427
330
2
100
AcDbEntity
  8
ACHSEN
100
AcDbLine
 10
-2341.474472405554
 20
2203.832016384778
 30
0.0
 11
-2354.974472675555
 21
2203.832016384778
 31
0.0
  0
LINE
  5
428
330
2
100
AcDbEntity
  8
ACHSEN
100
AcDbLine
 10
-2348.224472540554
 20
2210.582016519778
 30
0.0
 11
-2348.224472540554
 21
2197.082016249778
 31
0.0
  0
LINE
  5
429
330
2
100
AcDbEntity
  8
ACHSEN
100
AcDbLine
 10
-2341.224472400555
 20
2161.232015532783
 30
0.0
 11
-2353.424472644555
 21
2161.232015532783
 31
0.0
  0
LINE
  5
42A
330
2
100
AcDbEntity
  8
ACHSEN
100
AcDbLine
 10
-2347.324472522556
 20
2167.332015654784
 30
0.0
 11
-2347.324472522556
 21
2155.132015410783
 31
0.0
  0
LINE
  5
42B
330
2
100
AcDbEntity
  8
ACHSEN
100
AcDbLine
 10
-2478.958788714186
 20
2346.232019232784
 30
0.0
 11
-2492.958788994187
 21
2346.232019232784
 31
0.0
  0
LINE
  5
42C
330
2
100
AcDbEntity
  8
ACHSEN
100
AcDbLine
 10
-2485.958788854186
 20
2353.232019372784
 30
0.0
 11
-2485.958788854186
 21
2195.932016226784
 31
0.0
  0
LINE
  5
42D
330
2
100
AcDbEntity
  8
ACHSEN
100
AcDbLine
 10
-2504.958789234186
 20
2304.832018404784
 30
0.0
 11
-2504.958789234186
 21
2295.632018220785
 31
0.0
  0
LINE
  5
42E
330
2
100
AcDbEntity
  8
ACHSEN
100
AcDbLine
 10
-2462.358788382187
 20
2300.232018312785
 30
0.0
 11
-2509.558789326186
 21
2300.232018312785
 31
0.0
  0
LINE
  5
42F
330
2
100
AcDbEntity
  8
ACHSEN
100
AcDbLine
 10
-2466.958788474187
 20
2304.832018404784
 30
0.0
 11
-2466.958788474187
 21
2295.632018220785
 31
0.0
  0
LINE
  5
430
330
2
100
AcDbEntity
  8
ACHSEN
100
AcDbLine
 10
-2478.958788714186
 20
2278.732017882788
 30
0.0
 11
-2492.958788994187
 21
2278.732017882788
 31
0.0
  0
LINE
  5
431
330
2
100
AcDbEntity
  8
ACHSEN
100
AcDbLine
 10
-2479.658788728186
 20
2202.232016352784
 30
0.0
 11
-2492.258788980187
 21
2202.232016352784
 31
0.0
  0
LINE
  5
432
330
2
100
AcDbEntity
  8
ACHSEN
100
AcDbLine
 10
-2472.858788592186
 20
2222.232016752784
 30
0.0
 11
-2499.058789116186
 21
2222.232016752784
 31
0.0
  0
LINE
  5
433
330
2
100
AcDbEntity
  8
ACHSEN
100
AcDbLine
 10
-2461.458788364186
 20
2214.832016604785
 30
0.0
 11
-2472.458788584186
 21
2214.832016604785
 31
0.0
  0
LINE
  5
434
330
2
100
AcDbEntity
  8
ACHSEN
100
AcDbLine
 10
-2466.958788474187
 20
2220.332016714785
 30
0.0
 11
-2466.958788474187
 21
2209.332016494785
 31
0.0
  0
LINE
  5
435
330
2
100
AcDbEntity
  8
ACHSEN
100
AcDbLine
 10
-2471.358788562187
 20
2207.732016462784
 30
0.0
 11
-2480.558788746186
 21
2207.732016462784
 31
0.0
  0
LINE
  5
436
330
2
100
AcDbEntity
  8
ACHSEN
100
AcDbLine
 10
-2475.958788654186
 20
2212.332016554785
 30
0.0
 11
-2475.958788654186
 21
2203.132016370785
 31
0.0
  0
LINE
  5
437
330
2
100
AcDbEntity
  8
ACHSEN
100
AcDbLine
 10
-2495.958789054187
 20
2207.732016462784
 30
0.0
 11
-2491.358788962186
 21
2207.732016462784
 31
0.0
  0
LINE
  5
438
330
2
100
AcDbEntity
  8
ACHSEN
100
AcDbLine
 10
-2495.958789054187
 20
2207.732016462784
 30
0.0
 11
-2500.558789146186
 21
2207.732016462784
 31
0.0
  0
LINE
  5
439
330
2
100
AcDbEntity
  8
ACHSEN
100
AcDbLine
 10
-2495.958789054187
 20
2212.332016554785
 30
0.0
 11
-2495.958789054187
 21
2203.132016370785
 31
0.0
  0
LINE
  5
43A
330
2
100
AcDbEntity
  8
ACHSEN
100
AcDbLine
 10
-2499.458789124187
 20
2214.832016604785
 30
0.0
 11
-2510.458789344186
 21
2214.832016604785
 31
0.0
  0
LINE
  5
43B
330
2
100
AcDbEntity
  8
ACHSEN
100
AcDbLine
 10
-2504.958789234186
 20
2220.332016714785
 30
0.0
 11
-2504.958789234186
 21
2209.332016494785
 31
0.0
  0
LWPOLYLINE
  5
43C
330
2
100
AcDbEntity
  8
UMRISS05
100
AcDbPolyline
 90
        4
 70
     1
 43
0.0
 10
-2480.858788752187
 20
2203.032016368784
 10
-2480.858788752187
 20
2212.373010520511
 42
4.109609026488815
 10
-2491.058788956186
 20
2212.373010520511
 10
-2491.058788956186
 20
2203.032016368784
 42
1.0
  0
CIRCLE
  5
43D
330
2
100
AcDbEntity
  8
UMRISS05
100
AcDbCircle
 10
-2475.958788654186
 20
2207.732016462784
 30
0.0
 40
2.600000051999999
  0
CIRCLE
  5
43E
330
2
100
AcDbEntity
  8
UMRISS05
100
AcDbCircle
 10
-2495.958789054187
 20
2207.732016462784
 30
0.0
 40
2.600000051999999
  0
LWPOLYLINE
  5
43F
330
2
100
AcDbEntity
  8
ACHSEN
100
AcDbPolyline
 90
        4
 70
     1
 43
0.0
 10
-2491.058788956186
 20
2202.232016352784
 10
-2491.058788956186
 20
2215.307422763387
 42
-3.044038009981497
 10
-2480.858788752187
 20
2215.307422763387
 10
-2480.858788752187
 20
2202.232016352784
 42
-0.9999999999999998
  0
LINE
  5
440
330
2
100
AcDbEntity
  8
UMRISS05
100
AcDbLine
 10
-2490.458788944187
 20
1880.696066105774
 30
0.0
 11
-2481.458788764186
 21
1880.696066105774
 31
0.0
  0
ARC
  5
441
330
2
100
AcDbEntity
  8
UMRISS05
100
AcDbCircle
 10
-2483.658788808186
 20
2351.006953882807
 30
0.0
 40
0.300000006
100
AcDbArc
 50
180.0
 51
244.2807204978169
  0
ARC
  5
442
330
2
100
AcDbEntity
  8
UMRISS05
100
AcDbCircle
 10
-2488.258788900186
 20
2351.006953882807
 30
0.0
 40
0.300000006
100
AcDbArc
 50
295.7192795021831
 51
0.0
  0
CIRCLE
  5
443
330
2
100
AcDbEntity
  8
UMRISS05
100
AcDbCircle
 10
-2485.958788854186
 20
2278.732017882788
 30
0.0
 40
5.0000001
  0
LINE
  5
444
330
2
100
AcDbEntity
  8
UMRISS05
100
AcDbLine
 10
-2483.958788814188
 20
1878.296066057774
 30
0.0
 11
-2483.958788814188
 21
1879.796066087774
 31
0.0
  0
LINE
  5
445
330
2
100
AcDbEntity
  8
UMRISS05
100
AcDbLine
 10
-2487.958788894188
 20
1878.296066057774
 30
0.0
 11
-2487.958788894188
 21
1879.796066087774
 31
0.0
  0
LINE
  5
446
330
2
100
AcDbEntity
  8
UMRISS05
100
AcDbLine
 10
-2490.458788944187
 20
1879.796066087774
 30
0.0
 11
-2481.458788764186
 21
1879.796066087774
 31
0.0
  0
LINE
  5
447
330
2
100
AcDbEntity
  8
UMRISS05
100
AcDbLine
 10
-2481.458788764186
 20
1878.296066057774
 30
0.0
 11
-2481.458788764186
 21
1890.996066311775
 31
0.0
  0
LINE
  5
448
330
2
100
AcDbEntity
  8
UMRISS05
100
AcDbLine
 10
-2490.458788944187
 20
1878.296066057774
 30
0.0
 11
-2490.458788944187
 21
1890.996066311775
 31
0.0
  0
ARC
  5
449
330
2
100
AcDbEntity
  8
UMRISS05
100
AcDbCircle
 10
-2483.658788808186
 20
2351.432019336785
 30
0.0
 40
0.300000006
100
AcDbArc
 50
90.0
 51
180.0
  0
ARC
  5
44A
330
2
100
AcDbEntity
  8
UMRISS05
100
AcDbCircle
 10
-2488.258788900186
 20
2351.432019336785
 30
0.0
 40
0.300000006
100
AcDbArc
 50
0.0
 51
90.0
  0
LINE
  5
44B
330
2
100
AcDbEntity
  8
UMRISS05
100
AcDbLine
 10
-2483.658788808186
 20
2351.732019342785
 30
0.0
 11
-2474.758788630187
 21
2351.732019342785
 31
0.0
  0
LINE
  5
44C
330
2
100
AcDbEntity
  8
UMRISS05
100
AcDbLine
 10
-2483.958788814187
 20
2351.006953882807
 30
0.0
 11
-2483.958788814187
 21
2351.432019336785
 31
0.0
  0
LINE
  5
44D
330
2
100
AcDbEntity
  8
UMRISS05
100
AcDbLine
 10
-2487.958788894187
 20
2351.006953882807
 30
0.0
 11
-2487.958788894187
 21
2351.432019336785
 31
0.0
  0
LINE
  5
44E
330
2
100
AcDbEntity
  8
UMRISS05
100
AcDbLine
 10
-2474.758788630187
 20
2194.232016192785
 30
0.0
 11
-2474.453763370917
 21
2194.358361792041
 31
0.0
  0
LINE
  5
44F
330
2
100
AcDbEntity
  8
UMRISS05
100
AcDbLine
 10
-2474.758788630187
 20
2192.732016162784
 30
0.0
 11
-2474.758788630187
 21
2194.232016192785
 31
0.0
  0
LINE
  5
450
330
2
100
AcDbEntity
  8
UMRISS05
100
AcDbLine
 10
-2473.393103177924
 20
2193.297701599048
 30
0.0
 11
-2474.453763370917
 21
2194.358361792041
 31
0.0
  0
LINE
  5
451
330
2
100
AcDbEntity
  8
UMRISS05
100
AcDbLine
 10
-2474.758788630187
 20
2350.232019312784
 30
0.0
 11
-2474.453763370917
 21
2350.105673713529
 31
0.0
  0
LINE
  5
452
330
2
100
AcDbEntity
  8
UMRISS05
100
AcDbLine
 10
-2473.393103177924
 20
2351.166333906521
 30
0.0
 11
-2474.453763370917
 21
2350.105673713529
 31
0.0
  0
LINE
  5
453
330
2
100
AcDbEntity
  8
UMRISS05
100
AcDbLine
 10
-2474.758788630187
 20
2351.732019342785
 30
0.0
 11
-2474.758788630187
 21
2350.232019312784
 31
0.0
  0
LINE
  5
454
330
2
100
AcDbEntity
  8
UMRISS05
100
AcDbLine
 10
-2502.258789180185
 20
1890.996066311775
 30
0.0
 11
-2456.958788274187
 21
1890.996066311775
 31
0.0
  0
LINE
  5
455
330
2
100
AcDbEntity
  8
UMRISS05
100
AcDbLine
 10
-2473.51944877718
 20
1890.996066311775
 30
0.0
 11
-2473.51944877718
 21
1878.296066057774
 31
0.0
  0
LINE
  5
456
330
2
100
AcDbEntity
  8
UMRISS05
100
AcDbLine
 10
-2474.580108970173
 20
1890.996066311775
 30
0.0
 11
-2474.580108970173
 21
1878.296066057774
 31
0.0
  0
LINE
  5
457
330
2
100
AcDbEntity
  8
UMRISS05
100
AcDbLine
 10
-2542.958789994186
 20
1878.296066057774
 30
0.0
 11
-2456.958788274187
 21
1878.296066057774
 31
0.0
  0
LINE
  5
458
330
2
100
AcDbEntity
  8
UMRISS05
100
AcDbLine
 10
-2456.958788274187
 20
1890.996066311775
 30
0.0
 11
-2456.958788274187
 21
1878.296066057774
 31
0.0
  0
LINE
  5
459
330
2
100
AcDbEntity
  8
UMRISS05
100
AcDbLine
 10
-2456.958788274187
 20
2209.732016502785
 30
0.0
 11
-2458.01944846718
 21
2210.792676695778
 31
0.0
  0
LINE
  5
45A
330
2
100
AcDbEntity
  8
UMRISS05
100
AcDbLine
 10
-2458.01944846718
 20
2210.792676695778
 30
0.0
 11
-2456.958788274187
 21
2211.853336888771
 31
0.0
  0
LINE
  5
45B
330
2
100
AcDbEntity
  8
UMRISS05
100
AcDbLine
 10
-2458.01944846718
 20
2333.671358809791
 30
0.0
 11
-2456.958788274187
 21
2332.610698616798
 31
0.0
  0
LINE
  5
45C
330
2
100
AcDbEntity
  8
UMRISS05
100
AcDbLine
 10
-2473.393103177924
 20
2193.297701599048
 30
0.0
 11
-2456.958788274187
 21
2209.732016502785
 31
0.0
  0
LINE
  5
45D
330
2
100
AcDbEntity
  8
UMRISS05
100
AcDbLine
 10
-2456.958788274187
 20
2209.732016502785
 30
0.0
 11
-2458.01944846718
 21
2210.792676695778
 31
0.0
  0
LINE
  5
45E
330
2
100
AcDbEntity
  8
UMRISS05
100
AcDbLine
 10
-2506.749903670865
 20
2194.232016192785
 30
0.0
 11
-2506.749903670865
 21
2192.732016162784
 31
0.0
  0
LINE
  5
45F
330
2
100
AcDbEntity
  8
UMRISS05
100
AcDbLine
 10
-2506.749903670865
 20
2192.732016162784
 30
0.0
 11
-2474.758788630187
 21
2192.732016162784
 31
0.0
  0
LINE
  5
460
330
2
100
AcDbEntity
  8
UMRISS05
100
AcDbLine
 10
-2456.958788274187
 20
2334.732019002784
 30
0.0
 11
-2458.01944846718
 21
2333.671358809791
 31
0.0
  0
LINE
  5
461
330
2
100
AcDbEntity
  8
UMRISS05
100
AcDbLine
 10
-2517.958789494187
 20
2372.232019752784
 30
0.0
 11
-2538.458789904186
 21
2372.232019752784
 31
0.0
  0
LINE
  5
462
330
2
100
AcDbEntity
  8
UMRISS05
100
AcDbLine
 10
-2524.204815022891
 20
2370.532019718784
 30
0.0
 11
-2524.204815022892
 21
2372.232019752784
 31
0.0
  0
LINE
  5
463
330
2
100
AcDbEntity
  8
UMRISS05
100
AcDbLine
 10
-2533.208789799188
 20
2370.532019718785
 30
0.0
 11
-2524.204815022891
 21
2370.532019718784
 31
0.0
  0
LINE
  5
464
330
2
100
AcDbEntity
  8
UMRISS05
100
AcDbLine
 10
-2533.208789799188
 20
2372.232019752784
 30
0.0
 11
-2533.208789799188
 21
2370.532019718785
 31
0.0
  0
LINE
  5
465
330
2
100
AcDbEntity
  8
UMRISS05
100
AcDbLine
 10
-2537.958789894187
 20
2337.232019052785
 30
0.0
 11
-2537.958789894187
 21
2372.232019752784
 31
0.0
  0
LINE
  5
466
330
2
100
AcDbEntity
  8
UMRISS05
100
AcDbLine
 10
-2531.458789764186
 20
2337.232019052785
 30
0.0
 11
-2537.958789894187
 21
2337.232019052785
 31
0.0
  0
LINE
  5
467
330
2
100
AcDbEntity
  8
UMRISS05
100
AcDbLine
 10
-2531.458789764187
 20
2308.232018472784
 30
0.0
 11
-2531.458789764186
 21
2337.232019052785
 31
0.0
  0
LINE
  5
468
330
2
100
AcDbEntity
  8
UMRISS05
100
AcDbLine
 10
-2542.958789994187
 20
2308.232018472784
 30
0.0
 11
-2531.458789764187
 21
2308.232018472784
 31
0.0
  0
LINE
  5
469
330
2
100
AcDbEntity
  8
UMRISS05
100
AcDbLine
 10
-2542.958789994187
 20
2205.732016422784
 30
0.0
 11
-2542.958789994187
 21
2308.232018472784
 31
0.0
  0
LINE
  5
46A
330
2
100
AcDbEntity
  8
UMRISS05
100
AcDbLine
 10
-2537.958789894187
 20
2205.732016422784
 30
0.0
 11
-2542.958789994187
 21
2205.732016422784
 31
0.0
  0
LINE
  5
46B
330
2
100
AcDbEntity
  8
UMRISS05
100
AcDbLine
 10
-2537.958789894187
 20
2172.232015752785
 30
0.0
 11
-2537.958789894187
 21
2205.732016422784
 31
0.0
  0
LINE
  5
46C
330
2
100
AcDbEntity
  8
UMRISS05
100
AcDbLine
 10
-2530.708789749188
 20
2173.932015786784
 30
0.0
 11
-2530.708789749188
 21
2172.232015752785
 31
0.0
  0
LINE
  5
46D
330
2
100
AcDbEntity
  8
UMRISS05
100
AcDbLine
 10
-2524.204815022892
 20
2173.932015786784
 30
0.0
 11
-2530.708789749188
 21
2173.932015786784
 31
0.0
  0
LINE
  5
46E
330
2
100
AcDbEntity
  8
UMRISS05
100
AcDbLine
 10
-2524.204815022892
 20
2172.232015752785
 30
0.0
 11
-2524.204815022892
 21
2173.932015786784
 31
0.0
  0
LINE
  5
46F
330
2
100
AcDbEntity
  8
UMRISS05
100
AcDbLine
 10
-2517.958789494187
 20
2172.232015752784
 30
0.0
 11
-2538.458789904186
 21
2172.232015752785
 31
0.0
  0
LINE
  5
470
330
2
100
AcDbEntity
  8
UMRISS05
100
AcDbLine
 10
-2506.958789274186
 20
2191.284575017094
 30
0.0
 11
-2517.958789494187
 21
2172.232015752784
 31
0.0
  0
LINE
  5
471
330
2
100
AcDbEntity
  8
UMRISS05
100
AcDbLine
 10
-2510.749903750865
 20
2194.232016192784
 30
0.0
 11
-2510.749903750864
 21
2184.718172126178
 31
0.0
  0
LINE
  5
472
330
2
100
AcDbEntity
  8
UMRISS05
100
AcDbLine
 10
-2506.749903670865
 20
2194.232016192785
 30
0.0
 11
-2510.749903750865
 21
2194.232016192784
 31
0.0
  0
LINE
  5
473
330
2
100
AcDbEntity
  8
UMRISS05
100
AcDbLine
 10
-2456.958788274187
 20
2332.610698616798
 30
0.0
 11
-2456.958788274187
 21
2211.853336888771
 31
0.0
  0
LINE
  5
474
330
2
100
AcDbEntity
  8
UMRISS05
100
AcDbLine
 10
-2473.393103177924
 20
2351.166333906521
 30
0.0
 11
-2456.958788274187
 21
2334.732019002784
 31
0.0
  0
LINE
  5
475
330
2
100
AcDbEntity
  8
UMRISS05
100
AcDbLine
 10
-2506.749903670865
 20
2350.232019312784
 30
0.0
 11
-2506.749903670865
 21
2351.732019342785
 31
0.0
  0
LINE
  5
476
330
2
100
AcDbEntity
  8
UMRISS05
100
AcDbLine
 10
-2510.749903750865
 20
2350.232019312785
 30
0.0
 11
-2506.749903670865
 21
2350.232019312784
 31
0.0
  0
LINE
  5
477
330
2
100
AcDbEntity
  8
UMRISS05
100
AcDbLine
 10
-2510.749903750864
 20
2359.74586337939
 30
0.0
 11
-2510.749903750865
 21
2350.232019312785
 31
0.0
  0
LINE
  5
478
330
2
100
AcDbEntity
  8
UMRISS05
100
AcDbLine
 10
-2517.958789494187
 20
2372.232019752784
 30
0.0
 11
-2506.958789274186
 21
2353.179460488474
 31
0.0
  0
LINE
  5
479
330
2
100
AcDbEntity
  8
UMRISS05
100
AcDbLine
 10
-2506.749903670865
 20
2351.732019342785
 30
0.0
 11
-2488.258788900186
 21
2351.732019342785
 31
0.0
  0
ARC
  5
47A
330
2
100
AcDbEntity
  8
UMRISS05
100
AcDbCircle
 10
-2485.958788854186
 20
2346.232019232784
 30
0.0
 40
5.0000001
100
AcDbArc
 50
115.7192795021831
 51
64.28072049781693
  0
CIRCLE
  5
47B
330
2
100
AcDbEntity
  8
UMRISS05
100
AcDbCircle
 10
-2466.958788474187
 20
2300.232018312785
 30
0.0
 40
2.600000051999999
  0
CIRCLE
  5
47C
330
2
100
AcDbEntity
  8
UMRISS05
100
AcDbCircle
 10
-2504.958789234186
 20
2300.232018312785
 30
0.0
 40
2.600000051999999
  0
CIRCLE
  5
47D
330
2
100
AcDbEntity
  8
UMRISS05
100
AcDbCircle
 10
-2485.958788854186
 20
2300.232018312785
 30
0.0
 40
8.000000159999999
  0
CIRCLE
  5
47E
330
2
100
AcDbEntity
  8
UMRISS05
100
AcDbCircle
 10
-2466.958788474187
 20
2214.832016604785
 30
0.0
 40
3.500000069999999
  0
CIRCLE
  5
47F
330
2
100
AcDbEntity
  8
UMRISS05
100
AcDbCircle
 10
-2504.958789234186
 20
2214.832016604785
 30
0.0
 40
3.500000069999999
  0
ARC
  5
480
330
2
100
AcDbEntity
  8
UMRISS05
100
AcDbCircle
 10
-2352.024472616555
 20
2258.532017478783
 30
0.0
 40
0.800000016
100
AcDbArc
 50
90.0
 51
180.0
  0
ARC
  5
481
330
2
100
AcDbEntity
  8
UMRISS05
100
AcDbCircle
 10
-2352.024472616555
 20
2229.932016906784
 30
0.0
 40
0.800000016
100
AcDbArc
 50
180.0
 51
270.0
  0
ARC
  5
482
330
2
100
AcDbEntity
  8
UMRISS05
100
AcDbCircle
 10
-2346.124472498555
 20
2229.932016906784
 30
0.0
 40
0.800000016
100
AcDbArc
 50
270.0
 51
0.0
  0
ARC
  5
483
330
2
100
AcDbEntity
  8
UMRISS05
100
AcDbCircle
 10
-2346.124472498555
 20
2258.532017478783
 30
0.0
 40
0.800000016
100
AcDbArc
 50
0.0
 51
90.0
  0
ARC
  5
484
330
2
100
AcDbEntity
  8
UMRISS05
100
AcDbCircle
 10
-2347.324472522555
 20
1972.679380182783
 30
0.0
 40
9.000000179999998
100
AcDbArc
 50
180.0
 51
0.0
  0
ARC
  5
485
330
2
100
AcDbEntity
  8
UMRISS05
100
AcDbCircle
 10
-2347.324472522554
 20
2569.784655282783
 30
0.0
 40
9.000000180000112
100
AcDbArc
 50
0.0
 51
180.0
  0
LINE
  5
486
330
2
100
AcDbEntity
  8
ACHSEN
100
AcDbLine
 10
-2548.311562858429
 20
2161.232015532783
 30
0.0
 11
-2535.966489539816
 21
2161.232015532783
 31
0.0
  0
LINE
  5
487
330
2
100
AcDbEntity
  8
UMRISS05
100
AcDbLine
 10
-2530.958789754186
 20
2024.732011802783
 30
0.0
 11
-2512.880109736172
 21
2024.732012802783
 31
0.0
  0
ARC
  5
488
330
2
100
AcDbEntity
  8
UMRISS03
100
AcDbCircle
 10
-2541.758789970186
 20
2044.932012706783
 30
0.0
 40
0.300000006
100
AcDbArc
 50
318.1895569867685
 51
90.0
  0
LINE
  5
489
330
2
100
AcDbEntity
  8
UMRISS03
100
AcDbLine
 10
-2541.458789964186
 20
2045.232012712783
 30
0.0
 11
-2542.958789994187
 21
2045.232012712783
 31
0.0
  0
ARC
  5
48A
330
2
100
AcDbEntity
  8
UMRISS03
100
AcDbCircle
 10
-2541.758789970186
 20
2072.932012266783
 30
0.0
 40
0.300000006
100
AcDbArc
 50
0.0
 51
90.0
  0
LINE
  5
48B
330
2
100
AcDbEntity
  8
UMRISS03
100
AcDbLine
 10
-2542.958789994187
 20
2073.232012272783
 30
0.0
 11
-2541.758789970186
 21
2073.232012272783
 31
0.0
  0
LINE
  5
48C
330
2
100
AcDbEntity
  8
UMRISS03
100
AcDbLine
 10
-2541.458789964186
 20
2072.032012248783
 30
0.0
 11
-2541.458789964186
 21
2072.932012266783
 31
0.0
  0
ARC
  5
48D
330
2
100
AcDbEntity
  8
UMRISS03
100
AcDbCircle
 10
-2541.758789970186
 20
2072.032012248783
 30
0.0
 40
0.300000006
100
AcDbArc
 50
270.0
 51
0.0
  0
LINE
  5
48E
330
2
100
AcDbEntity
  8
UMRISS03
100
AcDbLine
 10
-2542.958789994187
 20
2071.732012242783
 30
0.0
 11
-2541.758789970186
 21
2071.732012242783
 31
0.0
  0
LINE
  5
48F
330
2
100
AcDbEntity
  8
UMRISS03
100
AcDbLine
 10
-2541.458789964186
 20
2045.232012712783
 30
0.0
 11
-2541.458789964186
 21
2071.732012242783
 31
0.0
  0
LINE
  5
490
330
2
100
AcDbEntity
  8
UMRISS05
100
AcDbLine
 10
-2512.880109736173
 20
2090.532013118783
 30
0.0
 11
-2512.880109736173
 21
2092.232014152783
 31
0.0
  0
LINE
  5
491
330
2
100
AcDbEntity
  8
UMRISS03
100
AcDbLine
 10
-2542.958789994187
 20
2089.732013102783
 30
0.0
 11
-2541.458789964186
 21
2089.732013102783
 31
0.0
  0
ARC
  5
492
330
2
100
AcDbEntity
  8
UMRISS03
100
AcDbCircle
 10
-2541.758789970186
 20
2081.532012438783
 30
0.0
 40
0.300000006
100
AcDbArc
 50
270.0
 51
0.0
  0
ARC
  5
493
330
2
100
AcDbEntity
  8
UMRISS03
100
AcDbCircle
 10
-2541.758789970186
 20
2082.432012456783
 30
0.0
 40
0.300000006
100
AcDbArc
 50
0.0
 51
90.0
  0
LINE
  5
494
330
2
100
AcDbEntity
  8
UMRISS03
100
AcDbLine
 10
-2541.758789970186
 20
2081.232012432783
 30
0.0
 11
-2542.958789994187
 21
2081.232012432783
 31
0.0
  0
LINE
  5
495
330
2
100
AcDbEntity
  8
UMRISS03
100
AcDbLine
 10
-2541.458789964186
 20
2082.732012462784
 30
0.0
 11
-2542.958789994187
 21
2082.732012462783
 31
0.0
  0
LINE
  5
496
330
2
100
AcDbEntity
  8
UMRISS03
100
AcDbLine
 10
-2541.458789964186
 20
2081.532012438783
 30
0.0
 11
-2541.458789964186
 21
2082.432012456783
 31
0.0
  0
LINE
  5
497
330
2
100
AcDbEntity
  8
UMRISS03
100
AcDbLine
 10
-2541.458789964186
 20
2082.732012462784
 30
0.0
 11
-2541.458789964186
 21
2092.232014152783
 31
0.0
  0
LINE
  5
498
330
2
100
AcDbEntity
  8
UMRISS05
100
AcDbLine
 10
-2512.880109736173
 20
2092.232014152783
 30
0.0
 11
-2530.958789754186
 21
2092.232014152783
 31
0.0
  0
ARC
  5
499
330
2
100
AcDbEntity
  8
UMRISS03
100
AcDbCircle
 10
-2541.758789970185
 20
2459.932023006784
 30
0.0
 40
0.300000006
100
AcDbArc
 50
0.0
 51
90.0
  0
ARC
  5
49A
330
2
100
AcDbEntity
  8
UMRISS03
100
AcDbCircle
 10
-2541.758789970185
 20
2459.032022988784
 30
0.0
 40
0.300000006
100
AcDbArc
 50
270.0
 51
0.0
  0
ARC
  5
49B
330
2
100
AcDbEntity
  8
UMRISS03
100
AcDbCircle
 10
-2541.758789970185
 20
2468.532023178784
 30
0.0
 40
0.300000006
100
AcDbArc
 50
270.0
 51
0.0
  0
ARC
  5
49C
330
2
100
AcDbEntity
  8
UMRISS03
100
AcDbCircle
 10
-2541.758789970185
 20
2469.432023196784
 30
0.0
 40
0.300000006
100
AcDbArc
 50
0.0
 51
90.0
  0
LINE
  5
49D
330
2
100
AcDbEntity
  8
UMRISS03
100
AcDbLine
 10
-2541.458789964185
 20
2459.932023006784
 30
0.0
 11
-2541.458789964185
 21
2459.032022988784
 31
0.0
  0
LINE
  5
49E
330
2
100
AcDbEntity
  8
UMRISS03
100
AcDbLine
 10
-2541.758789970185
 20
2460.232023012784
 30
0.0
 11
-2542.958789994186
 21
2460.232023012784
 31
0.0
  0
LINE
  5
49F
330
2
100
AcDbEntity
  8
UMRISS03
100
AcDbLine
 10
-2542.958789994186
 20
2468.232023172784
 30
0.0
 11
-2541.758789970185
 21
2468.232023172784
 31
0.0
  0
LINE
  5
4A0
330
2
100
AcDbEntity
  8
UMRISS03
100
AcDbLine
 10
-2541.458789964185
 20
2469.432023196784
 30
0.0
 11
-2541.458789964185
 21
2468.532023178784
 31
0.0
  0
LINE
  5
4A1
330
2
100
AcDbEntity
  8
UMRISS03
100
AcDbLine
 10
-2538.458789904185
 20
2450.732021322784
 30
0.0
 11
-2538.458789904185
 21
2449.232021292784
 31
0.0
  0
LINE
  5
4A2
330
2
100
AcDbEntity
  8
UMRISS05
100
AcDbLine
 10
-2512.880109736172
 20
2450.932022326784
 30
0.0
 11
-2512.880109736172
 21
2449.232021292784
 31
0.0
  0
LINE
  5
4A3
330
2
100
AcDbEntity
  8
UMRISS05
100
AcDbLine
 10
-2512.880109736172
 20
2515.032023608784
 30
0.0
 11
-2512.880109736172
 21
2516.732022642784
 31
0.0
  0
LINE
  5
4A4
330
2
100
AcDbEntity
  8
UMRISS03
100
AcDbLine
 10
-2541.458789964185
 20
2458.732022982784
 30
0.0
 11
-2541.458789964185
 21
2449.232021292784
 31
0.0
  0
LINE
  5
4A5
330
2
100
AcDbEntity
  8
UMRISS03
100
AcDbLine
 10
-2541.458789964185
 20
2496.732023242784
 30
0.0
 11
-2541.458789964185
 21
2469.732023202784
 31
0.0
  0
LINE
  5
4A6
330
2
100
AcDbEntity
  8
UMRISS03
100
AcDbLine
 10
-2542.958789994186
 20
2451.732022342784
 30
0.0
 11
-2541.458789964185
 21
2451.732022342784
 31
0.0
  0
LINE
  5
4A7
330
2
100
AcDbEntity
  8
UMRISS03
100
AcDbLine
 10
-2542.958789994186
 20
2469.732023202784
 30
0.0
 11
-2541.758789970185
 21
2469.732023202784
 31
0.0
  0
LINE
  5
4A8
330
2
100
AcDbEntity
  8
UMRISS03
100
AcDbLine
 10
-2541.458789964185
 20
2458.732022982784
 30
0.0
 11
-2542.958789994186
 21
2458.732022982784
 31
0.0
  0
LINE
  5
4A9
330
2
100
AcDbEntity
  8
UMRISS05
100
AcDbLine
 10
-2512.880109736172
 20
2449.232021292784
 30
0.0
 11
-2537.958789894186
 21
2449.232021292784
 31
0.0
  0
LINE
  5
4AA
330
2
100
AcDbEntity
  8
UMRISS05
100
AcDbLine
 10
-2530.958789754186
 20
2516.732023642784
 30
0.0
 11
-2512.880109736172
 21
2516.732022642784
 31
0.0
  0
LINE
  5
4AB
330
2
100
AcDbEntity
  8
UMRISS05
100
AcDbLine
 10
-2338.324472342554
 20
1981.282843208111
 30
0.0
 11
-2338.324472342554
 21
2000.090561867406
 31
0.0
  0
LINE
  5
4AC
330
2
100
AcDbEntity
  8
UMRISS05
100
AcDbLine
 10
-2338.324472342554
 20
1972.679380182783
 30
0.0
 11
-2338.324472342554
 21
1979.037929867405
 31
0.0
  0
LINE
  5
4AD
330
2
100
AcDbEntity
  8
UMRISS05
100
AcDbLine
 10
-2356.324472702553
 20
2569.784655282783
 30
0.0
 11
-2356.324472702553
 21
2543.456132071539
 31
0.0
  0
LINE
  5
4AE
330
2
100
AcDbEntity
  8
UMRISS05
100
AcDbLine
 10
-2542.958789994186
 20
2562.875152046867
 30
0.0
 11
-2542.958789994186
 21
2544.067433387572
 31
0.0
  0
LINE
  5
4AF
330
2
100
AcDbEntity
  8
UMRISS05
100
AcDbLine
 10
-2542.958789994186
 20
2578.784655462784
 30
0.0
 11
-2542.958789994186
 21
2565.120065387572
 31
0.0
  0
LINE
  5
4B0
330
2
100
AcDbEntity
  8
UMRISS05
100
AcDbLine
 10
-2545.958790054186
 20
2562.263850730835
 30
0.0
 11
-2545.958790054186
 21
2543.456132071539
 31
0.0
  0
LINE
  5
4B1
330
2
100
AcDbEntity
  8
UMRISS05
100
AcDbLine
 10
-2545.958790054186
 20
2578.784655462784
 30
0.0
 11
-2545.958790054186
 21
2564.508764071539
 31
0.0
  0
LINE
  5
4B2
330
2
100
AcDbEntity
  8
ACHSEN
100
AcDbLine
 10
-2536.958789874185
 20
2383.232019972784
 30
0.0
 11
-2550.243895106432
 21
2383.232019972784
 31
0.0
  0
CIRCLE
  5
4B3
330
2
100
AcDbEntity
  8
UMRISS03
100
AcDbCircle
 10
-2347.324472522556
 20
2161.232015532783
 30
0.0
 40
2.150000042999999
  0
CIRCLE
  5
4B4
330
2
100
AcDbEntity
  8
UMRISS03
100
AcDbCircle
 10
-2347.324472522556
 20
2161.232015532783
 30
0.0
 40
4.100000081999999
  0
CIRCLE
  5
4B5
330
2
100
AcDbEntity
  8
UMRISS03
100
AcDbCircle
 10
-2347.324472522554
 20
2383.232019972784
 30
0.0
 40
2.150000042999999
  0
CIRCLE
  5
4B6
330
2
100
AcDbEntity
  8
UMRISS03
100
AcDbCircle
 10
-2347.324472522554
 20
2383.232019972784
 30
0.0
 40
4.100000081999999
  0
CIRCLE
  5
4B7
330
2
100
AcDbEntity
  8
UMRISS03
100
AcDbCircle
 10
-2348.224472540554
 20
2203.832016384778
 30
0.0
 40
2.750000054999999
  0
CIRCLE
  5
4B8
330
2
100
AcDbEntity
  8
UMRISS03
100
AcDbCircle
 10
-2348.224472540554
 20
2203.832016384778
 30
0.0
 40
4.750000094999999
  0
LINE
  5
4B9
330
2
100
AcDbEntity
  8
UMRISS05
100
AcDbLine
 10
-2342.324472422555
 20
2334.832019004784
 30
0.0
 11
-2342.324472422555
 21
2309.632018500784
 31
0.0
  0
LINE
  5
4BA
330
2
100
AcDbEntity
  8
UMRISS05
100
AcDbLine
 10
-2353.324472642555
 20
2307.132018450783
 30
0.0
 11
-2353.324472642555
 21
2337.332019054784
 31
0.0
  0
LINE
  5
4BB
330
2
100
AcDbEntity
  8
UMRISS05
100
AcDbLine
 10
-2353.324472642555
 20
2337.332019054784
 30
0.0
 11
-2350.224472580555
 21
2337.332019054784
 31
0.0
  0
LINE
  5
4BC
330
2
100
AcDbEntity
  8
UMRISS05
100
AcDbLine
 10
-2350.224472580555
 20
2337.332019054784
 30
0.0
 11
-2350.224472580555
 21
2307.132018450783
 31
0.0
  0
LINE
  5
4BD
330
2
100
AcDbEntity
  8
UMRISS05
100
AcDbLine
 10
-2350.224472580555
 20
2307.132018450783
 30
0.0
 11
-2353.324472642555
 21
2307.132018450783
 31
0.0
  0
LINE
  5
4BE
330
2
100
AcDbEntity
  8
UMRISS05
100
AcDbLine
 10
-2350.224472580555
 20
2334.832019004784
 30
0.0
 11
-2342.324472422555
 21
2334.832019004784
 31
0.0
  0
LINE
  5
4BF
330
2
100
AcDbEntity
  8
UMRISS05
100
AcDbLine
 10
-2342.324472422555
 20
2309.632018500784
 30
0.0
 11
-2350.224472580555
 21
2309.632018500784
 31
0.0
  0
LINE
  5
4C0
330
2
100
AcDbEntity
  8
UMRISS05
100
AcDbLine
 10
-2345.324472482555
 20
2258.532017478783
 30
0.0
 11
-2345.324472482555
 21
2229.932016906784
 31
0.0
  0
LINE
  5
4C1
330
2
100
AcDbEntity
  8
UMRISS05
100
AcDbLine
 10
-2352.824472632555
 20
2229.932016906784
 30
0.0
 11
-2352.824472632554
 21
2258.532017478783
 31
0.0
  0
LINE
  5
4C2
330
2
100
AcDbEntity
  8
UMRISS05
100
AcDbLine
 10
-2352.024472616555
 20
2259.332017494783
 30
0.0
 11
-2346.124472498555
 21
2259.332017494783
 31
0.0
  0
LINE
  5
4C3
330
2
100
AcDbEntity
  8
UMRISS05
100
AcDbLine
 10
-2346.124472498555
 20
2229.132016890783
 30
0.0
 11
-2352.024472616555
 21
2229.132016890783
 31
0.0
  0
LINE
  5
4C4
330
2
100
AcDbEntity
  8
UMRISS05
100
AcDbLine
 10
-2545.958790054187
 20
1963.679380002783
 30
0.0
 11
-2542.958789994187
 21
1963.679380002783
 31
0.0
  0
LINE
  5
4C5
330
2
100
AcDbEntity
  8
UMRISS05
100
AcDbLine
 10
-2545.958790054186
 20
2578.784655462784
 30
0.0
 11
-2542.958789994186
 21
2578.784655462784
 31
0.0
  0
LINE
  5
4C6
330
2
100
AcDbEntity
  8
UMRISS05
100
AcDbLine
 10
-2508.257827405844
 20
2352.429460473475
 30
0.0
 11
-2506.958789274186
 21
2353.179460488474
 31
0.0
  0
ARC
  5
4C7
330
2
100
AcDbEntity
  8
UMRISS05
100
AcDbCircle
 10
-2507.257827385843
 20
2351.232019332784
 30
0.0
 40
1.000000019999999
100
AcDbArc
 50
180.0
 51
270.0
  0
LINE
  5
4C8
330
2
100
AcDbEntity
  8
UMRISS05
100
AcDbLine
 10
-2508.257827405844
 20
2352.429460473475
 30
0.0
 11
-2508.257827405844
 21
2351.232019332784
 31
0.0
  0
LINE
  5
4C9
330
2
100
AcDbEntity
  8
UMRISS03
100
AcDbLine
 10
-2538.458789904185
 20
2370.732019722784
 30
0.0
 11
-2538.458789904185
 21
2372.232019752784
 31
0.0
  0
LINE
  5
4CA
330
2
100
AcDbEntity
  8
UMRISS03
100
AcDbLine
 10
-2542.958789994186
 20
2369.232019692784
 30
0.0
 11
-2540.958789954186
 21
2369.232019692784
 31
0.0
  0
LINE
  5
4CB
330
2
100
AcDbEntity
  8
UMRISS05
100
AcDbLine
 10
-2542.958789994186
 20
2308.232018472784
 30
0.0
 11
-2542.958789994186
 21
2336.232019032784
 31
0.0
  0
LINE
  5
4CC
330
2
100
AcDbEntity
  8
UMRISS05
100
AcDbLine
 10
-2510.749903750864
 20
2356.745863319392
 30
0.0
 11
-2508.257827405844
 21
2352.429460473475
 31
0.0
  0
LINE
  5
4CD
330
2
100
AcDbEntity
  8
UMRISS05
100
AcDbLine
 10
-2508.257827405844
 20
2192.034575032093
 30
0.0
 11
-2508.257827405844
 21
2193.232016172784
 31
0.0
  0
ARC
  5
4CE
330
2
100
AcDbEntity
  8
UMRISS05
100
AcDbCircle
 10
-2507.257827385843
 20
2193.232016172784
 30
0.0
 40
1.000000019999999
100
AcDbArc
 50
90.0
 51
180.0
  0
LINE
  5
4CF
330
2
100
AcDbEntity
  8
UMRISS05
100
AcDbLine
 10
-2508.257827405844
 20
2192.034575032093
 30
0.0
 11
-2506.958789274186
 21
2191.284575017094
 31
0.0
  0
LINE
  5
4D0
330
2
100
AcDbEntity
  8
UMRISS03
100
AcDbLine
 10
-2540.958789954186
 20
2175.232015812783
 30
0.0
 11
-2542.958789994186
 21
2175.232015812783
 31
0.0
  0
LINE
  5
4D1
330
2
100
AcDbEntity
  8
UMRISS05
100
AcDbLine
 10
-2538.458789904185
 20
2173.732015782784
 30
0.0
 11
-2538.458789904185
 21
2172.232015752784
 31
0.0
  0
LINE
  5
4D2
330
2
100
AcDbEntity
  8
UMRISS05
100
AcDbLine
 10
-2510.749903750864
 20
2187.718172186176
 30
0.0
 11
-2508.257827405844
 21
2192.034575032093
 31
0.0
  0
ENDSEC
  0
SECTION
  2
OBJECTS
  0
DICTIONARY
  5
C
330
0
100
AcDbDictionary
281
     1
  3
ACAD_COLOR
350
4E
  3
ACAD_GROUP
350
3B
  3
ACAD_LAYOUT
350
19
  3
ACAD_MATERIAL
350
E
  3
ACAD_MLEADERSTYLE
350
51
  3
ACAD_MLINESTYLE
350
3C
  3
ACAD_PLOTSETTINGS
350
3D
  3
ACAD_PLOTSTYLENAME
350
B
  3
ACAD_SCALELIST
350
4F
  3
ACAD_TABLESTYLE
350
50
  3
ACAD_VISUALSTYLE
350
2F
  3
ACDB_RECOMPOSE_DATA
350
534
  3
AcDbVariableDictionary
350
529
  3
AcmDictionary
350
4E4
  3
AMG
350
4D5
  0
DICTIONARY
  5
21
330
20
100
AcDbDictionary
280
     1
281
     1
  3
ACAD_LAYERSTATES
360
22
  3
AMLAYER_GROUPCOLORS
360
23
  0
DICTIONARY
  5
8
330
7
100
AcDbDictionary
280
     1
281
     1
  3
ADSK_XREC_LAYER_RECONCILED
360
9
  0
DICTIONARY
  5
143
330
142
100
AcDbDictionary
280
     1
281
     1
  3
ADSK_XREC_LAYER_RECONCILED
360
144
  0
DICTIONARY
  5
14B
330
14A
100
AcDbDictionary
280
     1
281
     1
  3
ADSK_XREC_LAYER_RECONCILED
360
14C
  0
DICTIONARY
  5
6E
330
6D
100
AcDbDictionary
280
     1
281
     1
  3
ADSK_XREC_LAYER_RECONCILED
360
6F
  0
DICTIONARY
  5
53
330
52
100
AcDbDictionary
280
     1
281
     1
  3
ADSK_XREC_LAYER_RECONCILED
360
54
  0
DICTIONARY
  5
85
330
84
100
AcDbDictionary
280
     1
281
     1
  3
ADSK_XREC_LAYER_RECONCILED
360
86
  0
DICTIONARY
  5
3DC
330
3DB
100
AcDbDictionary
280
     1
281
     1
  0
DICTIONARY
  5
3D6
330
3D5
100
AcDbDictionary
280
     1
281
     1
  0
DICTIONARY
  5
3
330
2
100
AcDbDictionary
280
     1
281
     1
  3
ACAD_ASSOCNETWORK
360
4
  3
ACAD_SORTENTS
360
4D3
  0
DICTIONARY
  5
4E
102
{ACAD_REACTORS
330
C
102
}
330
C
100
AcDbDictionary
281
     1
  0
DICTIONARY
  5
3B
102
{ACAD_REACTORS
330
C
102
}
330
C
100
AcDbDictionary
281
     1
  0
DICTIONARY
  5
19
102
{ACAD_REACTORS
330
C
102
}
330
C
100
AcDbDictionary
281
     1
  3
Layout1
350
1F
  3
Model
350
18
  0
DICTIONARY
  5
E
102
{ACAD_REACTORS
330
C
102
}
330
C
100
AcDbDictionary
281
     1
  3
ByBlock
350
46
  3
ByLayer
350
3E
  3
Global
350
D
  0
DICTIONARY
  5
51
102
{ACAD_REACTORS
330
C
102
}
330
C
100
AcDbDictionary
281
     1
  0
DICTIONARY
  5
3C
102
{ACAD_REACTORS
330
C
102
}
330
C
100
AcDbDictionary
281
     1
  3
STANDARD
350
56
  0
DICTIONARY
  5
3D
102
{ACAD_REACTORS
330
C
102
}
330
C
100
AcDbDictionary
281
     1
  0
ACDBDICTIONARYWDFLT
  5
B
102
{ACAD_REACTORS
330
C
102
}
330
C
100
AcDbDictionary
281
     1
  3
Normal
350
A
100
AcDbDictionaryWithDefault
340
A
  0
DICTIONARY
  5
4F
102
{ACAD_REACTORS
330
C
102
}
330
C
100
AcDbDictionary
281
     1
  3
A0
350
5B
  3
A1
350
5C
  3
A2
350
5D
  3
A3
350
5E
  3
A4
350
5F
  3
A5
350
60
  3
A6
350
61
  3
A7
350
62
  3
A8
350
63
  3
A9
350
64
  3
B0
350
65
  3
B1
350
66
  3
B2
350
67
  3
B3
350
68
  3
B4
350
69
  3
B5
350
6A
  3
B6
350
6B
  0
DICTIONARY
  5
50
102
{ACAD_REACTORS
330
C
102
}
330
C
100
AcDbDictionary
281
     1
  3
Standard
350
57
  0
DICTIONARY
  5
2F
102
{ACAD_REACTORS
330
C
102
}
330
C
100
AcDbDictionary
281
     1
  3
2dWireframe
350
2E
  3
Realistic
350
59
  3
Wireframe
350
5A
  0
XRECORD
  5
534
102
{ACAD_REACTORS
330
C
102
}
330
C
100
AcDbXrecord
280
     1
 90
        1
330
57
  0
DICTIONARY
  5
529
102
{ACAD_REACTORS
330
C
102
}
330
C
100
AcDbDictionary
281
     1
  3
CANNOSCALE
350
52C
  3
CMLEADERSTYLE
350
52B
  3
CTABLESTYLE
350
52A
  3
DIMASSOC
350
531
  3
HIDETEXT
350
52F
  3
INDEXCTL
350
52E
  3
SOLIDHIST
350
532
  3
SORTENTS
350
52D
  3
XCLIPFRAME
350
530
  0
DICTIONARY
  5
4E4
102
{ACAD_REACTORS
330
C
102
}
330
C
100
AcDbDictionary
281
     1
  3
AcmStdDictionary
350
4E5
  0
DICTIONARY
  5
4D5
102
{ACAD_REACTORS
330
C
102
}
330
C
100
AcDbDictionary
281
     1
  3
AcMgSettings
350
4DF
  0
DICTIONARY
  5
22
102
{ACAD_REACTORS
330
21
102
}
330
21
100
AcDbDictionary
281
     1
  0
DICTIONARY
  5
23
102
{ACAD_REACTORS
330
21
102
}
330
21
100
AcDbDictionary
280
     1
281
     1
  0
XRECORD
  5
9
102
{ACAD_REACTORS
330
8
102
}
330
8
100
AcDbXrecord
280
     1
290
     1
  0
XRECORD
  5
144
102
{ACAD_REACTORS
330
143
102
}
330
143
100
AcDbXrecord
280
     1
290
     1
  0
XRECORD
  5
14C
102
{ACAD_REACTORS
330
14B
102
}
330
14B
100
AcDbXrecord
280
     1
290
     1
  0
XRECORD
  5
6F
102
{ACAD_REACTORS
330
6E
102
}
330
6E
100
AcDbXrecord
280
     1
290
     1
  0
XRECORD
  5
54
102
{ACAD_REACTORS
330
53
102
}
330
53
100
AcDbXrecord
280
     1
290
     1
  0
XRECORD
  5
86
102
{ACAD_REACTORS
330
85
102
}
330
85
100
AcDbXrecord
280
     1
290
     1
  0
DICTIONARY
  5
4
102
{ACAD_REACTORS
330
3
102
}
330
3
100
AcDbDictionary
281
     1
  0
SORTENTSTABLE
  5
4D3
102
{ACAD_REACTORS
330
3
102
}
330
3
100
AcDbSortentsTable
330
2
331
257
  5
49B
331
476
  5
321
331
472
  5
325
331
46E
  5
329
331
4AD
  5
15B
331
4A9
  5
193
331
46A
  5
32D
331
3FE
  5
399
331
384
  5
413
331
3BF
  5
3D4
331
347
  5
450
331
3FA
  5
39D
331
380
  5
417
331
343
  5
454
331
37C
  5
41B
331
3BB
  5
3DA
331
3F6
  5
3A1
331
435
  5
362
331
431
  5
366
331
378
  5
41F
331
3F2
  5
3A5
331
192
  5
4AA
331
E5
  5
4C7
331
1C9
  5
4A7
331
204
  5
4A0
331
11C
  5
4C4
331
15B
  5
4AD
331
157
  5
4B1
331
153
  5
4B5
331
4A5
  5
1CB
331
466
  5
331
331
462
  5
335
331
4A1
  5
203
331
45E
  5
339
331
49D
  5
23B
331
45A
  5
33D
331
499
  5
263
331
4D0
  5
82
331
33F
  5
458
331
3B7
  5
3E0
331
33B
  5
45C
331
3EE
  5
3A9
331
42D
  5
36A
331
374
  5
423
331
3B3
  5
3E4
331
3AF
  5
3E8
331
337
  5
460
331
3EA
  5
3AD
331
429
  5
36E
331
370
  5
427
331
333
  5
464
331
36C
  5
42B
331
3AB
  5
3EC
331
2B9
  5
488
331
3E6
  5
3B1
331
425
  5
372
331
421
  5
376
331
368
  5
42F
331
3E2
  5
3B5
331
23B
  5
49D
331
14F
  5
4B9
331
D1
  5
4CA
331
147
  5
4BE
331
495
  5
267
331
456
  5
341
331
452
  5
345
331
491
  5
26B
331
4CC
  5
A4
331
44E
  5
349
331
48D
  5
280
331
4C8
  5
E4
331
4C4
  5
11C
331
44A
  5
34D
331
489
  5
2B8
331
4C0
  5
145
331
32F
  5
468
331
3A7
  5
3F0
331
32B
  5
46C
331
41D
  5
37A
331
364
  5
433
331
3A3
  5
3F4
331
3DE
  5
3B9
331
39F
  5
3F8
331
327
  5
470
331
3DA
  5
3BB
331
419
  5
37E
331
360
  5
437
331
26A
  5
492
331
39B
  5
3FC
331
35C
  5
43B
331
415
  5
382
331
323
  5
474
331
358
  5
43F
331
2E0
  5
483
331
3D2
  5
3C1
331
411
  5
386
331
176
  5
4AC
331
82
  5
4D0
331
485
  5
2DE
331
446
  5
351
331
442
  5
355
331
481
  5
316
331
4BC
  5
149
331
43E
  5
359
331
47D
  5
31A
331
4B8
  5
150
331
43A
  5
35D
331
479
  5
31E
331
4B4
  5
154
331
4B0
  5
158
331
266
  5
496
331
31F
  5
478
331
397
  5
400
331
31B
  5
47C
331
40D
  5
38A
331
354
  5
443
331
393
  5
404
331
3CE
  5
3C5
331
38F
  5
408
331
317
  5
480
331
3CA
  5
3C9
331
409
  5
38E
331
350
  5
447
331
38B
  5
40C
331
3C6
  5
3CD
331
405
  5
392
331
34C
  5
44B
331
348
  5
44F
331
3C2
  5
3D1
331
401
  5
396
331
21F
  5
49F
331
256
  5
49C
331
475
  5
322
331
471
  5
326
331
46D
  5
32A
331
4AC
  5
176
331
4A8
  5
1AE
331
469
  5
32E
331
387
  5
410
331
3FD
  5
39A
331
383
  5
414
331
3BE
  5
3D7
331
2CC
  5
486
331
346
  5
451
331
3F9
  5
39E
331
37F
  5
418
331
342
  5
455
331
37B
  5
41C
331
3BA
  5
3DD
331
3F5
  5
3A2
331
434
  5
363
331
430
  5
367
331
3F1
  5
3A6
331
191
  5
4AB
331
E4
  5
4C8
331
1CC
  5
4A4
331
203
  5
4A1
331
15A
  5
4AE
331
156
  5
4B2
331
152
  5
4B6
331
465
  5
332
331
4A4
  5
1CC
331
461
  5
336
331
4A0
  5
204
331
45D
  5
33A
331
49C
  5
256
331
498
  5
264
331
459
  5
33E
331
33E
  5
459
331
377
  5
420
331
3B6
  5
3E1
331
33A
  5
45D
331
2FB
  5
482
331
3ED
  5
3AA
331
42C
  5
36B
331
373
  5
424
331
3B2
  5
3E5
331
3AE
  5
3E9
331
336
  5
461
331
3E9
  5
3AE
331
428
  5
36F
331
36F
  5
428
331
332
  5
465
331
36B
  5
42C
331
3AA
  5
3ED
331
2B8
  5
489
331
3E5
  5
3B2
331
424
  5
373
331
420
  5
377
331
3E1
  5
3B6
331
23A
  5
49E
331
14E
  5
4BA
331
146
  5
4BF
331
89
  5
4CD
331
494
  5
268
331
4CF
  5
83
331
455
  5
342
331
451
  5
346
331
490
  5
26C
331
4CB
  5
BF
331
44D
  5
34A
331
48C
  5
29B
331
4C7
  5
E5
331
4C3
  5
12E
331
449
  5
34E
331
488
  5
2B9
331
32E
  5
469
331
367
  5
430
331
3A6
  5
3F1
331
32A
  5
46D
331
3DD
  5
3BA
331
41C
  5
37B
331
363
  5
434
331
3A2
  5
3F5
331
26D
  5
48F
331
39E
  5
3F9
331
326
  5
471
331
3D9
  5
3BC
331
418
  5
37F
331
35F
  5
438
331
269
  5
493
331
322
  5
475
331
35B
  5
43C
331
39A
  5
3FD
331
414
  5
383
331
410
  5
387
331
3D1
  5
3C2
331
1E7
  5
4A3
331
81
  5
4D1
331
484
  5
2DF
331
4BF
  5
146
331
445
  5
352
331
441
  5
356
331
480
  5
317
331
4BB
  5
14D
331
43D
  5
35A
331
47C
  5
31B
331
4B7
  5
151
331
4B3
  5
155
331
439
  5
35E
331
478
  5
31F
331
265
  5
497
331
31E
  5
479
331
357
  5
440
331
396
  5
401
331
2DF
  5
484
331
31A
  5
47D
331
40C
  5
38B
331
353
  5
444
331
392
  5
405
331
3CD
  5
3C6
331
38E
  5
409
331
316
  5
481
331
3C9
  5
3CA
331
408
  5
38F
331
34F
  5
448
331
34B
  5
44C
331
38A
  5
40D
331
3C5
  5
3CE
331
404
  5
393
331
3C1
  5
3D2
331
400
  5
397
331
12E
  5
4C3
331
474
  5
323
331
470
  5
327
331
4AF
  5
159
331
46C
  5
32B
331
4AB
  5
191
331
468
  5
32F
331
386
  5
411
331
3FC
  5
39B
331
382
  5
415
331
3BD
  5
3D8
331
37E
  5
419
331
3F8
  5
39F
331
437
  5
360
331
345
  5
452
331
341
  5
456
331
37A
  5
41D
331
3B9
  5
3DE
331
3F4
  5
3A3
331
433
  5
364
331
3F0
  5
3A7
331
A4
  5
4CC
331
E3
  5
4C9
331
1CB
  5
4A5
331
159
  5
4AF
331
202
  5
4A2
331
155
  5
4B3
331
151
  5
4B7
331
4A7
  5
1C9
331
464
  5
333
331
4A3
  5
1E7
331
460
  5
337
331
49F
  5
21F
331
45C
  5
33B
331
6C
  5
4D2
331
49B
  5
257
331
4D2
  5
6C
331
458
  5
33F
331
33D
  5
45A
331
42F
  5
368
331
376
  5
421
331
3B5
  5
3E2
331
3B1
  5
3E6
331
339
  5
45E
331
3EC
  5
3AB
331
42B
  5
36C
331
372
  5
425
331
280
  5
48D
331
3AD
  5
3EA
331
335
  5
462
331
3E8
  5
3AF
331
427
  5
370
331
36E
  5
429
331
331
  5
466
331
36A
  5
42D
331
3A9
  5
3EE
331
3E4
  5
3B3
331
423
  5
374
331
3E0
  5
3B7
331
14D
  5
4BB
331
149
  5
4BC
331
145
  5
4C0
331
141
  5
4C1
331
88
  5
4CE
331
497
  5
265
331
454
  5
343
331
493
  5
269
331
4CE
  5
88
331
450
  5
347
331
48F
  5
26D
331
4CA
  5
D1
331
44C
  5
34B
331
48B
  5
2B6
331
4C6
  5
E6
331
4C2
  5
140
331
448
  5
34F
331
2B7
  5
48A
331
32D
  5
46A
331
41F
  5
378
331
366
  5
431
331
3A5
  5
3F2
331
329
  5
46E
331
41B
  5
37C
331
362
  5
435
331
3A1
  5
3F6
331
26C
  5
490
331
39D
  5
3FA
331
325
  5
472
331
3D8
  5
3BD
331
417
  5
380
331
35E
  5
439
331
268
  5
494
331
321
  5
476
331
35A
  5
43D
331
399
  5
3FE
331
3D4
  5
3BF
331
413
  5
384
331
3D0
  5
3C3
331
BF
  5
4CB
331
487
  5
2BA
331
483
  5
2E0
331
4BE
  5
147
331
444
  5
353
331
440
  5
357
331
47F
  5
318
331
4BA
  5
14E
331
43C
  5
35B
331
47B
  5
31C
331
4B6
  5
152
331
4B2
  5
156
331
438
  5
35F
331
264
  5
498
331
31D
  5
47A
331
2DE
  5
485
331
40F
  5
388
331
356
  5
441
331
395
  5
402
331
319
  5
47E
331
3CC
  5
3C7
331
40B
  5
38C
331
352
  5
445
331
391
  5
406
331
38D
  5
40A
331
29B
  5
48C
331
3C8
  5
3CB
331
407
  5
390
331
34E
  5
449
331
258
  5
49A
331
34A
  5
44D
331
389
  5
40E
331
3C4
  5
3CF
331
403
  5
394
331
3C0
  5
3D3
331
477
  5
320
331
473
  5
324
331
46F
  5
328
331
4AE
  5
15A
331
46B
  5
32C
331
4AA
  5
192
331
3FF
  5
398
331
385
  5
412
331
3FB
  5
39C
331
381
  5
416
331
344
  5
453
331
37D
  5
41A
331
3BC
  5
3D9
331
3F7
  5
3A0
331
436
  5
361
331
340
  5
457
331
432
  5
365
331
379
  5
41E
331
3B8
  5
3DF
331
3F3
  5
3A4
331
193
  5
4A9
331
E6
  5
4C6
331
1CA
  5
4A6
331
158
  5
4B0
331
154
  5
4B4
331
150
  5
4B8
331
4A6
  5
1CA
331
467
  5
330
331
463
  5
334
331
4A2
  5
202
331
45F
  5
338
331
49E
  5
23A
331
45B
  5
33C
331
49A
  5
258
331
4D1
  5
81
331
33C
  5
45B
331
42E
  5
369
331
375
  5
422
331
3B4
  5
3E3
331
3EF
  5
3A8
331
27F
  5
48E
331
3B0
  5
3E7
331
338
  5
45F
331
3EB
  5
3AC
331
42A
  5
36D
331
371
  5
426
331
3AC
  5
3EB
331
2BA
  5
487
331
36D
  5
42A
331
3E7
  5
3B0
331
426
  5
371
331
334
  5
463
331
330
  5
467
331
369
  5
42E
331
3A8
  5
3EF
331
3E3
  5
3B4
331
422
  5
375
331
148
  5
4BD
331
101
  5
4C5
331
140
  5
4C2
331
496
  5
266
331
457
  5
340
331
453
  5
344
331
492
  5
26A
331
4CD
  5
89
331
44F
  5
348
331
48E
  5
27F
331
4C9
  5
E3
331
44B
  5
34C
331
48A
  5
2B7
331
4C5
  5
101
331
4C1
  5
141
331
2B6
  5
48B
331
32C
  5
46B
331
41E
  5
379
331
365
  5
432
331
3A4
  5
3F3
331
3DF
  5
3B8
331
3A0
  5
3F7
331
328
  5
46F
331
41A
  5
37D
331
361
  5
436
331
26B
  5
491
331
39C
  5
3FB
331
324
  5
473
331
3D7
  5
3BE
331
416
  5
381
331
35D
  5
43A
331
320
  5
477
331
359
  5
43E
331
398
  5
3FF
331
3D3
  5
3C0
331
412
  5
385
331
1AE
  5
4A8
331
83
  5
4CF
331
486
  5
2CC
331
447
  5
350
331
443
  5
354
331
482
  5
2FB
331
4BD
  5
148
331
43F
  5
358
331
47E
  5
319
331
4B9
  5
14F
331
43B
  5
35C
331
47A
  5
31D
331
4B5
  5
153
331
4B1
  5
157
331
267
  5
495
331
263
  5
499
331
31C
  5
47B
331
40E
  5
389
331
355
  5
442
331
394
  5
403
331
3CF
  5
3C4
331
318
  5
47F
331
3CB
  5
3C8
331
40A
  5
38D
331
351
  5
446
331
390
  5
407
331
38C
  5
40B
331
3C7
  5
3CC
331
406
  5
391
331
34D
  5
44A
331
349
  5
44E
331
388
  5
40F
331
3C3
  5
3D0
331
402
  5
395
  0
LAYOUT
  5
1F
102
{ACAD_XDICTIONARY
360
537
102
}
102
{ACAD_REACTORS
330
19
102
}
330
19
100
AcDbPlotSettings
  1

  2
none_device
  4
Letter_(8.50_x_11.00_Inches)
  6

 40
6.349999904632568
 41
6.349999904632568
 42
6.350006103515625
 43
6.350006103515625
 44
215.8999938964844
 45
279.3999938964844
 46
0.0
 47
0.0
 48
0.0
 49
0.0
140
0.0
141
0.0
142
1.0
143
1.0
 70
   688
 72
     1
 73
     1
 74
     5
  7
monochrome.ctb
 75
    16
147
1.0
148
0.0
149
0.0
100
AcDbLayout
  1
Layout1
 70
     1
 71
     1
 10
-6.350006103515625
 20
-6.349999904632568
 11
273.0499877929688
 21
209.5499939918518
 12
0.0
 22
0.0
 32
0.0
 14
26.66999878883363
 24
20.31999878883363
 34
0.0
 15
240.0299890995026
 25
182.8799890995025
 35
0.0
146
0.0
 13
0.0
 23
0.0
 33
0.0
 16
1.0
 26
0.0
 36
0.0
 17
0.0
 27
1.0
 37
0.0
 76
     0
330
1C
  0
LAYOUT
  5
18
102
{ACAD_XDICTIONARY
360
1A
102
}
102
{ACAD_REACTORS
330
19
102
}
330
19
100
AcDbPlotSettings
  1
A3 quer
  2
A3quer-MSL.pc3
  4
A3
  6

 40
6.085416793823242
 41
6.12772798538208
 42
5.662078857421875
 43
5.53509521484375
 44
296.9683227539062
 45
419.9889831542968
 46
4.5
 47
2.5
 48
0.0
 49
0.0
140
0.0
141
0.0
142
1.0
143
1.0
 70
 11952
 72
     1
 73
     1
 74
     1
  7
A3 hoch.ctb
 75
    16
147
1.0
148
0.0160923307578855
149
0.4351688123455233
100
AcDbLayout
  1
Model
 70
     1
 71
     0
 10
0.0
 20
0.0
 11
12.0
 21
9.0
 12
0.0
 22
0.0
 32
0.0
 14
0.0
 24
0.0
 34
0.0
 15
0.0
 25
0.0
 35
0.0
146
0.0
 13
0.0
 23
0.0
 33
0.0
 16
1.0
 26
0.0
 36
0.0
 17
0.0
 27
1.0
 37
0.0
 76
     0
330
2
331
2D
  0
MATERIAL
  5
46
102
{ACAD_XDICTIONARY
360
47
102
}
102
{ACAD_REACTORS
330
E
102
}
330
E
100
AcDbMaterial
  1
ByBlock
 72
     0
 43
0.0208333333333333
 43
0.0
 43
0.0
 43
0.0
 43
0.0
 43
0.0208333333333333
 43
0.0
 43
0.0
 43
0.0
 43
0.0
 43
1.0
 43
0.0
 43
0.0
 43
0.0
 43
0.0
 43
1.0
 77
     0
 47
0.0208333333333333
 47
0.0
 47
0.0
 47
0.0
 47
0.0
 47
0.0208333333333333
 47
0.0
 47
0.0
 47
0.0
 47
0.0
 47
1.0
 47
0.0
 47
0.0
 47
0.0
 47
0.0
 47
1.0
171
     0
 49
0.0208333333333333
 49
0.0
 49
0.0
 49
0.0
 49
0.0
 49
0.0208333333333333
 49
0.0
 49
0.0
 49
0.0
 49
0.0
 49
1.0
 49
0.0
 49
0.0
 49
0.0
 49
0.0
 49
1.0
175
     0
142
0.0208333333333333
142
0.0
142
0.0
142
0.0
142
0.0
142
0.0208333333333333
142
0.0
142
0.0
142
0.0
142
0.0
142
1.0
142
0.0
142
0.0
142
0.0
142
0.0
142
1.0
179
     0
144
0.0208333333333333
144
0.0
144
0.0
144
0.0
144
0.0
144
0.0208333333333333
144
0.0
144
0.0
144
0.0
144
0.0
144
1.0
144
0.0
144
0.0
144
0.0
144
0.0
144
1.0
147
0.0208333333333333
147
0.0
147
0.0
147
0.0
147
0.0
147
0.0208333333333333
147
0.0
147
0.0
147
0.0
147
0.0
147
1.0
147
0.0
147
0.0
147
0.0
147
0.0
147
1.0
  0
MATERIAL
  5
3E
102
{ACAD_XDICTIONARY
360
3F
102
}
102
{ACAD_REACTORS
330
E
102
}
330
E
100
AcDbMaterial
  1
ByLayer
 72
     0
 43
0.0208333333333333
 43
0.0
 43
0.0
 43
0.0
 43
0.0
 43
0.0208333333333333
 43
0.0
 43
0.0
 43
0.0
 43
0.0
 43
1.0
 43
0.0
 43
0.0
 43
0.0
 43
0.0
 43
1.0
 77
     0
 47
0.0208333333333333
 47
0.0
 47
0.0
 47
0.0
 47
0.0
 47
0.0208333333333333
 47
0.0
 47
0.0
 47
0.0
 47
0.0
 47
1.0
 47
0.0
 47
0.0
 47
0.0
 47
0.0
 47
1.0
171
     0
 49
0.0208333333333333
 49
0.0
 49
0.0
 49
0.0
 49
0.0
 49
0.0208333333333333
 49
0.0
 49
0.0
 49
0.0
 49
0.0
 49
1.0
 49
0.0
 49
0.0
 49
0.0
 49
0.0
 49
1.0
175
     0
142
0.0208333333333333
142
0.0
142
0.0
142
0.0
142
0.0
142
0.0208333333333333
142
0.0
142
0.0
142
0.0
142
0.0
142
1.0
142
0.0
142
0.0
142
0.0
142
0.0
142
1.0
179
     0
144
0.0208333333333333
144
0.0
144
0.0
144
0.0
144
0.0
144
0.0208333333333333
144
0.0
144
0.0
144
0.0
144
0.0
144
1.0
144
0.0
144
0.0
144
0.0
144
0.0
144
1.0
147
0.0208333333333333
147
0.0
147
0.0
147
0.0
147
0.0
147
0.0208333333333333
147
0.0
147
0.0
147
0.0
147
0.0
147
1.0
147
0.0
147
0.0
147
0.0
147
0.0
147
1.0
  0
MATERIAL
  5
D
102
{ACAD_XDICTIONARY
360
F
102
}
102
{ACAD_REACTORS
330
E
102
}
330
E
100
AcDbMaterial
  1
Global
 72
     0
 43
0.0208333333333333
 43
0.0
 43
0.0
 43
0.0
 43
0.0
 43
0.0208333333333333
 43
0.0
 43
0.0
 43
0.0
 43
0.0
 43
1.0
 43
0.0
 43
0.0
 43
0.0
 43
0.0
 43
1.0
 77
     0
 47
0.0208333333333333
 47
0.0
 47
0.0
 47
0.0
 47
0.0
 47
0.0208333333333333
 47
0.0
 47
0.0
 47
0.0
 47
0.0
 47
1.0
 47
0.0
 47
0.0
 47
0.0
 47
0.0
 47
1.0
171
     0
 49
0.0208333333333333
 49
0.0
 49
0.0
 49
0.0
 49
0.0
 49
0.0208333333333333
 49
0.0
 49
0.0
 49
0.0
 49
0.0
 49
1.0
 49
0.0
 49
0.0
 49
0.0
 49
0.0
 49
1.0
175
     0
142
0.0208333333333333
142
0.0
142
0.0
142
0.0
142
0.0
142
0.0208333333333333
142
0.0
142
0.0
142
0.0
142
0.0
142
1.0
142
0.0
142
0.0
142
0.0
142
0.0
142
1.0
179
     0
144
0.0208333333333333
144
0.0
144
0.0
144
0.0
144
0.0
144
0.0208333333333333
144
0.0
144
0.0
144
0.0
144
0.0
144
1.0
144
0.0
144
0.0
144
0.0
144
0.0
144
1.0
147
0.0208333333333333
147
0.0
147
0.0
147
0.0
147
0.0
147
0.0208333333333333
147
0.0
147
0.0
147
0.0
147
0.0
147
1.0
147
0.0
147
0.0
147
0.0
147
0.0
147
1.0
  0
MLINESTYLE
  5
56
102
{ACAD_REACTORS
330
3C
102
}
330
3C
100
AcDbMlineStyle
  2
STANDARD
 70
     0
  3

 62
     0
 51
90.0
 52
90.0
 71
     2
 49
0.5
 62
   256
  6
BYLAYER
 49
-0.5
 62
   256
  6
BYLAYER
  0
ACDBPLACEHOLDER
  5
A
102
{ACAD_REACTORS
330
B
102
}
330
B
  0
SCALE
  5
5B
102
{ACAD_REACTORS
330
4F
102
}
330
4F
100
AcDbScale
 70
     0
300
1:1
140
1.0
141
1.0
290
     1
  0
SCALE
  5
5C
102
{ACAD_REACTORS
330
4F
102
}
330
4F
100
AcDbScale
 70
     0
300
1:2
140
1.0
141
2.0
290
     0
  0
SCALE
  5
5D
102
{ACAD_REACTORS
330
4F
102
}
330
4F
100
AcDbScale
 70
     0
300
1:4
140
1.0
141
4.0
290
     0
  0
SCALE
  5
5E
102
{ACAD_REACTORS
330
4F
102
}
330
4F
100
AcDbScale
 70
     0
300
1:5
140
1.0
141
5.0
290
     0
  0
SCALE
  5
5F
102
{ACAD_REACTORS
330
4F
102
}
330
4F
100
AcDbScale
 70
     0
300
1:8
140
1.0
141
8.0
290
     0
  0
SCALE
  5
60
102
{ACAD_REACTORS
330
4F
102
}
330
4F
100
AcDbScale
 70
     0
300
1:10
140
1.0
141
10.0
290
     0
  0
SCALE
  5
61
102
{ACAD_REACTORS
330
4F
102
}
330
4F
100
AcDbScale
 70
     0
300
1:16
140
1.0
141
16.0
290
     0
  0
SCALE
  5
62
102
{ACAD_REACTORS
330
4F
102
}
330
4F
100
AcDbScale
 70
     0
300
1:20
140
1.0
141
20.0
290
     0
  0
SCALE
  5
63
102
{ACAD_REACTORS
330
4F
102
}
330
4F
100
AcDbScale
 70
     0
300
1:30
140
1.0
141
30.0
290
     0
  0
SCALE
  5
64
102
{ACAD_REACTORS
330
4F
102
}
330
4F
100
AcDbScale
 70
     0
300
1:40
140
1.0
141
40.0
290
     0
  0
SCALE
  5
65
102
{ACAD_REACTORS
330
4F
102
}
330
4F
100
AcDbScale
 70
     0
300
1:50
140
1.0
141
50.0
290
     0
  0
SCALE
  5
66
102
{ACAD_REACTORS
330
4F
102
}
330
4F
100
AcDbScale
 70
     0
300
1:100
140
1.0
141
100.0
290
     0
  0
SCALE
  5
67
102
{ACAD_REACTORS
330
4F
102
}
330
4F
100
AcDbScale
 70
     0
300
2:1
140
2.0
141
1.0
290
     0
  0
SCALE
  5
68
102
{ACAD_REACTORS
330
4F
102
}
330
4F
100
AcDbScale
 70
     0
300
4:1
140
4.0
141
1.0
290
     0
  0
SCALE
  5
69
102
{ACAD_REACTORS
330
4F
102
}
330
4F
100
AcDbScale
 70
     0
300
8:1
140
8.0
141
1.0
290
     0
  0
SCALE
  5
6A
102
{ACAD_REACTORS
330
4F
102
}
330
4F
100
AcDbScale
 70
     0
300
10:1
140
10.0
141
1.0
290
     0
  0
SCALE
  5
6B
102
{ACAD_REACTORS
330
4F
102
}
330
4F
100
AcDbScale
 70
     0
300
100:1
140
100.0
141
1.0
290
     0
  0
TABLESTYLE
  5
57
102
{ACAD_XDICTIONARY
360
58
102
}
102
{ACAD_REACTORS
330
50
102
}
330
50
100
AcDbTableStyle
  3
Standard
 70
     0
 71
     0
 40
1.5
 41
1.5
280
     0
281
     0
  7
STANDARD
140
4.5
170
     2
 62
     0
 63
     7
283
     0
274
    -2
284
     1
 64
     0
275
    -2
285
     1
 65
     0
276
    -2
286
     1
 66
     0
277
    -2
287
     1
 67
     0
278
    -2
288
     1
 68
     0
279
    -2
289
     1
 69
     0
  7
STANDARD
140
6.0
170
     5
 62
     0
 63
     7
283
     0
274
    -2
284
     1
 64
     0
275
    -2
285
     1
 65
     0
276
    -2
286
     1
 66
     0
277
    -2
287
     1
 67
     0
278
    -2
288
     1
 68
     0
279
    -2
289
     1
 69
     0
  7
STANDARD
140
4.5
170
     5
 62
     0
 63
     7
283
     0
274
    -2
284
     1
 64
     0
275
    -2
285
     1
 65
     0
276
    -2
286
     1
 66
     0
277
    -2
287
     1
 67
     0
278
    -2
288
     1
 68
     0
279
    -2
289
     1
 69
     0
  0
VISUALSTYLE
  5
2E
102
{ACAD_XDICTIONARY
360
539
102
}
102
{ACAD_REACTORS
330
2F
102
}
330
2F
100
AcDbVisualStyle
  2
2dWireframe
 70
     4
 71
     0
 72
     2
 73
     0
 90
        0
 40
-0.6
 41
-30.0
 62
     5
 63
     7
 74
     1
 91
        4
 64
     7
 65
   257
 75
     1
175
     1
 42
1.0
 92
        0
 66
   257
 43
1.0
 76
     1
 77
     6
 78
     2
 67
     7
 79
     5
170
     0
171
     0
290
     0
174
     0
 93
        1
 44
0.0
173
     0
291
     0
 45
0.0
1001
ACAD
1000
AcDbSavedByObjectVersion
1070
     0
  0
VISUALSTYLE
  5
59
102
{ACAD_XDICTIONARY
360
53E
102
}
102
{ACAD_REACTORS
330
2F
102
}
330
2F
100
AcDbVisualStyle
  2
Realistic
 70
     8
 71
     2
 72
     2
 73
     0
 90
        0
 40
-0.6
 41
-30.0
 62
     5
 63
     7
 74
     1
 91
        0
 64
     7
 65
   257
 75
     1
175
     1
 42
1.0
 92
        8
 66
     8
 43
1.0
 76
     1
 77
     6
 78
     2
 67
     7
 79
     5
170
     0
171
     0
290
     0
174
     0
 93
       13
 44
0.0
173
     0
291
     0
 45
0.0
1001
ACAD
1000
AcDbSavedByObjectVersion
1070
     0
  0
VISUALSTYLE
  5
5A
102
{ACAD_XDICTIONARY
360
540
102
}
102
{ACAD_REACTORS
330
2F
102
}
330
2F
100
AcDbVisualStyle
  2
Wireframe
 70
     5
 71
     0
 72
     2
 73
     0
 90
        0
 40
-0.6
 41
-30.0
 62
     5
 63
     7
 74
     1
 91
        4
 64
     7
 65
   257
 75
     1
175
     1
 42
1.0
 92
        0
 66
   257
 43
1.0
 76
     1
 77
     6
 78
     2
 67
     7
 79
     3
170
     0
171
     0
290
     0
174
     0
 93
        1
 44
0.0
173
     0
291
     0
 45
0.0
1001
ACAD
1000
AcDbSavedByObjectVersion
1070
     0
  0
DICTIONARYVAR
  5
52C
102
{ACAD_REACTORS
330
529
102
}
330
529
100
DictionaryVariables
280
     0
  1
1:1
  0
DICTIONARYVAR
  5
52B
102
{ACAD_REACTORS
330
529
102
}
330
529
100
DictionaryVariables
280
     0
  1
STANDARD
  0
DICTIONARYVAR
  5
52A
102
{ACAD_REACTORS
330
529
102
}
330
529
100
DictionaryVariables
280
     0
  1
STANDARD
  0
DICTIONARYVAR
  5
531
102
{ACAD_REACTORS
330
529
102
}
330
529
100
DictionaryVariables
280
     0
  1
1
  0
DICTIONARYVAR
  5
52F
102
{ACAD_REACTORS
330
529
102
}
330
529
100
DictionaryVariables
280
     0
  1
1
  0
DICTIONARYVAR
  5
52E
102
{ACAD_REACTORS
330
529
102
}
330
529
100
DictionaryVariables
280
     0
  1
0
  0
DICTIONARYVAR
  5
532
102
{ACAD_REACTORS
330
529
102
}
330
529
100
DictionaryVariables
280
     0
  1
1
  0
DICTIONARYVAR
  5
52D
102
{ACAD_REACTORS
330
529
102
}
330
529
100
DictionaryVariables
280
     0
  1
127
  0
DICTIONARYVAR
  5
530
102
{ACAD_REACTORS
330
529
102
}
330
529
100
DictionaryVariables
280
     0
  1
0
  0
DICTIONARY
  5
4E5
102
{ACAD_REACTORS
330
4E4
102
}
330
4E4
100
AcDbDictionary
281
     1
  0
DICTIONARY
  5
4DF
102
{ACAD_REACTORS
330
4D5
102
}
330
4D5
100
AcDbDictionary
281
     1
  3
DWGSETTINGS
350
4DE
  3
TRANSSETTINGS
350
4E0
  0
DICTIONARY
  5
537
330
1F
100
AcDbDictionary
280
     1
281
     1
  3
ACAD_XREC_ROUNDTRIP
360
538
  0
DICTIONARY
  5
1A
330
18
100
AcDbDictionary
280
     1
281
     1
  3
ACAD_XREC_ROUNDTRIP
360
536
  3
ADSK_XREC_LAYOUTTHUMBNAIL
360
1B
  0
DICTIONARY
  5
47
330
46
100
AcDbDictionary
280
     1
281
     1
  3
ACAD_XREC_ROUNDTRIP
360
53C
  3
BUMPTILE
360
48
  3
DIFFUSETILE
360
49
  3
OPACITYTILE
360
4A
  3
REFLECTIONTILE
360
4B
  3
REFRACTIONTILE
360
4C
  3
SPECULARTILE
360
4D
  0
DICTIONARY
  5
3F
330
3E
100
AcDbDictionary
280
     1
281
     1
  3
ACAD_XREC_ROUNDTRIP
360
53B
  3
BUMPTILE
360
40
  3
DIFFUSETILE
360
41
  3
OPACITYTILE
360
42
  3
REFLECTIONTILE
360
43
  3
REFRACTIONTILE
360
44
  3
SPECULARTILE
360
45
  0
DICTIONARY
  5
F
330
D
100
AcDbDictionary
280
     1
281
     1
  3
ACAD_XREC_ROUNDTRIP
360
535
  3
BUMPTILE
360
10
  3
DIFFUSETILE
360
11
  3
OPACITYTILE
360
12
  3
REFLECTIONTILE
360
13
  3
REFRACTIONTILE
360
14
  3
SPECULARTILE
360
15
  0
DICTIONARY
  5
58
330
57
100
AcDbDictionary
280
     1
281
     1
  3
ACAD_ROUNDTRIP_2008_TABLESTYLE_CELLSTYLEMAP
360
533
  3
ACAD_XREC_ROUNDTRIP
360
53D
  0
DICTIONARY
  5
539
330
2E
100
AcDbDictionary
280
     1
281
     1
  3
ACAD_XREC_ROUNDTRIP
360
53A
  0
DICTIONARY
  5
53E
330
59
100
AcDbDictionary
280
     1
281
     1
  3
ACAD_XREC_ROUNDTRIP
360
53F
  0
DICTIONARY
  5
540
330
5A
100
AcDbDictionary
280
     1
281
     1
  3
ACAD_XREC_ROUNDTRIP
360
541
  0
XRECORD
  5
538
102
{ACAD_REACTORS
330
537
102
}
330
537
100
AcDbXrecord
280
     1
102
SHADEPLOT
 70
     0
102
SHADEPLOTRESLEVEL
 70
     2
102
SHADEPLOTCUSTOMDPI
 70
   300
  0
XRECORD
  5
536
102
{ACAD_REACTORS
330
1A
102
}
330
1A
100
AcDbXrecord
280
     1
102
SHADEPLOT
 70
     0
102
SHADEPLOTRESLEVEL
 70
     2
102
SHADEPLOTCUSTOMDPI
 70
   300
  0
XRECORD
  5
1B
102
{ACAD_REACTORS
330
1A
102
}
330
1A
100
AcDbXrecord
280
     1
310
28000000000100007D0000000100080000000000007D0000000000000000000000010000000000000000000000000000FFFFFF000000000000000000000000000000000000000000000000000000000000000000330000006600000099000000CC000000FF00000000330000333300006633000099330000CC330000FF3300
310
0000660000336600006666000099660000CC660000FF66000000990000339900006699000099990000CC990000FF99000000CC000033CC000066CC000099CC0000CCCC0000FFCC000000FF000033FF000066FF000099FF0000CCFF0000FFFF000000003300330033006600330099003300CC003300FF003300003333003333
310
33006633330099333300CC333300FF33330000663300336633006666330099663300CC663300FF66330000993300339933006699330099993300CC993300FF99330000CC330033CC330066CC330099CC3300CCCC3300FFCC330000FF330033FF330066FF330099FF3300CCFF3300FFFF330000006600330066006600660099
310
006600CC006600FF00660000336600333366006633660099336600CC336600FF33660000666600336666006666660099666600CC666600FF66660000996600339966006699660099996600CC996600FF99660000CC660033CC660066CC660099CC6600CCCC6600FFCC660000FF660033FF660066FF660099FF6600CCFF6600
310
FFFF660000009900330099006600990099009900CC009900FF00990000339900333399006633990099339900CC339900FF33990000669900336699006666990099669900CC669900FF66990000999900339999006699990099999900CC999900FF99990000CC990033CC990066CC990099CC9900CCCC9900FFCC990000FF99
310
0033FF990066FF990099FF9900CCFF9900FFFF99000000CC003300CC006600CC009900CC00CC00CC00FF00CC000033CC003333CC006633CC009933CC00CC33CC00FF33CC000066CC003366CC006666CC009966CC00CC66CC00FF66CC000099CC003399CC006699CC009999CC00CC99CC00FF99CC0000CCCC0033CCCC0066CC
310
CC0099CCCC00CCCCCC00FFCCCC0000FFCC0033FFCC0066FFCC0099FFCC00CCFFCC00FFFFCC000000FF003300FF006600FF009900FF00CC00FF00FF00FF000033FF003333FF006633FF009933FF00CC33FF00FF33FF000066FF003366FF006666FF009966FF00CC66FF00FF66FF000099FF003399FF006699FF009999FF00CC
310
99FF00FF99FF0000CCFF0033CCFF0066CCFF0099CCFF00CCCCFF00FFCCFF0000FFFF0033FFFF0066FFFF0099FFFF00CCFFFF00FFFFFF00000000000D0D0D001A1A1A00282828003535350043434300505050005D5D5D006B6B6B00787878008686860093939300A1A1A100AEAEAE00BBBBBB00C9C9C900D6D6D600E4E4E400
310
F1F1F100FFFFFF000000000000000000000000000000000000000000000000000000000000000000000000000000000000000000000000000000000000000000000000000000000000000000000000000000000000000000000000000000000000000000000000000000000000000000000000000000000000000000000000
310
00000000000000000000000000000000000000000000000000000000000000000000000000000000000000000000000000000000000000000000000000000000000000000000000000000000000000000000000000000000000000000000000000000000000000000000000000000000000000000000000000000000000000
310
00000000000000000000000000000000000000000000000000000000000000000000000000000000000000000000000000000000000000000000000000000000000000000000000000000000000000000000000000000000000000000000000000000000000000000000000000000000000000000000000000000000002D2D
310
000000000000000000BE000000000000000000000000000000000000000000000000000000000000000000000000000000000000000000000000000000000000000000000000000000000000000000000000000000000000000000000000000000000000000000000000000000000000000000000000000000000000000000
310
000000000000000000000000000000000000000000000000000000000000000000000000000000000000000000000000000000000000000000000000000000000000000000000000000000000000000000000000000000000000000000000000000000000000000000000000000000000000000000000000000000002D2D2D
310
2D2D2D2D2D2D2D2D2D2D2DBE2D2D2D2D000000000000000000000000000000000000000000000000000000000000000000000000000000000000000000000000000000000000000000000000000000000000000000000000000000000000000000000000000000000000000000000000000000000000000000000000000000
310
0000000000000000000000000000000000000000000000000000000000000000000000000000000000000000000000000000000000000000000000000000000000000000000000000000000000000000000000000000000000000000000000000000000000000000000000000000000000000000000000000000000000002D
310
2D002D2D000000002D002D002DBE2D2D002D00000000000000000000000000000000000000000000000000000000000000000000000000000000000000000000000000000000000000000000000000000000000000000000000000000000000000000000000000000000000000000000000000000000000000000000000000
310
00000000000000000000000000000000000000000000000000000000000000000000000000000000000000000000000000000000000000000000000000000000000000000000000000000000000000000000000000000000000000000000000000000000000000000000000000000000000000000000000000000000000000
310
002D2D2D2D2D2D2D2D2D2D2D2D2D2DBE2D2D2D2D0000000000000000000000000000000000000000000000000000000000000000000000000000000000000000000000000000000000000000000000000000000000000000000000000000000000000000000000000000000000000000000000000000000000000000000000
310
00000000000000000000000000000000000000000000000000000000000000000000000000000000000000000000000000000000000000000000000000000000000000000000000000000000000000000000000000000000000000000000000000000000000000000000000000000000000000000000000000000000000000
310
0000000000002D2D000000000000000000BE00000000000000000000000000000000000000000000000000000000000000000000000000000000000000000000000000000000000000000000000000000000000000000000000000000000000000000000000000000000000000000000000000000000000000000000000000
310
00000000000000000000000000000000000000000000000000000000000000000000000000000000000000000000000000000000000000000000000000000000000000000000000000000000000000000000000000000000000000000000000000000000000000000000000000000000000000000000000000000000000000
310
00000000000000000000000000000000000000000000000000000000000000000000000000000000000000000000000000000000000000000000000000000000000000000000000000000000000000000000000000000000000000000000000000000000000000000000000000000000000000000000000000000000000000
310
00000000000000000000000000000000000000000000000000000000000000000000000000000000000000000000000000000000000000000000000000000000000000000000000000000000000000000000000000000000000000000000000000000000000000000000000000000000000000000000000000000000000000
310
00000000000000000000000000000000000000000000000000000000000000000000000000000000000000000000000000000000000000000000000000000000000000000000000000000000000000000000000000000000000000000000000000000000000000000000000000000000000000000000000000000000000000
310
00000000000000000000000000000000000000000000000000000000000000000000000000000000000000000000000000000000000000000000000000000000000000000000000000000000000000000000000000000000000000000000000000000000000000000000000000000000000000000000000000000000000000
310
00000000000000000000000000000000000000000000000000000000000000000000000000000000000000000000000000000000000000000000000000000000000000000000000000000000000000000000000000000000000000000000000000000000000000000000000000000000000000000000000000000000000000
310
00000000000000000000000000000000000000000000000000000000000000000000000000000000000000000000000000000000000000000000000000000000000000000000000000000000000000000000000000000000000000000000000000000000000000000000000000000000000000000000000000000000000000
310
00000000000000000000000000000000000000000000000000000000000000000000000000000000000000000000000000000000000000000000000000000000000000000000000000000000000000000000000000000000000000000000000000000000000000000000000000000000000000000000000000000000000000
310
00000000000000000000000000000000000000000000000000000000000000000000000000000000000000000000000000000000000000000000000000000000000000000000000000000000000000000000000000000000000000000000000000000000000000000000000000000000000000000000000000000000000000
310
00000000000000000000000000000000000000000000000000000000000000000000000000000000000000000000000000000000000000000000000000000000000000000000000000000000000000000000000000000000000000000000000000000000000000000000000000000000000000000000000000000000000000
310
00000000000000000000000000000000000000000000000000000000000000000000000000000000000000000000000000000000000000000000000000000000000000000000000000000000000000000000000000000000000000000000000000000000000000000000000000000000000000000000000000000000000000
310
00000000000000000000000000000000000000000000000000000000000000000000000000000000000000000000000000000000000000000000000000000000000000000000000000000000000000000000000000000000000000000000000000000000000000000000000000000000000000000000000000000000000000
310
00000000000000000000000000000000000000000000000000000000000000000000000000000000000000000000000000000000000000000000000000000000000000000000000000000000000000000000000000000000000000000000000000000000000000000000000000000000000000000000000000000000000000
310
00000000000000000000000000000000000000000000000000000000000000000000000000000000000000000000000000000000000000000000000000000000000000000000000000000000000000000000000000000000000000000000000000000000000000000000000000000000000000000000000000000000000000
310
00000000000000000000000000000000000000000000000000000000000000000000000000000000000000000000000000000000000000000000000000000000000000000000000000000000000000000000000000000000000000000000000000000000000000000000000000000000000000000000000000000000000000
310
00000000000000000000000000000000000000000000000000000000000000000000000000000000000000000000000000000000000000000000000000000000000000000000000000000000000000000000000000000000000000000000000000000000000000000000000000000000000000000000000000000000000000
310
00000000000000000000000000000000000000000000000000000000000000000000000000000000000000000000000000000000000000000000000000000000000000000000000000000000000000000000000000000000000000000000000000000000000000000000000000000000000000000000000000000000000000
310
00000000000000000000000000000000000000000000000000000000000000000000000000000000000000000000000000000000000000000000000000000000000000000000000000000000000000000000000000000000000000000000000000000000000000000000000000000000000000000000000000000000000000
310
00000000000000000000000000000000000000000000000000000000000000000000000000000000000000000000000000000000000000000000000000000000000000000000000000000000000000000000000000000000000000000000000000000000000000000000000000000000000000000000000000000000000000
310
00000000000000000000000000000000000000000000000000000000000000000000000000000000000000000000000000000000000000000000000000000000000000000000000000000000000000000000000000000000000000000000000000000000000000000000000000000000000000000000000000000000000000
310
00000000000000000000000000000000000000000000000000000000000000000000000000000000000000000000000000000000000000000000000000000000000000000000000000000000000000000000000000000000000000000000000000000000000000000000000000000000000000000000000000000000000000
310
000000000000000000000000000000000000000000000000000000002D2D000000000000000000000000000000000000000000000000000000000000002D2D2D000000000000000000000000000000000000000000000000000000000000000000000000000000000000000000000000000000000000000000000000000000
310
00000000000000000000000000000000000000000000000000000000000000000000000000000000000000000000000000000000000000000000000000000000000000000000000000000000000000000000000000000000000000000000000000000000000000000000000000000000000000000000000000000000000000
310
0000000000000000000000000000000000000000000000000000000000002D2D0000000000000000000000000000000000000000000000000000000000002D2D002D00000000000000000000000000000000000000000000000000000000000000000000000000000000000000000000000000000000000000000000000000
310
00000000000000000000000000000000000000000000000000000000000000000000000000000000000000000000000000000000000000000000000000000000000000000000000000000000000000000000000000000000000000000000000000000000000000000000000000000000000000000000000000000000000000
310
00000000000000000000000000000000000000000000000000000000000000002D2D0000000000000000000000000000000000000000000000000000000000002D00002D0000000000000000000000000000000000000000000000000000000000000000000000000000000000000000000000000000000000000000000000
310
00000000000000000000000000000000000000000000000000000000000000000000000000000000000000000000000000000000000000000000000000000000000000000000000000000000000000000000000000000000000000000000000000000000000000000000000000000000000000000000000000000000000000
310
000000000000000000000000000000000000000000000000000000000000000000002D2D0000000000000000000000000000000000000000000000000000000000002DBEBE2D000000000000000000000000000000000000000000000000000000000000000000000000000000000000000000000000000000000000000000
310
00000000000000000000000000000000000000000000000000000000000000000000000000000000000000000000000000000000000000000000000000000000000000000000000000000000000000000000000000000000000000000000000000000000000000000000000000000000000000000000000000000000000000
310
0000000000000000000000000000000000000000000000000000000000000000000000BE2D2DBE00000000000000000000000000000000000000000000000000000000002DBEBE2D00000000000000000000000000000000000000000000000000000000000000000000000000000000000000000000000000000000000000
310
00000000000000000000000000000000000000000000000000000000000000000000000000000000000000000000000000000000000000000000000000000000000000000000000000000000000000000000000000000000000000000000000000000000000000000000000000000000000000000000000000000000000000
310
00000000000000000000000000000000000000000000000000000000000000000000000000002D2D0000000000000000000000000000000000000000000000000000000000002D28BE2D0000000000000000000000000000000000000000000000000000000000000000000000000000000000000000000000000000000000
310
00000000000000000000000000000000000000000000000000000000000000000000000000000000000000000000000000000000000000000000000000000000000000000000000000000000000000000000000000000000000000000000000000000000000000000000000000000000000000000000000000000000000000
310
000000000000000000000000000000000000000000000000000000000000000000000000000000002D2D0000000000000000000000000000000000000000000000000000000000002DBEBE2D000000000000000000000000000000000000000000000000000000000000000000000000000000000000000000000000000000
310
00000000000000000000000000000000000000000000000000000000000000000000000000000000000000000000000000000000000000000000000000000000000000000000000000000000000000000000000000000000000000000000000000000000000000000000000000000000000000000000000000000000000000
310
0000000000000000000000000000000000000000000000000000000000000000000000000000000000002D2D0000000000000000000000000000000000000000000000000000000000002DBEBE2D00000000000000000000000000000000000000000000000000000000000000000000000000000000000000000000000000
310
00000000000000000000000000000000000000000000000000000000000000000000000000000000000000000000000000000000000000000000000000000000000000000000000000000000000000000000000000000000000000000000000000000000000000000000000000000000000000000000000000000000000000
310
00000000000000000000000000000000000000000000000000000000000000000000000000000000000000002D2D0000000000000000000000000000000000000000000000000000000000002D00002D0000000000000000000000000000000000000000000000000000000000000000000000000000000000000000000000
310
00000000000000000000000000000000000000000000000000000000000000000000000000000000000000000000000000000000000000000000000000000000000000000000000000000000000000000000000000000000000000000000000000000000000000000000000000000000000000000000000000000000000000
310
000000000000000000000000000000000000000000000000000000000000000000000000000000000000000000002D2D0000000000000000000000000000000000000000000000000000000000002D00002D000000000000000000000000000000000000000000000000000000000000000000000000000000000000000000
310
00000000000000000000000000000000000000000000000000000000000000000000000000000000000000000000000000000000000000000000000000000000000000000000000000000000000000000000000000000000000000000000000000000000000000000000000000000000000000000000000000000000000000
310
0000000000000000000000000000000000000000000000000000000000000000000000000000000000000000000000002D2D2D2D2D2D2D000000000000000000000000000000000000000000000000002D00002D00000000000000000000000000000000000000000000000000000000000000000000000000000000000000
310
00000000000000000000000000000000000000000000000000000000000000000000000000000000000000000000000000000000000000000000000000000000000000000000000000000000000000000000000000000000000000000000000000000000000000000000000000000000000000000000000000000000000000
310
00000000000000000000000000000000000000000000000000000000000000000000000000000000000000000000000000002D2D002D2D2D2D000000000000000000000000000000000000000000000000002D00002D0000000000000000000000000000000000000000000000000000000000000000000000000000000000
310
00000000000000000000000000000000000000000000000000000000000000000000000000000000000000000000000000000000000000000000000000000000000000000000000000000000000000000000000000000000000000000000000000000000000000000000000000000000000000000000000000000000000000
310
000000000000000000000000000000000000000000000000000000000000000000000000000000000000000000000000002D2DBE2D2D00000000002D2D00000000000000000000000000000000000000000000002D2D2D2D000000000000000000000000000000000000000000000000000000000000000000000000000000
310
00000000000000000000000000000000000000000000000000000000000000000000000000000000000000000000000000000000000000000000000000000000000000000000000000000000000000000000000000000000000000000000000000000000000000000000000000000000000000000000000000000000000000
310
0000000000000000000000000000000000000000000000000000000000000000000000000000000000000000000000000000002D2D2D2D2D0000000000002D00000000000000000000000000000000000000000000002D2D2D2D00000000000000000000000000000000000000000000000000000000000000000000000000
310
00000000000000000000000000000000000000000000000000000000000000000000000000000000000000000000000000000000000000000000000000000000000000000000000000000000000000000000000000000000000000000000000000000000000000000000000000000000000000000000000000000000000000
310
00000000000000000000000000000000000000000000000000000000000000000000000000000000000000000000000000000000002D2DBE2D2D2D00000000002D00000000000000000000000000000000000000000000002D2D2D2D0000000000000000000000000000000000000000000000000000000000000000000000
310
00000000000000000000000000000000000000000000000000000000000000000000000000000000000000000000000000000000000000000000000000000000000000000000000000000000000000000000000000000000000000000000000000000000000000000000000000000000000000000000000000000000000000
310
000000000000000000000000000000000000000000000000000000000000000000000000000000000000000000000000000000000000000000002D2D2D00000000002D00000000000000000000000000000000000000000000002D00002D000000000000000000000000000000000000000000000000000000000000000000
310
00000000000000000000000000000000000000000000000000000000000000000000000000000000000000000000000000000000000000000000000000000000000000000000000000000000000000000000000000000000000000000000000000000000000000000000000000000000000000000000000000000000000000
310
0000000000000000000000000000000000000000000000000000000000000000000000000000000000000000000000000000000000000000000000002D2D2D00000000002D00000000000000000000000000000000000000000000002D00002D00000000000000000000000000000000000000000000000000000000000000
310
00000000000000000000000000000000000000000000000000000000000000000000000000000000000000000000000000000000000000000000000000000000000000000000000000000000000000000000000000000000000000000000000000000000000000000000000000000000000000000000000000000000000000
310
00000000000000000000000000000000000000000000000000000000000000000000000000000000000000000000000000000000000000000000000000002D2D2800000000002D00000000000000000000000000000000000000000000002D00002D0000000000000000000000000000000000000000000000000000000000
310
00000000000000000000000000000000000000000000000000000000000000000000000000000000000000000000000000000000000000000000000000000000000000000000000000000000000000000000000000000000000000000000000000000000000000000000000000000000000000000000000000000000000000
310
000000000000000000000000000000000000000000000000000000000000000000000000000000000000000000000000000000000000000000000000000000002D282800000000002D00000000000000000000000000000000000000000000002D00002D000000000000000000000000000000000000000000000000000000
310
00000000000000000000000000000000000000000000000000000000000000000000000000000000000000000000000000000000000000000000000000000000000000000000000000000000000000000000000000000000000000000000000000000000000000000000000000000000000000000000000000000000000000
310
0000000000000000000000000000000000000000000000000000000000000000000000000000000000000000000000000000000000000000000000000000000000002D282800000000002D00000000000000000000000000000000000000000000002D00002D00000000000000000000000000000000000000000000000000
310
00000000000000000000000000000000000000000000000000000000000000000000000000000000000000000000000000000000000000000000000000000000000000000000000000000000000000000000000000000000000000000000000000000000000000000000000000000000000000000000000000000000000000
310
00000000000000000000000000000000000000000000000000000000000000000000000000000000000000000000000000000000000000000000000000000000000000002D282800000000002D00000000000000000000000000000000000000000000002D00002D0000000000000000000000000000000000000000000000
310
00000000000000000000000000000000000000000000000000000000000000000000000000000000000000000000000000000000000000000000000000000000000000000000000000000000000000000000000000000000000000000000000000000000000000000000000000000000000000000000000000000000000000
310
000000000000000000000000000000000000000000000000000000000000000000000000000000000000000000000000000000000000000000000000000000000000000000002D28282D2D2D2D2D0000000000000000000000000000000000000000000000002D00002D000000000000000000000000000000000000000000
310
00000000000000000000000000000000000000000000000000000000000000000000000000000000000000000000000000000000000000000000000000000000000000000000000000000000000000000000000000000000000000000000000000000000000000000000000000000000000000000000000000000000000000
310
0000000000000000000000000000000000000000000000000000000000000000000000000000000000000000000000000000000000000000000000000000000000000000000000002D28282D2D2D2D000000000000000000000000000000000000000000000000002D00002D00000000000000000000000000000000000000
310
00000000000000000000000000000000000000000000000000000000000000000000000000000000000000000000000000000000000000000000000000000000000000000000000000000000000000000000000000000000000000000000000000000000000000000000000000000000000000000000000000000000000000
310
00000000000000000000000000000000000000000000000000000000000000000000000000000000000000000000000000000000000000000000000000000000000000000000000000002D282800000000000000000000000000000000000000000000000000000000002DBEBE2D0000000000000000000000000000000000
310
00000000000000000000000000000000000000000000000000000000000000000000000000000000000000000000000000000000000000000000000000000000000000000000000000000000000000000000000000000000000000000000000000000000000000000000000000000000000000000000000000000000000000
310
000000000000000000000000000000000000000000000000000000000000000000000000000000000000000000000000000000000000000000000000000000000000000000000000000000BE2D2D2800000000000000000000000000000000000000000000000000000000002DBEBE2D000000000000000000000000000000
310
00000000000000000000000000000000000000000000000000000000000000000000000000000000000000000000000000000000000000000000000000000000000000000000000000000000000000000000000000000000000000000000000000000000000000000000000000000000000000000000000000000000000000
310
0000000000000000000000000000000000000000000000000000000000000000000000000000000000000000000000000000000000000000000000000000000000000000000000000000000000002D2D2800000000000000000000000000000000000000000000000000000000002D28BE2D00000000000000000000000000
310
00000000000000000000000000000000000000000000000000000000000000000000000000000000000000000000000000000000000000000000000000000000000000000000000000000000000000000000000000000000000000000000000000000000000000000000000000000000000000000000000000000000000000
310
00000000000000000000000000000000000000000000000000000000000000000000000000000000000000000000000000000000000000000000000000000000000000000000000000000000000000002D2D2800000000000000000000000000000000000000000000000000000000002DBEBE2D0000000000000000000000
310
00000000000000000000000000000000000000000000000000000000000000000000000000000000000000000000000000000000000000000000000000000000000000000000000000000000000000000000000000000000000000000000000000000000000000000000000000000000000000000000000000000000000000
310
000000000000000000000000000000000000000000000000000000000000000000000000000000000000000000000000000000000000000000000000000000000000000000000000000000000000000000BE2D282800000000000000000000000000000000000000000000000000000000002DBEBE2D000000000000000000
310
00000000000000000000000000000000000000000000000000000000000000000000000000000000000000000000000000000000000000000000000000000000000000000000000000000000000000000000000000000000000000000000000000000000000000000000000000000000000000000000000000000000000000
310
0000000000000000000000000000000000000000000000000000000000000000000000000000000000000000000000000000000000000000000000000000000000000000000000000000000000000000000000002D282800000000000000000000000000000000000000000000000000000000002D28BE2D00000000000000
310
00000000000000000000000000000000000000000000000000000000000000000000000000000000000000000000000000000000000000000000000000000000000000000000000000000000000000000000000000000000000000000000000000000000000000000000000000000000000000000000000000000000000000
310
00000000000000000000000000000000000000000000000000000000000000000000000000000000000000000000000000000000000000000000000000000000000000000000000000000000000000000000000000002D282800000000000000000000000000000000000000000000000000000000002DBEBE2D0000000000
310
00000000000000000000000000000000000000000000000000000000000000000000000000000000000000000000000000000000000000000000000000000000000000000000000000000000000000000000000000000000000000000000000000000000000000000000000000000000000000000000000000000000000000
310
000000000000000000000000000000000000000000000000000000000000000000000000000000000000000000000000000000000000000000000000000000000000000000000000000000000000000000000000000000BE2D2D2800000000000000000000000000000000000000000000000000000000002DBEBE2D000000
310
00000000000000000000000000000000000000000000000000000000000000000000000000000000000000000000000000000000000000000000000000000000000000000000000000000000000000000000000000000000000000000000000000000000000000000000000000000000000000000000000000000000000000
310
0000000000000000000000000000000000000000000000000000000000000000000000000000000000000000000000000000000000000000000000000000000000000000000000000000000000000000000000000000000000002D2D2800000000000000000000000000000000000000000000000000000000002D28BE2D00
310
00000000000000000000000000000000000000000000000000000000000000000000000000000000000000000000000000000000000000000000000000000000000000000000000000000000000000000000000000000000000000000000000000000000000000000000000000000000000000000000000000000000000000
310
00000000000000000000000000000000000000000000000000000000000000000000000000000000000000000000000000000000000000000000000000000000000000000000000000000000000000000000000000000000000000002D2D2800000000000000000000000000000000000000000000000000000000002DBEBE
310
2D000000000000000000000000000000000000000000000000000000000000000000000000000000000000000000000000000000000000000000000000000000000000000000000000000000000000000000000000000000000000000000000000000000000000000000000000000000000000000000000000000000000000
310
000000000000000000000000000000000000000000000000000000000000000000000000000000000000000000000000000000000000000000000000000000000000000000000000000000000000000000000000000000000000000000002D282800000000000000000000000000000000000000000000000000000000002D
310
28282D00000000000000000000000000000000000000000000000000000000000000000000000000000000000000000000000000000000000000000000000000000000000000000000000000000000000000000000000000000000000000000000000000000000000000000000000000000000000000000000000000000000
310
0000000000000000000000000000000000000000000000000000000000000000000000000000000000000000000000000000000000000000000000000000000000000000000000000000000000000000000000000000000000000000000000002D282800000000000000000000000000000000000000000000000000000000
310
002D28282D0000000000000000000000000000000000000000000000000000000000000000000000000000000000000000000000000000000000000000000000000000000000000000000000000000000000000000000000000000000000000000000000000000000000000000000000000000000000000000000000000000
310
00000000000000000000000000000000000000000000000000000000000000000000000000000000000000000000000000000000000000000000000000000000000000000000000000000000000000000000000000000000000000000000000000002D28282D2D2D0000000000000000000000000000000000000000000000
310
0000002DBEBE2D000000000000000000000000000000000000000000000000000000000000000000000000000000000000000000000000000000000000000000000000000000000000000000000000000000000000000000000000000000000000000000000000000000000000000000000000000000000000000000000000
310
000000000000000000000000000000000000000000000000000000000000000000000000000000000000000000000000000000000000000000000000000000000000000000000000000000000000000000000000000000000000000000000000000000002D2D280000002D0000000000000000000000000000000000000000
310
00000000002D00002D00000000000000000000000000000000000000000000000000000000000000000000000000000000000000000000000000000000000000000000000000000000000000000000000000000000000000000000000000000000000000000000000000000000000000000000000000000000000000000000
310
0000000000000000000000000000000000000000000000000000000000000000000000000000000000000000000000000000000000000000000000000000000000000000000000000000000000000000000000000000000000000000000000000000000000002D2D280000002D000000000000000000000000000000000000
310
000000000000002D00002D0000000000000000000000000000000000000000000000000000000000000000000000000000000000000000000000000000000000000000000000000000000000000000000000000000000000000000000000000000000000000000000000000000000000000000000000000000000000000000
310
00000000000000000000000000000000000000000000000000000000000000000000000000000000000000000000000000000000000000000000000000000000000000000000000000000000000000000000000000000000000000000000000000000000000000002D2D280000002D2D000000000000000000000000000000
310
0000000000000000002D00002D000000000000000000000000000000000000000000000000000000000000000000000000000000000000000000000000000000000000000000000000000000000000000000000000000000000000000000000000000000000000000000000000000000000000000000000000000000000000
310
000000000000000000000000000000000000000000000000000000000000000000000000000000000000000000000000000000000000000000000000000000000000000000000000000000000000000000000000000000000000000000000000000000000000000000002D2D280000002D2D2D2D2DBE2D2D00000000000000
310
00000000000000000000002D00BE2D00000000000000000000000000000000000000000000000000000000000000000000000000000000000000000000000000000000000000000000000000000000000000000000000000000000000000000000000000000000000000000000000000000000000000000000000000000000
310
0000000000000000000000000000000000000000000000000000000000000000000000000000000000000000000000000000000000000000000000000000000000000000000000000000000000000000000000000000000000000000000000000000000000000000000000002D2D28000000000000BEBEBEBE002D00000000
310
000000000000000000000000002D28282D0000000000000000000000000000000000000000000000000000000000000000000000000000000000000000000000000000000000000000000000000000000000000000000000000000000000000000000000000000000000000000000000000000000000000000000000000000
310
00000000000000000000000000000000000000000000000000000000000000000000000000000000000000000000000000000000000000000000000000000000000000000000000000000000000000000000000000000000000000000000000000000000000000000000000000002D2D2D00000000BEBEBEBEBEBEBEBE2D00
310
0000000000000000000000000000002D28282D000000000000000000000000000000000000000000000000000000000000000000000000000000000000000000000000000000000000000000000000000000000000000000000000000000000000000000000000000000000000000000000000000000000000000000000000
310
000000000000000000000000000000000000000000000000000000000000000000000000000000000000000000000000000000000000000000000000000000000000000000000000000000000000000000000000000000000000000000000000000000000000000000000000000000002D2D00000000BEBEBEBE2DBEBEBEBE
310
BE000000000000000000000000000000002D00BE2D00000000000000000000000000000000000000000000000000000000000000000000000000000000000000000000000000000000000000000000000000000000000000000000000000000000000000000000000000000000000000000000000000000000000000000000
310
0000000000000000000000000000000000000000000000000000000000000000000000000000000000000000000000000000000000000000000000000000000000000000000000000000000000000000000000000000000000000000000000000000000000000000000000000000000000002D2D0000000000BE2D2D00BE2D
310
2DBE2D000000000000000000000000000000002D00002D0000000000000000000000000000000000000000000000000000000000000000000000000000000000000000000000000000000000000000000000000000000000000000000000000000000000000000000000000000000000000000000000000000000000000000
310
00000000000000000000000000000000000000000000000000000000000000000000000000000000000000000000000000000000000000000000000000000000000000000000000000000000000000000000000000000000000000000000000000000000000000000000000000000000000000002D2D000000000000BEBE00
310
BEBEBE002D000000000000000000000000000000002D00002D000000000000000000000000000000000000000000000000000000000000000000000000000000000000000000000000000000000000000000000000000000000000000000000000000000000000000000000000000000000000000000000000000000000000
310
000000000000000000000000000000000000000000000000000000000000000000000000000000000000000000000000000000000000000000000000000000000000000000000000000000000000000000000000000000000000000000000000000000000000000000000000000000000000002D2D2D2D2D00000000000000
310
2D2DBE2D00002D000000000000000000000000000000002D2D2D2D00000000000000000000000000000000000000000000000000000000000000000000000000000000000000000000000000000000000000000000000000000000000000000000000000000000000000000000000000000000000000000000000000000000
310
0000000000000000000000000000000000000000000000000000000000000000000000000000000000000000000000000000000000000000000000000000000000000000000000000000000000000000000000000000000000000000000000000000000000000000000000000000000000000000002D00002D2D0000000000
310
00000000BE0000002D000000000000000000000000000000002D2D2D2D0000000000000000000000000000000000000000000000000000000000000000000000000000000000000000000000000000000000000000000000000000000000000000000000000000000000000000000000000000000000000000000000000000
310
0000000000000000000000000000000000000000000000000000000000000000000000000000000000000000000000000000000000000000000000000000000000000000000000000000000000000000000000000000000000000000000000000000000000000000000000000000000000000000000000BEBEBEBEBE000000
310
000000000000BE0000002D000000000000000000000000000000002D2D2D2D000000000000000000000000000000000000000000000000000000000000000000000000000000000000000000000000000000000000000000000000000000000000000000000000000000000000000000000000000000000000000000000000
310
000000000000000000000000000000000000000000000000000000000000000000000000000000000000000000000000000000000000000000000000000000000000000000000000000000000000000000000000000000000000000000000000000000000000000000000000000000000000000000000000002D00002D2D00
310
0000000000000000BE0000002D000000000000000000000000000000002D2D2D2D00000000000000000000000000000000000000000000000000000000000000000000000000000000000000000000000000000000000000000000000000000000000000000000000000000000000000000000000000000000000000000000
310
0000000000000000000000000000000000000000000000000000000000000000000000000000000000000000000000000000000000000000000000000000000000000000000000000000000000000000000000000000000000000000000000000000000000000000000000000000000000000000000000000000002D00002D
310
2D000000000000000000BE0000002D000000000000000000000000000000002D2D2D2D0000000000000000000000000000000000000000000000000000000000000000000000000000000000000000000000000000000000000000000000000000000000000000000000000000000000000000000000000000000000000000
310
00000000000000000000000000000000000000000000000000000000000000000000000000000000000000000000000000000000000000000000000000000000000000000000000000000000000000000000000000000000000000000000000000000000000000000000000000000000000000000000000000000000002D2D
310
2D2D2D000000000000000000BE0000002D000000000000000000000000000000002D2D2D2D000000000000000000000000000000000000000000000000000000000000000000000000000000000000000000000000000000000000000000000000000000000000000000000000000000000000000000000000000000000000
310
00000000000000000000000000000000000000000000000000000000000000000000000000000000000000000000000000000000000000000000000000000000000000000000000000000000000000000000000000000000000000000000000000000000000000000000000000000000000000000000000000000000000000
310
0000002D2D000000000000000000BE0000002D000000000000000000000000000000002D00002D00000000000000000000000000000000000000000000000000000000000000000000000000000000000000000000000000000000000000000000000000000000000000000000000000000000000000000000000000000000
310
00000000000000000000000000000000000000000000000000000000000000000000000000000000000000000000000000000000000000000000000000000000000000000000000000000000000000000000000000000000000000000000000000000000000000000000000000000000000000000000000000000000000000
310
00000000002D2D00000000000000002DBE0000002D000000000000000000000000000000002D00002D0000000000000000000000000000000000000000000000000000000000000000000000000000000000000000000000000000000000000000000000000000000000000000000000000000000000000000000000000000
310
00000000000000000000000000000000000000000000000000000000000000000000000000000000000000000000000000000000000000000000000000000000000000000000000000000000000000000000000000000000000000000000000000000000000000000000000000000000000000000000000000000000000000
310
000000000000002D2D00000000000000BEBEBEBE00002D000000000000000000000000000000002D00002D000000000000000000000000000000000000000000000000000000000000000000000000000000000000000000000000000000000000000000000000000000000000000000000000000000000000000000000000
310
00000000000000000000000000000000000000000000000000000000000000000000000000000000000000000000000000000000000000000000000000000000000000000000000000000000000000000000000000000000000000000000000000000000000000000000000000000000000000000000000000000000000000
310
0000000000000000002D2D00000000000000002DBE0000002D000000000000000000000000000000002D00002D00000000000000000000000000000000000000000000000000000000000000000000000000000000000000000000000000000000000000000000000000000000000000000000000000000000000000000000
310
00000000000000000000000000000000000000000000000000000000000000000000000000000000000000000000000000000000000000000000000000000000000000000000000000000000000000000000000000000000000000000000000000000000000000000000000000000000000000000000000000000000000000
310
00000000000000000000002D2D00000000000000002DBE0000002D000000000000000000000000000000002D00002D0000000000000000000000000000000000000000000000000000000000000000000000000000000000000000000000000000000000000000000000000000000000000000000000000000000000000000
310
00000000000000000000000000000000000000000000000000000000000000000000000000000000000000000000000000000000000000000000000000000000000000000000000000000000000000000000000000000000000000000000000000000000000000000000000000000000000000000000000000000000000000
310
000000000000000000000000002D2D0000000000BE2D2D2D2D2D2DBE2D000000000000000000000000000000002D00002D000000000000000000000000000000000000000000000000000000000000000000000000000000000000000000000000000000000000000000000000000000000000000000000000000000000000
310
00000000000000000000000000000000000000000000000000000000000000000000000000000000000000000000000000000000000000000000000000000000000000000000000000000000000000000000000000000000000000000000000000000000000000000000000000000000000000000000000000000000000000
310
0000000000000000000000000000002D2D0000000000BEBEBE2D2DBEBEBEBE00000000000000000000000000000000BEBEBEBEBE000000000000000000000000000000000000000000000000000000000000000000000000000000000000000000000000000000000000000000000000000000000000000000000000000000
310
00000000000000000000000000000000000000000000000000000000000000000000000000000000000000000000000000000000000000000000000000000000000000000000000000000000000000000000000000000000000000000000000000000000000000000000000000000000000000000000000000000000000000
310
000000000000000000000000000000002D2D2D2D2D0000000000002DBE0000002D000000000000000000000000000000002D2D2D2D0000000000000000000000000000000000000000000000000000000000000000000000000000000000000000000000000000000000000000000000000000000000000000000000000000
310
00000000000000000000000000000000000000000000000000000000000000000000000000000000000000000000000000000000000000000000000000000000000000000000000000000000000000000000000000000000000000000000000000000000000000000000000000000000000000000000000000000000000000
310
0000000000000000000000000000000000002D2D2D2D2D00000000000000BE0000002D000000000000000000000000000000002D2D2D2D000000000000000000000000000000000000000000000000000000000000000000000000000000000000000000000000000000000000000000000000000000000000000000000000
310
00000000000000000000000000000000000000000000000000000000000000000000000000000000000000000000000000000000000000000000000000000000000000000000000000000000000000000000000000000000000000000000000000000000000000000000000000000000000000000000000000000000000000
310
00000000000000000000000000000000000000BEBEBEBE2D2D00000000000000BE0000002D00000000000000000000000000000000BEBEBEBE00000000000000000000000000000000000000000000000000000000000000000000000000000000000000000000000000000000000000000000000000000000000000000000
310
00000000000000000000000000000000000000000000000000000000000000000000000000000000000000000000000000000000000000000000000000000000000000000000000000000000000000000000000000000000000000000000000000000000000000000000000000000000000000000000000000000000000000
310
000000000000000000000000000000000000000000002D2D2D2D2D00000000000000BE0000002D000000000000000000000000000000002D2D2D2D0000000000000000000000000000000000000000000000000000000000000000000000000000000000000000000000000000000000000000000000000000000000000000
310
00000000000000000000000000000000000000000000000000000000000000000000000000000000000000000000000000000000000000000000000000000000000000000000000000000000000000000000000000000000000000000000000000000000000000000000000000000000000000000000000000000000000000
310
0000000000000000000000000000000000000000000000002D2D2D2D2D00000000000000BE0000002D000000000000000000000000000000002D2D2D2D000000000000000000000000000000000000000000000000000000000000000000000000000000000000000000000000000000000000000000000000000000000000
310
00000000000000000000000000000000000000000000000000000000000000000000000000000000000000000000000000000000000000000000000000000000000000000000000000000000000000000000000000000000000000000000000000000000000000000000000000000000000000000000000000000000000000
310
00000000000000000000000000000000000000000000000000002D2D2D2D2D0000000000002DBE00002D00000000000000000000000000000000002D2D002D00000000000000000000000000000000000000000000000000000000000000000000000000000000000000000000000000000000000000000000000000000000
310
00000000000000000000000000000000000000000000000000000000000000000000000000000000000000000000000000000000000000000000000000000000000000000000000000000000000000000000000000000000000000000000000000000000000000000000000000000000000000000000000000000000000000
310
00000000000000000000000000000000000000000000000000000000002D2D2D000000000000BE2D2DBE002D00000000000000000000000000000000002D00002D0000000000000000000000000000000000000000000000000000000000000000000000000000000000000000000000000000000000000000000000000000
310
00000000000000000000000000000000000000000000000000000000000000000000000000000000000000000000000000000000000000000000000000000000000000000000000000000000000000000000000000000000000000000000000000000000000000000000000000000000000000000000000000000000000000
310
000000000000000000000000000000000000000000000000000000000000002D2D2D0000002D2D2D2D2D2D2D2D0000000000000000000000000000000000002D00002D000000000000000000000000000000000000000000000000000000000000000000000000000000000000000000000000000000000000000000000000
310
00000000000000000000000000000000000000000000000000000000000000000000000000000000000000000000000000000000000000000000000000000000000000000000000000000000000000000000000000000000000000000000000000000000000000000000000000000000000000000000000000000000000000
310
0000000000000000000000000000000000000000000000000000000000000000002D2D2D0000002D2D0000000000000000000000000000000000000000000000002D00002D00000000000000000000000000000000000000000000000000000000000000000000000000000000000000000000000000000000000000000000
310
00000000000000000000000000000000000000000000000000000000000000000000000000000000000000000000000000000000000000000000000000000000000000000000000000000000000000000000000000000000000000000000000000000000000000000000000000000000000000000000000000000000000000
310
00000000000000000000000000000000000000000000000000000000000000000000002D2D280000002D000000000000000000000000000000000000000000000000002D00002D0000000000000000000000000000000000000000000000000000000000000000000000000000000000000000000000000000000000000000
310
00000000000000000000000000000000000000000000000000000000000000000000000000000000000000000000000000000000000000000000000000000000000000000000000000000000000000000000000000000000000000000000000000000000000000000000000000000000000000000000000000000000000000
310
000000000000000000000000000000000000000000000000000000000000000000000000002D2D282D2D002D000000000000000000000000000000000000000000000000002D00002D000000000000000000000000000000000000000000000000000000000000000000000000000000000000000000000000000000000000
310
00000000000000000000000000000000000000000000000000000000000000000000000000000000000000000000000000000000000000000000000000000000000000000000000000000000000000000000000000000000000000000000000000000000000000000000000000000000000000000000000000000000000000
310
0000000000000000000000000000000000000000000000000000000000000000000000000000002D2D282D2D2D00000000000000000000000000000000000000000000000000002DBEBE2D00000000000000000000000000000000000000000000000000000000000000000000000000000000000000000000000000000000
310
00000000000000000000000000000000000000000000000000000000000000000000000000000000000000000000000000000000000000000000000000000000000000000000000000000000000000000000000000000000000000000000000000000000000000000000000000000000000000000000000000000000000000
310
00000000000000000000000000000000000000000000000000000000000000000000000000000000002D282800000000000000000000000000000000000000000000000000000000002D28282D0000000000000000000000000000000000000000000000000000000000000000000000000000000000000000000000000000
310
00000000000000000000000000000000000000000000000000000000000000000000000000000000000000000000000000000000000000000000000000000000000000000000000000000000000000000000000000000000000000000000000000000000000000000000000000000000000000000000000000000000000000
310
000000000000000000000000000000000000000000000000000000000000000000000000000000000000002D282800000000000000000000000000000000000000000000000000000000002D28282D000000000000000000000000000000000000000000000000000000000000000000000000000000000000000000000000
310
00000000000000000000000000000000000000000000000000000000000000000000000000000000000000000000000000000000000000000000000000000000000000000000000000000000000000000000000000000000000000000000000000000000000000000000000000000000000000000000000000000000000000
310
0000000000000000000000000000000000000000000000000000000000000000000000000000000000000000002D282800000000000000000000000000000000000000000000000000000000002DBEBE2D00000000000000000000000000000000000000000000000000000000000000000000000000000000000000000000
310
00000000000000000000000000000000000000000000000000000000000000000000000000000000000000000000000000000000000000000000000000000000000000000000000000000000000000000000000000000000000000000000000000000000000000000000000000000000000000000000000000000000000000
310
00000000000000000000000000000000000000000000000000000000000000000000000000000000000000000000BE2D282800000000000000000000000000000000000000000000000000000000002DBEBE2D0000000000000000000000000000000000000000000000000000000000000000000000000000000000000000
310
00000000000000000000000000000000000000000000000000000000000000000000000000000000000000000000000000000000000000000000000000000000000000000000000000000000000000000000000000000000000000000000000000000000000000000000000000000000000000000000000000000000000000
310
000000000000000000000000000000000000000000000000000000000000000000000000000000000000000000000000002D282800000000000000000000000000000000000000000000000000000000002D28BE2D000000000000000000000000000000000000000000000000000000000000000000000000000000000000
310
00000000000000000000000000000000000000000000000000000000000000000000000000000000000000000000000000000000000000000000000000000000000000000000000000000000000000000000000000000000000000000000000000000000000000000000000000000000000000000000000000000000000000
310
0000000000000000000000000000000000000000000000000000000000000000000000000000000000000000000000000000002D282800000000000000000000000000000000000000000000000000000000002DBEBE2D00000000000000000000000000000000000000000000000000000000000000000000000000000000
310
00000000000000000000000000000000000000000000000000000000000000000000000000000000000000000000000000000000000000000000000000000000000000000000000000000000000000000000000000000000000000000000000000000000000000000000000000000000000000000000000000000000000000
310
00000000000000000000000000000000000000000000000000000000000000000000000000000000000000000000000000000000002D282800000000000000000000000000000000000000000000000000000000002D28BE2D0000000000000000000000000000000000000000000000000000000000000000000000000000
310
00000000000000000000000000000000000000000000000000000000000000000000000000000000000000000000000000000000000000000000000000000000000000000000000000000000000000000000000000000000000000000000000000000000000000000000000000000000000000000000000000000000000000
310
000000000000000000000000000000000000000000000000000000000000000000000000000000000000000000000000000000000000BE2D282800000000000000000000000000000000000000000000000000000000002DBEBE2D000000000000000000000000000000000000000000000000000000000000000000000000
310
00000000000000000000000000000000000000000000000000000000000000000000000000000000000000000000000000000000000000000000000000000000000000000000000000000000000000000000000000000000000000000000000000000000000000000000000000000000000000000000000000000000000000
310
0000000000000000000000000000000000000000000000000000000000000000000000000000000000000000000000000000000000000000002D282800000000000000000000000000000000000000000000000000000000002DBEBE2D00000000000000000000000000000000000000000000000000000000000000000000
310
00000000000000000000000000000000000000000000000000000000000000000000000000000000000000000000000000000000000000000000000000000000000000000000000000000000000000000000000000000000000000000000000000000000000000000000000000000000000000000000000000000000000000
310
00000000000000000000000000000000000000000000000000000000000000000000000000000000000000000000000000000000000000000000002D282800000000000000000000000000000000000000000000000000000000002D28BE2D0000000000000000000000000000000000000000000000000000000000000000
310
00000000000000000000000000000000000000000000000000000000000000000000000000000000000000000000000000000000000000000000000000000000000000000000000000000000000000000000000000000000000000000000000000000000000000000000000000000000000000000000000000000000000000
310
000000000000000000000000000000000000000000000000000000000000000000000000000000000000000000000000000000000000000000000000BE2D282800000000000000000000000000000000000000000000000000000000002DBEBE2D000000000000000000000000000000000000000000000000000000000000
310
00000000000000000000000000000000000000000000000000000000000000000000000000000000000000000000000000000000000000000000000000000000000000000000000000000000000000000000000000000000000000000000000000000000000000000000000000000000000000000000000000000000000000
310
0000000000000000000000000000000000000000000000000000000000000000000000000000000000000000000000000000000000000000000000000000002D282800000000000000000000000000000000000000000000000000000000002DBEBE2D00000000000000000000000000000000000000000000000000000000
310
00000000000000000000000000000000000000000000000000000000000000000000000000000000000000000000000000000000000000000000000000000000000000000000000000000000000000000000000000000000000000000000000000000000000000000000000000000000000000000000000000000000000000
310
00000000000000000000000000000000000000000000000000000000000000000000000000000000000000000000000000000000000000000000000000000000002D28282D2D2D2D000000000000000000000000000000000000000000000000002D00002D0000000000000000000000000000000000000000000000000000
310
00000000000000000000000000000000000000000000000000000000000000000000000000000000000000000000000000000000000000000000000000000000000000000000000000000000000000000000000000000000000000000000000000000000000000000000000000000000000000000000000000000000000000
310
000000000000000000000000000000000000000000000000000000000000000000000000000000000000000000000000000000000000000000000000000000000000002D2828000000002D2D00000000000000000000000000000000000000000000002D00002D000000000000000000000000000000000000000000000000
310
00000000000000000000000000000000000000000000000000000000000000000000000000000000000000000000000000000000000000000000000000000000000000000000000000000000000000000000000000000000000000000000000000000000000000000000000000000000000000000000000000000000000000
310
0000000000000000000000000000000000000000000000000000000000000000000000000000000000000000000000000000000000000000000000000000000000000000002D282800000000002D00000000000000000000000000000000000000000000002D00002D00000000000000000000000000000000000000000000
310
00000000000000000000000000000000000000000000000000000000000000000000000000000000000000000000000000000000000000000000000000000000000000000000000000000000000000000000000000000000000000000000000000000000000000000000000000000000000000000000000000000000000000
310
00000000000000000000000000000000000000000000000000000000000000000000000000000000000000000000000000000000000000000000000000000000000000000000002D282800000000002D00000000000000000000000000000000000000000000002D00002D0000000000000000000000000000000000000000
310
00000000000000000000000000000000000000000000000000000000000000000000000000000000000000000000000000000000000000000000000000000000000000000000000000000000000000000000000000000000000000000000000000000000000000000000000000000000000000000000000000000000000000
310
000000000000000000000000000000000000000000000000000000000000000000000000000000000000000000000000000000000000000000000000000000000000000000000000002D282800000000002D00000000000000000000000000000000000000000000002D00002D000000000000000000000000000000000000
310
00000000000000000000000000000000000000000000000000000000000000000000000000000000000000000000000000000000000000000000000000000000000000000000000000000000000000000000000000000000000000000000000000000000000000000000000000000000000000000000000000000000000000
310
0000000000000000000000000000000000000000000000000000000000000000000000000000000000000000000000000000000000000000000000000000000000000000000000000000002D282800000000002D00000000000000000000000000000000000000000000002D00002D00000000000000000000000000000000
310
00000000000000000000000000000000000000000000000000000000000000000000000000000000000000000000000000000000000000000000000000000000000000000000000000000000000000000000000000000000000000000000000000000000000000000000000000000000000000000000000000000000000000
310
00000000000000000000000000000000000000000000000000000000000000000000000000000000000000000000000000000000000000000000000000000000000000000000000000000000002D282800000000002D00000000000000000000000000000000000000000000002D00002D0000000000000000000000000000
310
00000000000000000000000000000000000000000000000000000000000000000000000000000000000000000000000000000000000000000000000000000000000000000000000000000000000000000000000000000000000000000000000000000000000000000000000000000000000000000000000000000000000000
310
000000000000000000000000000000000000000000000000000000000000000000000000000000000000000000000000000000000000000000000000000000000000000000000000000000000000002D282800000000002D00000000000000000000000000000000000000000000002D00002D000000000000000000000000
310
00000000000000000000000000000000000000000000000000000000000000000000000000000000000000000000000000000000000000000000000000000000000000000000000000000000000000000000000000000000000000000000000000000000000000000000000000000000000000000000000000000000000000
310
0000000000000000000000000000000000000000000000000000000000000000000000000000000000000000000000000000000000000000000000000000000000000000000000000000000000002D2DBE2D2D0000000000002D00000000000000000000000000000000000000000000002D2D2D2D00000000000000000000
310
00000000000000000000000000000000000000000000000000000000000000000000000000000000000000000000000000000000000000000000000000000000000000000000000000000000000000000000000000000000000000000000000000000000000000000000000000000000000000000000000000000000000000
310
00000000000000000000000000000000000000000000000000000000000000000000000000000000000000000000000000000000000000000000000000000000000000000000000000000000000000002D2DBE2D2D0000000000002D00000000000000000000000000000000000000000000002D2D2D2D0000000000000000
310
00000000000000000000000000000000000000000000000000000000000000000000000000000000000000000000000000000000000000000000000000000000000000000000000000000000000000000000000000000000000000000000000000000000000000000000000000000000000000000000000000000000000000
310
000000000000000000000000000000000000000000000000000000000000000000000000000000000000000000000000000000000000000000000000000000000000000000000000000000000000000000000000002D2D00000000002D0000000000000000000000000000000000000000000000002D00002D000000000000
310
00000000000000000000000000000000000000000000000000000000000000000000000000000000000000000000000000000000000000000000000000000000000000000000000000000000000000000000000000000000000000000000000000000000000000000000000000000000000000000000000000000000000000
310
0000000000000000000000000000000000000000000000000000000000000000000000000000000000000000000000000000000000000000000000000000000000000000000000000000000000000000000000000000002D2D2D2D2D2D2D000000000000000000000000000000000000000000000000002D00002D00000000
310
00000000000000000000000000000000000000000000000000000000000000000000000000000000000000000000000000000000000000000000000000000000000000000000000000000000000000000000000000000000000000000000000000000000000000000000000000000000000000000000000000000000000000
310
00000000000000000000000000000000000000000000000000000000000000000000000000000000000000000000000000000000000000000000000000000000000000000000000000000000000000000000000000000000002D2D0000000000000000000000000000000000000000000000000000000000002D00002D0000
310
00000000000000000000000000000000000000000000000000000000000000000000000000000000000000000000000000000000000000000000000000000000000000000000000000000000000000000000000000000000000000000000000000000000000000000000000000000000000000000000000000000000000000
310
000000000000000000000000000000000000000000000000000000000000000000000000000000000000000000000000000000000000000000000000000000000000000000000000000000000000000000000000000000000000002D2D0000000000000000000000000000000000000000000000000000000000002D00002D
310
00000000000000000000000000000000000000000000000000000000000000000000000000000000000000000000000000000000000000000000000000000000000000000000000000000000000000000000000000000000000000000000000000000000000000000000000000000000000000000000000000000000000000
310
0000000000000000000000000000000000000000000000000000000000000000000000000000000000000000000000000000000000000000000000000000000000000000000000000000000000000000000000000000000000000000002D2D0000000000000000000000000000000000000000000000000000000000002D00
310
002D0000000000000000000000000000000000000000000000000000000000000000000000000000000000000000000000000000000000000000000000000000000000000000000000000000000000000000000000000000000000000000000000000000000000000000000000000000000000000000000000000000000000
310
00000000000000000000000000000000000000000000000000000000000000000000000000000000000000000000000000000000000000000000000000000000000000000000000000000000000000000000000000000000000000000000002D2D000000000000000000000000000000000000000000000000000000000000
310
2DBEBE2D000000000000000000000000000000000000000000000000000000000000000000000000000000000000000000000000000000000000000000000000000000000000000000000000000000000000000000000000000000000000000000000000000000000000000000000000000000000000000000000000000000
310
000000000000000000000000000000000000000000000000000000000000000000000000000000000000000000000000000000000000000000000000000000000000000000000000000000000000000000000000000000000000000000000000002D2D00000000000000000000000000000000000000000000000000000000
310
00002D00BE2D00000000000000000000000000000000000000000000000000000000000000000000000000000000000000000000000000000000000000000000000000000000000000000000000000000000000000000000000000000000000000000000000000000000000000000000000000000000000000000000000000
310
0000000000000000000000000000000000000000000000000000000000000000000000000000000000000000000000000000000000000000000000000000000000000000000000000000000000000000000000000000000000000000000000000000BE2D2DBE00000000000000000000000000000000000000000000000000
310
000000002D28282D0000000000000000000000000000000000000000000000000000000000000000000000000000000000000000000000000000000000000000000000000000000000000000000000000000000000000000000000000000000000000000000000000000000000000000000000000000000000000000000000
310
00000000000000000000000000000000000000000000000000000000000000000000000000000000000000000000000000000000000000000000000000000000000000000000000000000000000000000000000000000000000000000000000000000000002D2D000000000000000000000000000000000000000000000000
310
0000000000002DBEBE2D000000000000000000000000000000000000000000000000000000000000000000000000000000000000000000000000000000000000000000000000000000000000000000000000000000000000000000000000000000000000000000000000000000000000000000000000000000000000000000
310
000000000000000000000000000000000000000000000000000000000000000000000000000000000000000000000000000000000000000000000000000000000000000000000000000000000000000000000000000000000000000000000000000000000000002D2D00000000000000000000000000000000000000000000
310
00000000000000002DBEBE2D00000000000000000000000000000000000000000000000000000000000000000000000000000000000000000000000000000000000000000000000000000000000000000000000000000000000000000000000000000000000000000000000000000000000000000000000000000000000000
310
0000000000000000000000000000000000000000000000000000000000000000000000000000000000000000000000000000000000000000000000000000000000000000000000000000000000000000000000000000000000000000000000000000000000000000002D2D0000000000000000000000000000000000000000
310
000000000000000000002D2D002D0000000000000000000000000000000000000000000000000000000000000000000000000000000000000000000000000000000000000000000000000000000000000000000000000000000000000000000000000000000000000000000000000000000000000000000000000000000000
310
00000000000000000000000000000000000000000000000000000000000000000000000000000000000000000000000000000000000000000000000000000000000000000000000000000000000000000000000000000000000000000000000000000000000000000000002D2D000000000000000000000000000000000000
310
000000000000000000000000002D2D2D000000000000000000000000000000000000000000000000000000000000000000000000000000000000000000000000000000000000000000000000000000000000000000000000000000000000000000000000000000000000000000000000000000000000000000000000000000
310
00000000000000000000000000000000000000000000000000000000000000000000000000000000000000000000000000000000000000000000000000000000000000000000000000000000000000000000000000000000000000000000000000000000000000000000000000000000000000000000000000000000000000
310
00000000000000000000000000000000000000000000000000000000000000000000000000000000000000000000000000000000000000000000000000000000000000000000000000000000000000000000000000000000000000000000000000000000000000000000000000000000000000000000000000000000000000
310
00000000000000000000000000000000000000000000000000000000000000000000000000000000000000000000000000000000000000000000000000000000000000000000000000000000000000000000000000000000000000000000000000000000000000000000000000000000000000000000000000000000000000
310
00000000000000000000000000000000000000000000000000000000000000000000000000000000000000000000000000000000000000000000000000000000000000000000000000000000000000000000000000000000000000000000000000000000000000000000000000000000000000000000000000000000000000
310
00000000000000000000000000000000000000000000000000000000000000000000000000000000000000000000000000000000000000000000000000000000000000000000000000000000000000000000000000000000000000000000000000000000000000000000000000000000000000000000000000000000000000
310
00000000000000000000000000000000000000000000000000000000000000000000000000000000000000000000000000000000000000000000000000000000000000000000000000000000000000000000000000000000000000000000000000000000000000000000000000000000000000000000000000000000000000
310
00000000000000000000000000000000000000000000000000000000000000000000000000000000000000000000000000000000000000000000000000000000000000000000000000000000000000000000000000000000000000000000000000000000000000000000000000000000000000000000000000000000000000
310
00000000000000000000000000000000000000000000000000000000000000000000000000000000000000000000000000000000000000000000000000000000000000000000000000000000000000000000000000000000000000000000000000000000000000000000000000000000000000000000000000000000000000
310
00000000000000000000000000000000000000000000000000000000000000000000000000000000000000000000000000000000000000000000000000000000000000000000000000000000000000000000000000000000000000000000000000000000000000000000000000000000000000000000000000000000000000
310
00000000000000000000000000000000000000000000000000000000000000000000000000000000000000000000000000000000000000000000000000000000000000000000000000000000000000000000000000000000000000000000000000000000000000000000000000000000000000000000000000000000000000
310
0000000000000000000000000000000000000000000000000000000000000000000000000000000000000000
  0
XRECORD
  5
53C
102
{ACAD_REACTORS
330
47
102
}
330
47
100
AcDbXrecord
280
     1
102
MATERIAL
148
0.0
149
0.0
149
0.0
 93
        0
 94
      127
282
     0
 72
     0
 77
     0
171
     0
175
     0
179
     0
273
     0
  0
XRECORD
  5
48
102
{ACAD_REACTORS
330
47
102
}
330
47
100
AcDbXrecord
280
     1
270
     1
271
     1
  0
XRECORD
  5
49
102
{ACAD_REACTORS
330
47
102
}
330
47
100
AcDbXrecord
280
     1
270
     1
271
     1
  0
XRECORD
  5
4A
102
{ACAD_REACTORS
330
47
102
}
330
47
100
AcDbXrecord
280
     1
270
     1
271
     1
  0
XRECORD
  5
4B
102
{ACAD_REACTORS
330
47
102
}
330
47
100
AcDbXrecord
280
     1
270
     1
271
     1
  0
XRECORD
  5
4C
102
{ACAD_REACTORS
330
47
102
}
330
47
100
AcDbXrecord
280
     1
270
     1
271
     1
  0
XRECORD
  5
4D
102
{ACAD_REACTORS
330
47
102
}
330
47
100
AcDbXrecord
280
     1
270
     1
271
     1
  0
XRECORD
  5
53B
102
{ACAD_REACTORS
330
3F
102
}
330
3F
100
AcDbXrecord
280
     1
102
MATERIAL
148
0.0
149
0.0
149
0.0
 93
        0
 94
      127
282
     0
 72
     0
 77
     0
171
     0
175
     0
179
     0
273
     0
  0
XRECORD
  5
40
102
{ACAD_REACTORS
330
3F
102
}
330
3F
100
AcDbXrecord
280
     1
270
     1
271
     1
  0
XRECORD
  5
41
102
{ACAD_REACTORS
330
3F
102
}
330
3F
100
AcDbXrecord
280
     1
270
     1
271
     1
  0
XRECORD
  5
42
102
{ACAD_REACTORS
330
3F
102
}
330
3F
100
AcDbXrecord
280
     1
270
     1
271
     1
  0
XRECORD
  5
43
102
{ACAD_REACTORS
330
3F
102
}
330
3F
100
AcDbXrecord
280
     1
270
     1
271
     1
  0
XRECORD
  5
44
102
{ACAD_REACTORS
330
3F
102
}
330
3F
100
AcDbXrecord
280
     1
270
     1
271
     1
  0
XRECORD
  5
45
102
{ACAD_REACTORS
330
3F
102
}
330
3F
100
AcDbXrecord
280
     1
270
     1
271
     1
  0
XRECORD
  5
535
102
{ACAD_REACTORS
330
F
102
}
330
F
100
AcDbXrecord
280
     1
102
MATERIAL
148
0.0
149
0.0
149
0.0
 93
        0
 94
      127
282
     0
 72
     0
 77
     0
171
     0
175
     0
179
     0
273
     0
  0
XRECORD
  5
10
102
{ACAD_REACTORS
330
F
102
}
330
F
100
AcDbXrecord
280
     1
270
     1
271
     1
  0
XRECORD
  5
11
102
{ACAD_REACTORS
330
F
102
}
330
F
100
AcDbXrecord
280
     1
270
     1
271
     1
  0
XRECORD
  5
12
102
{ACAD_REACTORS
330
F
102
}
330
F
100
AcDbXrecord
280
     1
270
     1
271
     1
  0
XRECORD
  5
13
102
{ACAD_REACTORS
330
F
102
}
330
F
100
AcDbXrecord
280
     1
270
     1
271
     1
  0
XRECORD
  5
14
102
{ACAD_REACTORS
330
F
102
}
330
F
100
AcDbXrecord
280
     1
270
     1
271
     1
  0
XRECORD
  5
15
102
{ACAD_REACTORS
330
F
102
}
330
F
100
AcDbXrecord
280
     1
270
     1
271
     1
  0
CELLSTYLEMAP
  5
533
102
{ACAD_REACTORS
330
58
102
}
330
58
100
AcDbCellStyleMap
 90
        3
300
CELLSTYLE
  1
TABLEFORMAT_BEGIN
 90
        5
170
     1
 91
        0
 92
    32768
 62
   257
 93
        1
300
CONTENTFORMAT
  1
CONTENTFORMAT_BEGIN
 90
        0
 91
        0
 92
        4
 93
        0
300

 40
0.0
140
1.0
 94
        5
 62
     0
340
25
144
6.0
309
CONTENTFORMAT_END
171
     1
301
MARGIN
  1
CELLMARGIN_BEGIN
 40
1.5
 40
1.5
 40
1.5
 40
1.5
 40
0.18
 40
0.18
309
CELLMARGIN_END
 94
        6
 95
        1
302
GRIDFORMAT
  1
GRIDFORMAT_BEGIN
 90
        0
 91
        1
 62
     0
 92
       -2
340
0
 93
        0
 40
0.045
309
GRIDFORMAT_END
 95
        2
302
GRIDFORMAT
  1
GRIDFORMAT_BEGIN
 90
        0
 91
        1
 62
     0
 92
       -2
340
0
 93
        0
 40
0.045
309
GRIDFORMAT_END
 95
        4
302
GRIDFORMAT
  1
GRIDFORMAT_BEGIN
 90
        0
 91
        1
 62
     0
 92
       -2
340
0
 93
        0
 40
0.045
309
GRIDFORMAT_END
 95
        8
302
GRIDFORMAT
  1
GRIDFORMAT_BEGIN
 90
        0
 91
        1
 62
     0
 92
       -2
340
0
 93
        0
 40
0.045
309
GRIDFORMAT_END
 95
       16
302
GRIDFORMAT
  1
GRIDFORMAT_BEGIN
 90
        0
 91
        1
 62
     0
 92
       -2
340
0
 93
        0
 40
0.045
309
GRIDFORMAT_END
 95
       32
302
GRIDFORMAT
  1
GRIDFORMAT_BEGIN
 90
        0
 91
        1
 62
     0
 92
       -2
340
0
 93
        0
 40
0.045
309
GRIDFORMAT_END
309
TABLEFORMAT_END
  1
CELLSTYLE_BEGIN
 90
        1
 91
        1
300
_TITLE
309
CELLSTYLE_END
300
CELLSTYLE
  1
TABLEFORMAT_BEGIN
 90
        5
170
     1
 91
        0
 92
        0
 62
   257
 93
        1
300
CONTENTFORMAT
  1
CONTENTFORMAT_BEGIN
 90
        0
 91
        0
 92
        4
 93
        0
300

 40
0.0
140
1.0
 94
        5
 62
     0
340
25
144
4.5
309
CONTENTFORMAT_END
171
     1
301
MARGIN
  1
CELLMARGIN_BEGIN
 40
1.5
 40
1.5
 40
1.5
 40
1.5
 40
0.18
 40
0.18
309
CELLMARGIN_END
 94
        6
 95
        1
302
GRIDFORMAT
  1
GRIDFORMAT_BEGIN
 90
        0
 91
        1
 62
     0
 92
       -2
340
0
 93
        0
 40
0.045
309
GRIDFORMAT_END
 95
        2
302
GRIDFORMAT
  1
GRIDFORMAT_BEGIN
 90
        0
 91
        1
 62
     0
 92
       -2
340
0
 93
        0
 40
0.045
309
GRIDFORMAT_END
 95
        4
302
GRIDFORMAT
  1
GRIDFORMAT_BEGIN
 90
        0
 91
        1
 62
     0
 92
       -2
340
0
 93
        0
 40
0.045
309
GRIDFORMAT_END
 95
        8
302
GRIDFORMAT
  1
GRIDFORMAT_BEGIN
 90
        0
 91
        1
 62
     0
 92
       -2
340
0
 93
        0
 40
0.045
309
GRIDFORMAT_END
 95
       16
302
GRIDFORMAT
  1
GRIDFORMAT_BEGIN
 90
        0
 91
        1
 62
     0
 92
       -2
340
0
 93
        0
 40
0.045
309
GRIDFORMAT_END
 95
       32
302
GRIDFORMAT
  1
GRIDFORMAT_BEGIN
 90
        0
 91
        1
 62
     0
 92
       -2
340
0
 93
        0
 40
0.045
309
GRIDFORMAT_END
309
TABLEFORMAT_END
  1
CELLSTYLE_BEGIN
 90
        2
 91
        1
300
_HEADER
309
CELLSTYLE_END
300
CELLSTYLE
  1
TABLEFORMAT_BEGIN
 90
        5
170
     1
 91
        0
 92
        0
 62
   257
 93
        1
300
CONTENTFORMAT
  1
CONTENTFORMAT_BEGIN
 90
        0
 91
        0
 92
        4
 93
        0
300

 40
0.0
140
1.0
 94
        2
 62
     0
340
25
144
4.5
309
CONTENTFORMAT_END
171
     1
301
MARGIN
  1
CELLMARGIN_BEGIN
 40
1.5
 40
1.5
 40
1.5
 40
1.5
 40
0.18
 40
0.18
309
CELLMARGIN_END
 94
        6
 95
        1
302
GRIDFORMAT
  1
GRIDFORMAT_BEGIN
 90
        0
 91
        1
 62
     0
 92
       -2
340
0
 93
        0
 40
0.045
309
GRIDFORMAT_END
 95
        2
302
GRIDFORMAT
  1
GRIDFORMAT_BEGIN
 90
        0
 91
        1
 62
     0
 92
       -2
340
0
 93
        0
 40
0.045
309
GRIDFORMAT_END
 95
        4
302
GRIDFORMAT
  1
GRIDFORMAT_BEGIN
 90
        0
 91
        1
 62
     0
 92
       -2
340
0
 93
        0
 40
0.045
309
GRIDFORMAT_END
 95
        8
302
GRIDFORMAT
  1
GRIDFORMAT_BEGIN
 90
        0
 91
        1
 62
     0
 92
       -2
340
0
 93
        0
 40
0.045
309
GRIDFORMAT_END
 95
       16
302
GRIDFORMAT
  1
GRIDFORMAT_BEGIN
 90
        0
 91
        1
 62
     0
 92
       -2
340
0
 93
        0
 40
0.045
309
GRIDFORMAT_END
 95
       32
302
GRIDFORMAT
  1
GRIDFORMAT_BEGIN
 90
        0
 91
        1
 62
     0
 92
       -2
340
0
 93
        0
 40
0.045
309
GRIDFORMAT_END
309
TABLEFORMAT_END
  1
CELLSTYLE_BEGIN
 90
        3
 91
        2
300
_DATA
309
CELLSTYLE_END
  0
XRECORD
  5
53D
102
{ACAD_REACTORS
330
58
102
}
330
58
100
AcDbXrecord
280
     1
102
ACAD_ROUNDTRIP_PRE2007_TABLESTYLE
 90
        4
 91
        0
  1

 92
        4
 93
        0
  2

 94
        4
 95
        0
  3

  0
XRECORD
  5
53A
102
{ACAD_REACTORS
330
539
102
}
330
539
100
AcDbXrecord
280
     1
102
RTVSPropertyOp0
 70
     1
102
RTVSPropertyOp1
 70
     1
102
RTVSPropertyOp2
 70
     1
102
RTVSPropertyOp3
 70
     1
102
RTVSPropertyOp4
 70
     1
102
RTVSPropertyOp5
 70
     1
102
RTVSPropertyOp6
 70
     1
102
RTVSPropertyOp7
 70
     1
102
RTVSPropertyOp8
 70
     1
102
RTVSPropertyOp9
 70
     1
102
RTVSPropertyOp10
 70
     1
102
RTVSPropertyOp11
 70
     1
102
RTVSPropertyOp12
 70
     1
102
RTVSPropertyOp13
 70
     1
102
RTVSPropertyOp14
 70
     1
102
RTVSPropertyOp15
 70
     1
102
RTVSPropertyOp16
 70
     1
102
RTVSPropertyOp17
 70
     1
102
RTVSPropertyOp18
 70
     1
102
RTVSPropertyOp19
 70
     1
102
RTVSPropertyOp20
 70
     1
102
RTVSPropertyOp21
 70
     1
102
RTVSPropertyOp22
 70
     1
102
RTVSPropertyOp23
 70
     1
102
RTVSPropertyOp24
 70
     1
102
RTVSPropertyOp25
 70
     1
102
RTVSPropertyOp26
 70
     1
102
RTVSPropertyOp27
 70
     1
102
RTVSPropertyOp28
 70
     1
102
RTVSPropertyOp29
 70
     1
102
RTVSPropertyOp30
 70
     1
102
RTVSPropertyOp31
 70
     1
102
RTVSPropertyOp32
 70
     1
  0
XRECORD
  5
53F
102
{ACAD_REACTORS
330
53E
102
}
330
53E
100
AcDbXrecord
280
     1
102
RTVSPropertyOp0
 70
     1
102
RTVSPropertyOp1
 70
     1
102
RTVSPropertyOp2
 70
     1
102
RTVSPropertyOp3
 70
     1
102
RTVSPropertyOp4
 70
     1
102
RTVSPropertyOp5
 70
     1
102
RTVSPropertyOp6
 70
     1
102
RTVSPropertyOp7
 70
     1
102
RTVSPropertyOp8
 70
     1
102
RTVSPropertyOp9
 70
     1
102
RTVSPropertyOp10
 70
     1
102
RTVSPropertyOp11
 70
     1
102
RTVSPropertyOp12
 70
     1
102
RTVSPropertyOp13
 70
     1
102
RTVSPropertyOp14
 70
     1
102
RTVSPropertyOp15
 70
     1
102
RTVSPropertyOp16
 70
     1
102
RTVSPropertyOp17
 70
     1
102
RTVSPropertyOp18
 70
     1
102
RTVSPropertyOp19
 70
     1
102
RTVSPropertyOp20
 70
     1
102
RTVSPropertyOp21
 70
     1
102
RTVSPropertyOp22
 70
     1
102
RTVSPropertyOp23
 70
     1
102
RTVSPropertyOp24
 70
     1
102
RTVSPropertyOp25
 70
     1
102
RTVSPropertyOp26
 70
     1
102
RTVSPropertyOp27
 70
     1
102
RTVSPropertyOp28
 70
     1
102
RTVSPropertyOp29
 70
     1
102
RTVSPropertyOp30
 70
     1
102
RTVSPropertyOp31
 70
     1
102
RTVSPropertyOp32
 70
     1
  0
XRECORD
  5
541
102
{ACAD_REACTORS
330
540
102
}
330
540
100
AcDbXrecord
280
     1
102
RTVSPropertyOp0
 70
     1
102
RTVSPropertyOp1
 70
     1
102
RTVSPropertyOp2
 70
     1
102
RTVSPropertyOp3
 70
     1
102
RTVSPropertyOp4
 70
     1
102
RTVSPropertyOp5
 70
     1
102
RTVSPropertyOp6
 70
     1
102
RTVSPropertyOp7
 70
     1
102
RTVSPropertyOp8
 70
     1
102
RTVSPropertyOp9
 70
     1
102
RTVSPropertyOp10
 70
     1
102
RTVSPropertyOp11
 70
     1
102
RTVSPropertyOp12
 70
     1
102
RTVSPropertyOp13
 70
     1
102
RTVSPropertyOp14
 70
     1
102
RTVSPropertyOp15
 70
     1
102
RTVSPropertyOp16
 70
     1
102
RTVSPropertyOp17
 70
     1
102
RTVSPropertyOp18
 70
     1
102
RTVSPropertyOp19
 70
     1
102
RTVSPropertyOp20
 70
     1
102
RTVSPropertyOp21
 70
     1
102
RTVSPropertyOp22
 70
     1
102
RTVSPropertyOp23
 70
     1
102
RTVSPropertyOp24
 70
     1
102
RTVSPropertyOp25
 70
     1
102
RTVSPropertyOp26
 70
     1
102
RTVSPropertyOp27
 70
     1
102
RTVSPropertyOp28
 70
     1
102
RTVSPropertyOp29
 70
     1
102
RTVSPropertyOp30
 70
     1
102
RTVSPropertyOp31
 70
     1
102
RTVSPropertyOp32
 70
     1
  0
ENDSEC
  0
EOF
