  0
SECTION
  2
HEADER
  9
$ACADVER
  1
AC1015
  9
$ACADMAINTVER
 70
     6
  9
$DWGCODEPAGE
  3
ANSI_1252
  9
$INSBASE
 10
0.0
 20
0.0
 30
0.0
  9
$EXTMIN
 10
0.0
 20
0.0
 30
0.0
  9
$EXTMAX
 10
431.8
 20
279.4
 30
0.0
  9
$LIMMIN
 10
0.0
 20
0.0
  9
$LIMMAX
 10
431.8
 20
279.4
  9
$ORTHOMODE
 70
     0
  9
$REGENMODE
 70
     1
  9
$FILLMODE
 70
     1
  9
$QTEXTMODE
 70
     0
  9
$MIRRTEXT
 70
     1
  9
$LTSCALE
 40
1.0
  9
$ATTMODE
 70
     1
  9
$TEXTSIZE
 40
3.5
  9
$TRACEWID
 40
1.0
  9
$TEXTSTYLE
  7
Standard
  9
$CLAYER
  8
0
  9
$CELTYPE
  6
ByLayer
  9
$CECOLOR
 62
   256
  9
$CELTSCALE
 40
1.0
  9
$DISPSILH
 70
     0
  9
$DIMSCALE
 40
1.0
  9
$DIMASZ
 40
3.302
  9
$DIMEXO
 40
1.0
  9
$DIMDLI
 40
3.75
  9
$DIMRND
 40
0.0
  9
$DIMDLE
 40
0.0
  9
$DIMEXE
 40
1.0
  9
$DIMTP
 40
0.0
  9
$DIMTM
 40
0.0
  9
$DIMTXT
 40
3.5
  9
$DIMCEN
 40
2.5
  9
$DIMTSZ
 40
0.0
  9
$DIMTOL
 70
     0
  9
$DIMLIM
 70
     0
  9
$DIMTIH
 70
     1
  9
$DIMTOH
 70
     1
  9
$DIMSE1
 70
     0
  9
$DIMSE2
 70
     0
  9
$DIMTAD
 70
     1
  9
$DIMZIN
 70
     0
  9
$DIMBLK
  1

  9
$DIMASO
 70
     1
  9
$DIMSHO
 70
     1
  9
$DIMPOST
  1

  9
$DIMAPOST
  1

  9
$DIMALT
 70
     0
  9
$DIMALTD
 70
     3
  9
$DIMALTF
 40
0.0393700787
  9
$DIMLFAC
 40
1.0
  9
$DIMTOFL
 70
     1
  9
$DIMTVP
 40
0.0
  9
$DIMTIX
 70
     0
  9
$DIMSOXD
 70
     0
  9
$DIMSAH
 70
     0
  9
$DIMBLK1
  1

  9
$DIMBLK2
  1

  9
$DIMSTYLE
  2
ISO-25
  9
$DIMCLRD
 70
     0
  9
$DIMCLRE
 70
     0
  9
$DIMCLRT
 70
     0
  9
$DIMTFAC
 40
1.0
  9
$DIMGAP
 40
1.524
  9
$DIMJUST
 70
     0
  9
$DIMSD1
 70
     0
  9
$DIMSD2
 70
     0
  9
$DIMTOLJ
 70
     0
  9
$DIMTZIN
 70
     0
  9
$DIMALTZ
 70
     0
  9
$DIMALTTZ
 70
     0
  9
$DIMUPT
 70
     0
  9
$DIMDEC
 70
     2
  9
$DIMTDEC
 70
     2
  9
$DIMALTU
 70
     2
  9
$DIMALTTD
 70
     3
  9
$DIMTXSTY
  7
Standard
  9
$DIMAUNIT
 70
     0
  9
$DIMADEC
 70
     2
  9
$DIMALTRND
 40
0.0
  9
$DIMAZIN
 70
     0
  9
$DIMDSEP
 70
    44
  9
$DIMATFIT
 70
     3
  9
$DIMFRAC
 70
     0
  9
$DIMLDRBLK
  1

  9
$DIMLUNIT
 70
     2
  9
$DIMLWD
 70
    -2
  9
$DIMLWE
 70
    -2
  9
$DIMTMOVE
 70
     0
  9
$LUNITS
 70
     2
  9
$LUPREC
 70
     2
  9
$SKETCHINC
 40
1.0
  9
$FILLETRAD
 40
10.0
  9
$AUNITS
 70
     0
  9
$AUPREC
 70
     2
  9
$MENU
  1
.
  9
$ELEVATION
 40
0.0
  9
$PELEVATION
 40
0.0
  9
$THICKNESS
 40
0.0
  9
$LIMCHECK
 70
     0
  9
$CHAMFERA
 40
0.0
  9
$CHAMFERB
 40
0.0
  9
$CHAMFERC
 40
0.0
  9
$CHAMFERD
 40
0.0
  9
$SKPOLY
 70
     0
  9
$TDCREATE
 40
2457245.320710139
  9
$TDUCREATE
 40
2457245.237376805
  9
$TDUPDATE
 40
2457245.320710243
  9
$TDUUPDATE
 40
2457245.23737691
  9
$TDINDWG
 40
0.0000000116
  9
$TDUSRTIMER
 40
0.0000000116
  9
$USRTIMER
 70
     1
  9
$ANGBASE
 50
0.0
  9
$ANGDIR
 70
     0
  9
$PDMODE
 70
     0
  9
$PDSIZE
 40
-1.0
  9
$PLINEWID
 40
0.0
  9
$SPLFRAME
 70
     0
  9
$SPLINETYPE
 70
     6
  9
$SPLINESEGS
 70
     8
  9
$HANDSEED
  5
F3
  9
$SURFTAB1
 70
     6
  9
$SURFTAB2
 70
     6
  9
$SURFTYPE
 70
     6
  9
$SURFU
 70
     6
  9
$SURFV
 70
     6
  9
$UCSBASE
  2

  9
$UCSNAME
  2

  9
$UCSORG
 10
0.0
 20
0.0
 30
0.0
  9
$UCSXDIR
 10
1.0
 20
0.0
 30
0.0
  9
$UCSYDIR
 10
0.0
 20
1.0
 30
0.0
  9
$UCSORTHOREF
  2

  9
$UCSORTHOVIEW
 70
     0
  9
$UCSORGTOP
 10
0.0
 20
0.0
 30
0.0
  9
$UCSORGBOTTOM
 10
0.0
 20
0.0
 30
0.0
  9
$UCSORGLEFT
 10
0.0
 20
0.0
 30
0.0
  9
$UCSORGRIGHT
 10
0.0
 20
0.0
 30
0.0
  9
$UCSORGFRONT
 10
0.0
 20
0.0
 30
0.0
  9
$UCSORGBACK
 10
0.0
 20
0.0
 30
0.0
  9
$PUCSBASE
  2

  9
$PUCSNAME
  2

  9
$PUCSORG
 10
0.0
 20
0.0
 30
0.0
  9
$PUCSXDIR
 10
1.0
 20
0.0
 30
0.0
  9
$PUCSYDIR
 10
0.0
 20
1.0
 30
0.0
  9
$PUCSORTHOREF
  2

  9
$PUCSORTHOVIEW
 70
     0
  9
$PUCSORGTOP
 10
0.0
 20
0.0
 30
0.0
  9
$PUCSORGBOTTOM
 10
0.0
 20
0.0
 30
0.0
  9
$PUCSORGLEFT
 10
0.0
 20
0.0
 30
0.0
  9
$PUCSORGRIGHT
 10
0.0
 20
0.0
 30
0.0
  9
$PUCSORGFRONT
 10
0.0
 20
0.0
 30
0.0
  9
$PUCSORGBACK
 10
0.0
 20
0.0
 30
0.0
  9
$USERI1
 70
     0
  9
$USERI2
 70
     0
  9
$USERI3
 70
     0
  9
$USERI4
 70
     0
  9
$USERI5
 70
     0
  9
$USERR1
 40
0.0
  9
$USERR2
 40
0.0
  9
$USERR3
 40
0.0
  9
$USERR4
 40
0.0
  9
$USERR5
 40
0.0
  9
$WORLDVIEW
 70
     1
  9
$SHADEDGE
 70
     3
  9
$SHADEDIF
 70
    70
  9
$TILEMODE
 70
     1
  9
$MAXACTVP
 70
    64
  9
$PINSBASE
 10
0.0
 20
0.0
 30
0.0
  9
$PLIMCHECK
 70
     0
  9
$PEXTMIN
 10
1.0000000000E+20
 20
1.0000000000E+20
 30
1.0000000000E+20
  9
$PEXTMAX
 10
-1.0000000000E+20
 20
-1.0000000000E+20
 30
-1.0000000000E+20
  9
$PLIMMIN
 10
0.0
 20
0.0
  9
$PLIMMAX
 10
420.0
 20
297.0
  9
$UNITMODE
 70
     0
  9
$VISRETAIN
 70
     1
  9
$PLINEGEN
 70
     0
  9
$PSLTSCALE
 70
     1
  9
$TREEDEPTH
 70
  3020
  9
$CMLSTYLE
  2
Standard
  9
$CMLJUST
 70
     0
  9
$CMLSCALE
 40
20.0
  9
$PROXYGRAPHICS
 70
     1
  9
$MEASUREMENT
 70
     1
  9
$CELWEIGHT
370
    -1
  9
$ENDCAPS
280
     0
  9
$JOINSTYLE
280
     0
  9
$LWDISPLAY
290
     1
  9
$INSUNITS
 70
     4
  9
$HYPERLINKBASE
  1

  9
$STYLESHEET
  1

  9
$XEDIT
290
     1
  9
$CEPSNTYPE
380
     0
  9
$PSTYLEMODE
290
     1
  9
$FINGERPRINTGUID
  2
{CCF7D4A0-F89A-4DD7-B6B1-0E19770A051F}
  9
$VERSIONGUID
  2
{FAEB1C32-E019-11D5-929B-00C0DF256EC4}
  9
$EXTNAMES
290
     1
  9
$PSVPSCALE
 40
0.0
  9
$OLESTARTUP
290
     0
  0
ENDSEC
  0
SECTION
  2
CLASSES
  0
CLASS
  1
ACDBDICTIONARYWDFLT
  2
AcDbDictionaryWithDefault
  3
ObjectDBX Classes
 90
        0
280
     0
281
     0
  0
CLASS
  1
VISUALSTYLE
  2
AcDbVisualStyle
  3
ObjectDBX Classes
 90
     4095
280
     0
281
     0
  0
CLASS
  1
MATERIAL
  2
AcDbMaterial
  3
ObjectDBX Classes
 90
     1153
280
     0
281
     0
  0
CLASS
  1
SCALE
  2
AcDbScale
  3
ObjectDBX Classes
 90
     1153
280
     0
281
     0
  0
CLASS
  1
TABLESTYLE
  2
AcDbTableStyle
  3
ObjectDBX Classes
 90
     4095
280
     0
281
     0
  0
CLASS
  1
MLEADERSTYLE
  2
AcDbMLeaderStyle
  3
ACDB_MLEADERSTYLE_CLASS
 90
     4095
280
     0
281
     0
  0
CLASS
  1
SUN
  2
AcDbSun
  3
SCENEOE
 90
     1153
280
     0
281
     0
  0
CLASS
  1
ACDBPLACEHOLDER
  2
AcDbPlaceHolder
  3
ObjectDBX Classes
 90
        0
280
     0
281
     0
  0
CLASS
  1
LAYOUT
  2
AcDbLayout
  3
ObjectDBX Classes
 90
        0
280
     0
281
     0
  0
ENDSEC
  0
SECTION
  2
TABLES
  0
TABLE
  2
VPORT
  5
8
330
0
100
AcDbSymbolTable
 70
     1
  0
VPORT
  5
29
330
8
100
AcDbSymbolTableRecord
100
AcDbViewportTableRecord
  2
*Active
 70
     0
 10
0.0
 20
0.0
 11
1.0
 21
1.0
 12
215.9
 22
139.7
 13
0.0
 23
0.0
 14
10.0
 24
10.0
 15
10.0
 25
10.0
 16
0.0
 26
0.0
 36
1.0
 17
0.0
 27
0.0
 37
0.0
 40
279.4
 41
1.5454545455
 42
50.0
 43
0.0
 44
0.0
 50
0.0
 51
0.0
 71
     0
 72
  2000
 73
     1
 74
     3
 75
     0
 76
     0
 77
     0
 78
     0
281
     0
 65
     1
110
0.0
120
0.0
130
0.0
111
1.0
121
0.0
131
0.0
112
0.0
122
1.0
132
0.0
 79
     0
146
0.0
  0
ENDTAB
  0
TABLE
  2
LTYPE
  5
5
330
0
100
AcDbSymbolTable
 70
     6
  0
LTYPE
  5
14
330
5
100
AcDbSymbolTableRecord
100
AcDbLinetypeTableRecord
  2
ByBlock
 70
     0
  3

 72
    65
 73
     0
 40
0.0
  0
LTYPE
  5
15
330
5
100
AcDbSymbolTableRecord
100
AcDbLinetypeTableRecord
  2
ByLayer
 70
     0
  3

 72
    65
 73
     0
 40
0.0
  0
LTYPE
  5
16
330
5
100
AcDbSymbolTableRecord
100
AcDbLinetypeTableRecord
  2
Continuous
 70
     0
  3
Solid line
 72
    65
 73
     0
 40
0.0
  0
LTYPE
  5
6E
330
5
100
AcDbSymbolTableRecord
100
AcDbLinetypeTableRecord
  2
HIDDEN
 70
     0
  3
Hidden __ __ __ __ __ __ __ __ __ __ __ __ __ __
 72
    65
 73
     2
 40
1.905
 49
1.27
 74
     0
 49
-0.635
 74
     0
  0
LTYPE
  5
6F
330
5
100
AcDbSymbolTableRecord
100
AcDbLinetypeTableRecord
  2
PHANTOM
 70
     0
  3
Phantom ______  __  __  ______  __  __  ______
 72
    65
 73
     6
 40
12.7
 49
6.35
 74
     0
 49
-1.27
 74
     0
 49
1.27
 74
     0
 49
-1.27
 74
     0
 49
1.27
 74
     0
 49
-1.27
 74
     0
  0
LTYPE
  5
70
330
5
100
AcDbSymbolTableRecord
100
AcDbLinetypeTableRecord
  2
CENTER
 70
     0
  3
Center ____ _ ____ _ ____ _ ____ _ ____ _ ____
 72
    65
 73
     4
 40
10.16
 49
6.35
 74
     0
 49
-1.27
 74
     0
 49
1.27
 74
     0
 49
-1.27
 74
     0
  0
LTYPE
  5
71
330
5
100
AcDbSymbolTableRecord
100
AcDbLinetypeTableRecord
  2
CENTERX2
 70
     0
  3
Center (2x) ________  __  ________  __  _____
 72
    65
 73
     4
 40
20.32
 49
12.7
 74
     0
 49
-2.54
 74
     0
 49
2.54
 74
     0
 49
-2.54
 74
     0
  0
LTYPE
  5
72
330
5
100
AcDbSymbolTableRecord
100
AcDbLinetypeTableRecord
  2
DOT2
 70
     0
  3
Dot (.5x) ........................................
 72
    65
 73
     2
 40
0.635
 49
0.0
 74
     0
 49
-0.635
 74
     0
  0
ENDTAB
  0
TABLE
  2
LAYER
  5
2
330
0
100
AcDbSymbolTable
 70
     3
  0
LAYER
  5
10
330
2
100
AcDbSymbolTableRecord
100
AcDbLayerTableRecord
  2
0
 70
     0
 62
     7
  6
Continuous
370
    -3
390
F
  0
LAYER
  5
73
330
2
100
AcDbSymbolTableRecord
100
AcDbLayerTableRecord
  2
21868
 70
     0
 62
   179
  6
Continuous
370
    -3
390
F
  0
LAYER
  5
74
330
2
100
AcDbSymbolTableRecord
100
AcDbLayerTableRecord
  2
SLD-0
 70
     0
 62
   179
  6
Continuous
370
    -3
390
F
  0
ENDTAB
  0
TABLE
  2
STYLE
  5
3
330
0
100
AcDbSymbolTable
 70
     1
  0
STYLE
  5
11
330
3
100
AcDbSymbolTableRecord
100
AcDbTextStyleTableRecord
  2
Standard
 70
     0
 40
0.0
 41
1.0
 50
0.0
 71
     0
 42
3.5
  3
txt
  4

  0
ENDTAB
  0
TABLE
  2
VIEW
  5
6
330
0
100
AcDbSymbolTable
 70
     0
  0
ENDTAB
  0
TABLE
  2
UCS
  5
7
330
0
100
AcDbSymbolTable
 70
     0
  0
ENDTAB
  0
TABLE
  2
APPID
  5
9
330
0
100
AcDbSymbolTable
 70
     1
  0
APPID
  5
12
330
9
100
AcDbSymbolTableRecord
100
AcDbRegAppTableRecord
  2
ACAD
 70
     0
  0
ENDTAB
  0
TABLE
  2
DIMSTYLE
  5
A
330
0
100
AcDbSymbolTable
 70
     1
100
AcDbDimStyleTable
  0
DIMSTYLE
105
27
330
A
100
AcDbSymbolTableRecord
100
AcDbDimStyleTableRecord
  2
ISO-25
 70
     0
 41
2.5
 42
0.625
 43
3.75
 44
1.25
 73
     0
 74
     0
 77
     1
 78
     8
140
2.5
141
2.5
143
0.0393700787
147
0.625
171
     3
172
     1
178
     0
271
     2
272
     2
274
     3
278
    44
283
     0
284
     8
340
11
  0
ENDTAB
  0
TABLE
  2
BLOCK_RECORD
  5
1
330
0
100
AcDbSymbolTable
 70
     1
  0
BLOCK_RECORD
  5
1F
330
1
100
AcDbSymbolTableRecord
100
AcDbBlockTableRecord
  2
*Model_Space
340
22
  0
BLOCK_RECORD
  5
1B
330
1
100
AcDbSymbolTableRecord
100
AcDbBlockTableRecord
  2
*Paper_Space
340
1E
  0
BLOCK_RECORD
  5
23
330
1
100
AcDbSymbolTableRecord
100
AcDbBlockTableRecord
  2
*Paper_Space0
340
26
  0
ENDTAB
  0
ENDSEC
  0
SECTION
  2
BLOCKS
  0
BLOCK
  5
20
330
1F
100
AcDbEntity
  8
0
100
AcDbBlockBegin
  2
*Model_Space
 70
     0
 10
0.0
 20
0.0
 30
0.0
  3
*Model_Space
  1

  0
ENDBLK
  5
21
330
1F
100
AcDbEntity
  8
0
100
AcDbBlockEnd
  0
BLOCK
  5
1C
330
1B
100
AcDbEntity
 67
     1
  8
0
100
AcDbBlockBegin
  2
*Paper_Space
 70
     0
 10
0.0
 20
0.0
 30
0.0
  3
*Paper_Space
  1

  0
ENDBLK
  5
1D
330
1B
100
AcDbEntity
 67
     1
  8
0
100
AcDbBlockEnd
  0
BLOCK
  5
24
330
23
100
AcDbEntity
  8
0
100
AcDbBlockBegin
  2
*Paper_Space0
 70
     0
 10
0.0
 20
0.0
 30
0.0
  3
*Paper_Space0
  1

  0
ENDBLK
  5
25
330
23
100
AcDbEntity
  8
0
100
AcDbBlockEnd
  0
ENDSEC
  0
SECTION
  2
ENTITIES
  0
LINE
  5
75
330
1F
100
AcDbEntity
  8
21868
  6
Continuous
 62
   179
100
AcDbLine
 10
267.2291866473
 20
186.8803714095
 30
0.0
 11
272.5013116825
 21
186.8803714095
 31
0.0
  0
LINE
  5
76
330
1F
100
AcDbEntity
  8
21868
  6
Continuous
 62
   179
100
AcDbLine
 10
267.2291866473
 20
189.380371407
 30
0.0
 11
272.5013116825
 21
189.380371407
 31
0.0
  0
LINE
  5
77
330
1F
100
AcDbEntity
  8
21868
  6
Continuous
 62
   179
100
AcDbLine
 10
267.2291866473
 20
186.8803714095
 30
0.0
 11
267.2291866473
 21
189.380371407
 31
0.0
  0
LINE
  5
78
330
1F
100
AcDbEntity
  8
21868
  6
Continuous
 62
   179
100
AcDbLine
 10
272.5013116825
 20
189.380371407
 30
0.0
 11
272.5013116825
 21
186.8803714095
 31
0.0
  0
LINE
  5
79
330
1F
100
AcDbEntity
  8
21868
  6
HIDDEN
 62
   179
100
AcDbLine
 10
272.7513116823
 20
184.2324954121
 30
0.0
 11
275.2513116798
 21
184.2324954121
 31
0.0
  0
LINE
  5
7A
330
1F
100
AcDbEntity
  8
21868
  6
HIDDEN
 62
   179
100
AcDbLine
 10
272.7513116823
 20
171.7324954246
 30
0.0
 11
275.2513116798
 21
171.7324954246
 31
0.0
  0
LINE
  5
7B
330
1F
100
AcDbEntity
  8
21868
  6
Continuous
 62
   179
100
AcDbLine
 10
272.7513116823
 20
185.0524954113
 30
0.0
 11
272.7513116823
 21
171.1324953847
 31
0.0
  0
LINE
  5
7C
330
1F
100
AcDbEntity
  8
21868
  6
Continuous
 62
   179
100
AcDbLine
 10
272.7513116823
 20
185.0524954113
 30
0.0
 11
275.2513116798
 21
185.0524954113
 31
0.0
  0
LINE
  5
7D
330
1F
100
AcDbEntity
  8
21868
  6
Continuous
 62
   179
100
AcDbLine
 10
275.2513116798
 20
186.6303714097
 30
0.0
 11
275.2513116798
 21
185.0524954113
 31
0.0
  0
LINE
  5
7E
330
1F
100
AcDbEntity
  8
21868
  6
Continuous
 62
   179
100
AcDbLine
 10
275.2513116798
 20
185.0524954113
 30
0.0
 11
275.2513116798
 21
171.1324953847
 31
0.0
  0
LINE
  5
7F
330
1F
100
AcDbEntity
  8
21868
  6
Continuous
 62
   179
100
AcDbLine
 10
272.7513116823
 20
186.6303714097
 30
0.0
 11
272.7513116823
 21
185.0524954113
 31
0.0
  0
LINE
  5
80
330
1F
100
AcDbEntity
  8
21868
  6
Continuous
 62
   179
100
AcDbLine
 10
275.07131168
 20
170.8824953849
 30
0.0
 11
252.071311703
 21
170.8824953849
 31
0.0
  0
LINE
  5
81
330
1F
100
AcDbEntity
  8
21868
  6
Continuous
 62
   179
100
AcDbLine
 10
252.071311703
 20
170.8824953849
 30
0.0
 11
252.071311703
 21
168.3824953874
 31
0.0
  0
LINE
  5
82
330
1F
100
AcDbEntity
  8
21868
  6
Continuous
 62
   179
100
AcDbLine
 10
275.2480686798
 20
170.8824953849
 30
0.0
 11
275.07131168
 21
170.8824953849
 31
0.0
  0
LINE
  5
83
330
1F
100
AcDbEntity
  8
21868
  6
Continuous
 62
   179
100
AcDbLine
 10
275.2480686798
 20
170.8824953849
 30
0.0
 11
275.2480686798
 21
168.3824953874
 31
0.0
  0
LINE
  5
84
330
1F
100
AcDbEntity
  8
21868
  6
HIDDEN
 62
   179
100
AcDbLine
 10
272.029049683
 20
170.8824953849
 30
0.0
 11
272.029049683
 21
168.3824953874
 31
0.0
  0
LINE
  5
85
330
1F
100
AcDbEntity
  8
21868
  6
Continuous
 62
   179
100
AcDbLine
 10
275.2480686798
 20
168.3824953874
 30
0.0
 11
275.07131168
 21
168.3824953874
 31
0.0
  0
LINE
  5
86
330
1F
100
AcDbEntity
  8
21868
  6
Continuous
 62
   179
100
AcDbLine
 10
275.07131168
 20
168.3824953874
 30
0.0
 11
252.071311703
 21
168.3824953874
 31
0.0
  0
LINE
  5
87
330
1F
100
AcDbEntity
  8
21868
  6
HIDDEN
 62
   179
100
AcDbLine
 10
275.2513116798
 20
178.9024954174
 30
0.0
 11
272.7513116823
 21
178.9024954174
 31
0.0
  0
LINE
  5
88
330
1F
100
AcDbEntity
  8
21868
  6
HIDDEN
 62
   179
100
AcDbLine
 10
272.7513116823
 20
173.302495423
 30
0.0
 11
275.2513116798
 21
173.302495423
 31
0.0
  0
LINE
  5
89
330
1F
100
AcDbEntity
  8
21868
  6
HIDDEN
 62
   179
100
AcDbLine
 10
272.7513116823
 20
183.382495413
 30
0.0
 11
275.2513116798
 21
183.382495413
 31
0.0
  0
LINE
  5
8A
330
1F
100
AcDbEntity
  8
21868
  6
Continuous
 62
   179
100
AcDbLine
 10
107.2798191424
 20
189.380371407
 30
0.0
 11
206.5960574965
 21
189.380371407
 31
0.0
  0
LINE
  5
8B
330
1F
100
AcDbEntity
  8
21868
  6
HIDDEN
 62
   179
100
AcDbLine
 10
107.2798191424
 20
186.8803714095
 30
0.0
 11
206.5960574965
 21
186.8803714095
 31
0.0
  0
LINE
  5
8C
330
1F
100
AcDbEntity
  8
21868
  6
HIDDEN
 62
   179
100
AcDbLine
 10
107.2798191424
 20
189.380371407
 30
0.0
 11
107.2798191424
 21
186.8803714095
 31
0.0
  0
LINE
  5
8D
330
1F
100
AcDbEntity
  8
21868
  6
HIDDEN
 62
   179
100
AcDbLine
 10
206.5960574965
 20
189.380371407
 30
0.0
 11
206.5960574965
 21
186.8803714095
 31
0.0
  0
LINE
  5
8E
330
1F
100
AcDbEntity
  8
21868
  6
Continuous
 62
   179
100
AcDbLine
 10
107.0395726328
 20
186.6303714097
 30
0.0
 11
107.0395734627
 21
185.0524954113
 31
0.0
  0
LINE
  5
8F
330
1F
100
AcDbEntity
  8
21868
  6
Continuous
 62
   179
100
AcDbLine
 10
107.0395734627
 20
185.0524954113
 30
0.0
 11
101.9379354678
 21
185.0524954113
 31
0.0
  0
LINE
  5
90
330
1F
100
AcDbEntity
  8
21868
  6
Continuous
 62
   179
100
AcDbLine
 10
101.9379354678
 20
185.0524954113
 30
0.0
 11
101.9379354678
 21
171.1324953847
 31
0.0
  0
LINE
  5
91
330
1F
100
AcDbEntity
  8
21868
  6
Continuous
 62
   179
100
AcDbLine
 10
211.9379353578
 20
185.0524954113
 30
0.0
 11
206.8362973629
 21
185.0524954113
 31
0.0
  0
LINE
  5
92
330
1F
100
AcDbEntity
  8
21868
  6
Continuous
 62
   179
100
AcDbLine
 10
206.8362973629
 20
185.0524954113
 30
0.0
 11
206.8362973629
 21
186.6303714097
 31
0.0
  0
LINE
  5
93
330
1F
100
AcDbEntity
  8
21868
  6
Continuous
 62
   179
100
AcDbLine
 10
179.4379353903
 20
182.2324954141
 30
0.0
 11
179.4379353903
 21
173.7324954226
 31
0.0
  0
LINE
  5
94
330
1F
100
AcDbEntity
  8
21868
  6
Continuous
 62
   179
100
AcDbLine
 10
177.4379353923
 20
171.7324954246
 30
0.0
 11
136.4379354333
 21
171.7324954246
 31
0.0
  0
LINE
  5
95
330
1F
100
AcDbEntity
  8
21868
  6
Continuous
 62
   179
100
AcDbLine
 10
134.4379354353
 20
173.7324954226
 30
0.0
 11
134.4379354353
 21
182.2324954141
 31
0.0
  0
LINE
  5
96
330
1F
100
AcDbEntity
  8
21868
  6
Continuous
 62
   179
100
AcDbLine
 10
136.4379354333
 20
184.2324954121
 30
0.0
 11
147.4379354487
 21
184.2324954121
 31
0.0
  0
LINE
  5
97
330
1F
100
AcDbEntity
  8
21868
  6
Continuous
 62
   179
100
AcDbLine
 10
166.4379357558
 20
184.2324954804
 30
0.0
 11
177.4379354048
 21
184.2324954804
 31
0.0
  0
LINE
  5
98
330
1F
100
AcDbEntity
  8
21868
  6
Continuous
 62
   179
100
AcDbLine
 10
107.0395726328
 20
186.6303714097
 30
0.0
 11
107.0395726328
 21
188.4828191501
 31
0.0
  0
LINE
  5
99
330
1F
100
AcDbEntity
  8
21868
  6
Continuous
 62
   179
100
AcDbLine
 10
206.8362973629
 20
188.4828273137
 30
0.0
 11
206.8362973629
 21
186.6303714097
 31
0.0
  0
LINE
  5
9A
330
1F
100
AcDbEntity
  8
21868
  6
Continuous
 62
   179
100
AcDbLine
 10
211.9379353578
 20
171.1324953847
 30
0.0
 11
211.9379353578
 21
185.0524954113
 31
0.0
  0
LINE
  5
9B
330
1F
100
AcDbEntity
  8
21868
  6
Continuous
 62
   179
100
AcDbLine
 10
221.9379353478
 20
170.8824953849
 30
0.0
 11
212.9379353568
 21
170.8824953849
 31
0.0
  0
LINE
  5
9C
330
1F
100
AcDbEntity
  8
21868
  6
Continuous
 62
   179
100
AcDbLine
 10
212.9379353568
 20
170.8824953849
 30
0.0
 11
212.9379353568
 21
168.3824953874
 31
0.0
  0
LINE
  5
9D
330
1F
100
AcDbEntity
  8
21868
  6
Continuous
 62
   179
100
AcDbLine
 10
221.9379353478
 20
170.8824953849
 30
0.0
 11
221.9379353478
 21
168.3824953874
 31
0.0
  0
LINE
  5
9E
330
1F
100
AcDbEntity
  8
21868
  6
Continuous
 62
   179
100
AcDbLine
 10
100.9379354688
 20
170.8824953849
 30
0.0
 11
91.9379354778
 21
170.8824953849
 31
0.0
  0
LINE
  5
9F
330
1F
100
AcDbEntity
  8
21868
  6
Continuous
 62
   179
100
AcDbLine
 10
91.9379354778
 20
170.8824953849
 30
0.0
 11
91.9379354778
 21
168.3824953874
 31
0.0
  0
LINE
  5
A0
330
1F
100
AcDbEntity
  8
21868
  6
Continuous
 62
   179
100
AcDbLine
 10
100.9379354688
 20
170.8824953849
 30
0.0
 11
100.9379354688
 21
168.3824953874
 31
0.0
  0
LINE
  5
A1
330
1F
100
AcDbEntity
  8
21868
  6
Continuous
 62
   179
100
AcDbLine
 10
101.9379354678
 20
170.8824953849
 30
0.0
 11
100.9379354688
 21
170.8824953849
 31
0.0
  0
LINE
  5
A2
330
1F
100
AcDbEntity
  8
21868
  6
Continuous
 62
   179
100
AcDbLine
 10
212.9379353568
 20
170.8824953849
 30
0.0
 11
211.9379353578
 21
170.8824953849
 31
0.0
  0
LINE
  5
A3
330
1F
100
AcDbEntity
  8
21868
  6
Continuous
 62
   179
100
AcDbLine
 10
211.9379353578
 20
168.3824953874
 30
0.0
 11
101.9379354678
 21
168.3824953874
 31
0.0
  0
LINE
  5
A4
330
1F
100
AcDbEntity
  8
21868
  6
Continuous
 62
   179
100
AcDbLine
 10
101.9379354678
 20
168.3824953874
 30
0.0
 11
100.9379354688
 21
168.3824953874
 31
0.0
  0
LINE
  5
A5
330
1F
100
AcDbEntity
  8
21868
  6
Continuous
 62
   179
100
AcDbLine
 10
100.9379354688
 20
168.3824953874
 30
0.0
 11
91.9379354778
 21
168.3824953874
 31
0.0
  0
LINE
  5
A6
330
1F
100
AcDbEntity
  8
21868
  6
Continuous
 62
   179
100
AcDbLine
 10
221.9379353478
 20
168.3824953874
 30
0.0
 11
212.9379353568
 21
168.3824953874
 31
0.0
  0
LINE
  5
A7
330
1F
100
AcDbEntity
  8
21868
  6
Continuous
 62
   179
100
AcDbLine
 10
212.9379353568
 20
168.3824953874
 30
0.0
 11
211.9379353578
 21
168.3824953874
 31
0.0
  0
LINE
  5
A8
330
1F
100
AcDbEntity
  8
21868
  6
Continuous
 62
   179
100
AcDbLine
 10
211.9379353578
 20
168.3824953874
 30
0.0
 11
211.9379353578
 21
171.1324953847
 31
0.0
  0
LINE
  5
A9
330
1F
100
AcDbEntity
  8
21868
  6
Continuous
 62
   179
100
AcDbLine
 10
101.9379354678
 20
171.1324953847
 30
0.0
 11
101.9379354678
 21
168.3824953874
 31
0.0
  0
LINE
  5
AA
330
1F
100
AcDbEntity
  8
21868
  6
HIDDEN
 62
   179
100
AcDbLine
 10
211.9379353578
 20
170.8824953849
 30
0.0
 11
101.9379354678
 21
170.8824953849
 31
0.0
  0
LINE
  5
AB
330
1F
100
AcDbEntity
  8
21868
  6
Continuous
 62
   179
100
AcDbLine
 10
199.0791995129
 20
110.2824783708
 30
0.0
 11
114.7967415971
 21
110.2824803709
 31
0.0
  0
LINE
  5
AC
330
1F
100
AcDbEntity
  8
21868
  6
HIDDEN
 62
   179
100
AcDbLine
 10
166.4379357558
 20
104.7603553358
 30
0.0
 11
166.4379357558
 21
102.2603553383
 31
0.0
  0
LINE
  5
AD
330
1F
100
AcDbEntity
  8
21868
  6
HIDDEN
 62
   179
100
AcDbLine
 10
147.4379354487
 20
104.7603553358
 30
0.0
 11
147.4379354487
 21
102.2603553383
 31
0.0
  0
LINE
  5
AE
330
1F
100
AcDbEntity
  8
21868
  6
HIDDEN
 62
   179
100
AcDbLine
 10
134.4379354353
 20
104.7603553358
 30
0.0
 11
134.4379354353
 21
102.2603553383
 31
0.0
  0
LINE
  5
AF
330
1F
100
AcDbEntity
  8
21868
  6
HIDDEN
 62
   179
100
AcDbLine
 10
179.4379353903
 20
104.7603553358
 30
0.0
 11
179.4379353903
 21
102.2603553383
 31
0.0
  0
LINE
  5
B0
330
1F
100
AcDbEntity
  8
21868
  6
Continuous
 62
   179
100
AcDbLine
 10
211.9379353578
 20
104.7603553358
 30
0.0
 11
206.8362973629
 21
104.7603553358
 31
0.0
  0
LINE
  5
B1
330
1F
100
AcDbEntity
  8
21868
  6
Continuous
 62
   179
100
AcDbLine
 10
211.9379353578
 20
104.7603553358
 30
0.0
 11
211.9379353578
 21
102.2603553383
 31
0.0
  0
LINE
  5
B2
330
1F
100
AcDbEntity
  8
21868
  6
Continuous
 62
   179
100
AcDbLine
 10
107.0395734627
 20
104.7603553358
 30
0.0
 11
101.9379354678
 21
104.7603553358
 31
0.0
  0
LINE
  5
B3
330
1F
100
AcDbEntity
  8
21868
  6
Continuous
 62
   179
100
AcDbLine
 10
101.9379354678
 20
104.7603553358
 30
0.0
 11
101.9379354678
 21
102.2603553383
 31
0.0
  0
LINE
  5
B4
330
1F
100
AcDbEntity
  8
21868
  6
Continuous
 62
   179
100
AcDbLine
 10
107.0395734627
 20
102.2603553383
 30
0.0
 11
101.9379354678
 21
102.2603553383
 31
0.0
  0
LINE
  5
B5
330
1F
100
AcDbEntity
  8
21868
  6
Continuous
 62
   179
100
AcDbLine
 10
211.9379353578
 20
102.2603553383
 30
0.0
 11
206.8362973629
 21
102.2603553383
 31
0.0
  0
LINE
  5
B6
330
1F
100
AcDbEntity
  8
21868
  6
Continuous
 62
   179
100
AcDbLine
 10
107.0395734627
 20
102.2603553383
 30
0.0
 11
107.0395726328
 21
102.9778845845
 31
0.0
  0
LINE
  5
B7
330
1F
100
AcDbEntity
  8
21868
  6
HIDDEN
 62
   179
100
AcDbLine
 10
107.0395734627
 20
104.7603553358
 30
0.0
 11
107.0395734627
 21
102.2603553383
 31
0.0
  0
LINE
  5
B8
330
1F
100
AcDbEntity
  8
21868
  6
HIDDEN
 62
   179
100
AcDbLine
 10
107.0395734627
 20
104.7603553358
 30
0.0
 11
206.8362973629
 21
104.7603553358
 31
0.0
  0
LINE
  5
B9
330
1F
100
AcDbEntity
  8
21868
  6
Continuous
 62
   179
100
AcDbLine
 10
206.8362973629
 20
104.8255859437
 30
0.0
 11
206.8362973629
 21
102.977892025
 31
0.0
  0
LINE
  5
BA
330
1F
100
AcDbEntity
  8
21868
  6
Continuous
 62
   179
100
AcDbLine
 10
206.8362973629
 20
102.977892025
 30
0.0
 11
206.8362973629
 21
102.2603553383
 31
0.0
  0
LINE
  5
BB
330
1F
100
AcDbEntity
  8
21868
  6
Continuous
 62
   179
100
AcDbLine
 10
107.0395724628
 20
104.8255852673
 30
0.0
 11
107.0395726328
 21
102.9778845845
 31
0.0
  0
LINE
  5
BC
330
1F
100
AcDbEntity
  8
21868
  6
Continuous
 62
   179
100
AcDbLine
 10
107.0395734627
 20
102.2603553383
 30
0.0
 11
206.8362973629
 21
102.2603553383
 31
0.0
  0
LINE
  5
BD
330
1F
100
AcDbEntity
  8
21868
  6
HIDDEN
 62
   179
100
AcDbLine
 10
107.0395734627
 20
104.7603553358
 30
0.0
 11
107.0395724628
 21
104.8255852673
 31
0.0
  0
LINE
  5
BE
330
1F
100
AcDbEntity
  8
21868
  6
Continuous
 62
   179
100
AcDbLine
 10
212.9379353568
 20
102.2635983383
 30
0.0
 11
212.9379353568
 21
105.4826173351
 31
0.0
  0
LINE
  5
BF
330
1F
100
AcDbEntity
  8
21868
  6
Continuous
 62
   179
100
AcDbLine
 10
221.9379353478
 20
102.2635983383
 30
0.0
 11
212.9379353568
 21
102.2635983383
 31
0.0
  0
LINE
  5
C0
330
1F
100
AcDbEntity
  8
21868
  6
Continuous
 62
   179
100
AcDbLine
 10
221.9379353478
 20
102.4403553382
 30
0.0
 11
221.9379353478
 21
102.2635983383
 31
0.0
  0
LINE
  5
C1
330
1F
100
AcDbEntity
  8
21868
  6
Continuous
 62
   179
100
AcDbLine
 10
114.9379354548
 20
125.4403553152
 30
0.0
 11
198.9379353708
 21
125.4403553152
 31
0.0
  0
LINE
  5
C2
330
1F
100
AcDbEntity
  8
21868
  6
Continuous
 62
   179
100
AcDbLine
 10
91.9379354778
 20
102.2635983383
 30
0.0
 11
91.9379354778
 21
102.4403553382
 31
0.0
  0
LINE
  5
C3
330
1F
100
AcDbEntity
  8
21868
  6
Continuous
 62
   179
100
AcDbLine
 10
100.9379354688
 20
102.2635983383
 30
0.0
 11
91.9379354778
 21
102.2635983383
 31
0.0
  0
LINE
  5
C4
330
1F
100
AcDbEntity
  8
21868
  6
Continuous
 62
   179
100
AcDbLine
 10
100.9379354688
 20
105.4826173351
 30
0.0
 11
100.9379354688
 21
102.2635983383
 31
0.0
  0
LINE
  5
C5
330
1F
100
AcDbEntity
  8
21868
  6
Continuous
 62
   179
100
AcDbLine
 10
101.9379354678
 20
105.4826173351
 30
0.0
 11
100.9379354688
 21
105.4826173351
 31
0.0
  0
LINE
  5
C6
330
1F
100
AcDbEntity
  8
21868
  6
Continuous
 62
   179
100
AcDbLine
 10
212.9379353568
 20
105.4826173351
 30
0.0
 11
211.9379353578
 21
105.4826173351
 31
0.0
  0
LINE
  5
C7
330
1F
100
AcDbEntity
  8
21868
  6
Continuous
 62
   179
100
AcDbLine
 10
211.9379353578
 20
105.4826173351
 30
0.0
 11
211.9379353578
 21
105.0103553356
 31
0.0
  0
LINE
  5
C8
330
1F
100
AcDbEntity
  8
21868
  6
Continuous
 62
   179
100
AcDbLine
 10
211.9379353578
 20
105.0103553356
 30
0.0
 11
211.9379353578
 21
104.7603553358
 31
0.0
  0
LINE
  5
C9
330
1F
100
AcDbEntity
  8
21868
  6
Continuous
 62
   179
100
AcDbLine
 10
101.9379354678
 20
104.7603553358
 30
0.0
 11
101.9379354678
 21
105.0103553356
 31
0.0
  0
LINE
  5
CA
330
1F
100
AcDbEntity
  8
21868
  6
Continuous
 62
   179
100
AcDbLine
 10
101.9379354678
 20
105.0103553356
 30
0.0
 11
101.9379354678
 21
105.4826173351
 31
0.0
  0
LINE
  5
CB
330
1F
100
AcDbEntity
  8
21868
  6
HIDDEN
 62
   179
100
AcDbLine
 10
116.4879354533
 20
102.2603553383
 30
0.0
 11
116.4879354533
 21
104.7603553358
 31
0.0
  0
LINE
  5
CC
330
1F
100
AcDbEntity
  8
21868
  6
HIDDEN
 62
   179
100
AcDbLine
 10
110.8879354589
 20
104.7603553358
 30
0.0
 11
110.8879354589
 21
102.2603553383
 31
0.0
  0
LINE
  5
CD
330
1F
100
AcDbEntity
  8
21868
  6
HIDDEN
 62
   179
100
AcDbLine
 10
202.9879833668
 20
102.2603553383
 30
0.0
 11
202.9879833668
 21
104.7603553358
 31
0.0
  0
LINE
  5
CE
330
1F
100
AcDbEntity
  8
21868
  6
HIDDEN
 62
   179
100
AcDbLine
 10
197.3879833724
 20
104.7603553358
 30
0.0
 11
197.3879833724
 21
102.2603553383
 31
0.0
  0
ARC
  5
CF
330
1F
100
AcDbEntity
  8
21868
  6
Continuous
 62
   179
100
AcDbCircle
 10
272.5013116825
 20
186.6303714097
 30
0.0
 40
2.749999997250029
100
AcDbArc
 50
0.0
 51
42.3468721558
  0
ARC
  5
D0
330
1F
100
AcDbEntity
  8
21868
  6
Continuous
 62
   179
100
AcDbCircle
 10
272.5013116825
 20
186.6303714097
 30
0.0
 40
0.2499999997515717
100
AcDbArc
 50
55.808907759
 51
90.0
  0
ARC
  5
D1
330
1F
100
AcDbEntity
  8
21868
  6
Continuous
 62
   179
100
AcDbCircle
 10
272.5005034713
 20
186.6294391123
 30
0.0
 40
0.2512253860996043
100
AcDbArc
 50
42.3798543779
 51
55.7759255377
  0
ARC
  5
D2
330
1F
100
AcDbEntity
  8
21868
  6
Continuous
 62
   179
100
AcDbCircle
 10
272.5013116825
 20
186.6303714097
 30
0.0
 40
2.749999997251367
100
AcDbArc
 50
55.8089060176
 51
90.0
  0
ARC
  5
D3
330
1F
100
AcDbEntity
  8
21868
  6
Continuous
 62
   179
100
AcDbCircle
 10
272.5013116825
 20
186.6303714097
 30
0.0
 40
2.749999997251367
100
AcDbArc
 50
42.3468721558
 51
55.8089060176
  0
ARC
  5
D4
330
1F
100
AcDbEntity
  8
21868
  6
Continuous
 62
   179
100
AcDbCircle
 10
272.5013116825
 20
186.6303714097
 30
0.0
 40
0.2499999997570772
100
AcDbArc
 50
0.0
 51
42.3468721556
  0
ARC
  5
D5
330
1F
100
AcDbEntity
  8
21868
  6
Continuous
 62
   179
100
AcDbCircle
 10
272.5013116825
 20
171.1324953847
 30
0.0
 40
0.2499999997500026
100
AcDbArc
 50
270.0
 51
0.0
  0
ARC
  5
D6
330
1F
100
AcDbEntity
  8
21868
  6
Continuous
 62
   179
100
AcDbCircle
 10
272.5013116825
 20
171.1324953847
 30
0.0
 40
2.749999997250029
100
AcDbArc
 50
354.7840914295
 51
0.0
  0
ARC
  5
D7
330
1F
100
AcDbEntity
  8
21868
  6
HIDDEN
 62
   179
100
AcDbCircle
 10
272.5013116825
 20
171.1324953847
 30
0.0
 40
2.749999997250029
100
AcDbArc
 50
270.0
 51
354.7840914295
  0
CIRCLE
  5
D8
330
1F
100
AcDbEntity
  8
21868
  6
Continuous
 62
   179
100
AcDbCircle
 10
113.6879354561
 20
176.1024954202
 30
0.0
 40
2.799999997200004
  0
CIRCLE
  5
D9
330
1F
100
AcDbEntity
  8
21868
  6
Continuous
 62
   179
100
AcDbCircle
 10
200.1879833696
 20
176.1024954202
 30
0.0
 40
2.79999999719999
  0
ARC
  5
DA
330
1F
100
AcDbEntity
  8
21868
  6
Continuous
 62
   179
100
AcDbCircle
 10
177.4379353923
 20
182.2324954141
 30
0.0
 40
1.999999997999993
100
AcDbArc
 50
0.0
 51
89.9999996441
  0
ARC
  5
DB
330
1F
100
AcDbEntity
  8
21868
  6
Continuous
 62
   179
100
AcDbCircle
 10
177.4379353923
 20
173.7324954226
 30
0.0
 40
1.999999998000021
100
AcDbArc
 50
270.0
 51
0.0
  0
ARC
  5
DC
330
1F
100
AcDbEntity
  8
21868
  6
Continuous
 62
   179
100
AcDbCircle
 10
136.4379354333
 20
173.7324954226
 30
0.0
 40
1.999999998000021
100
AcDbArc
 50
180.0
 51
270.0
  0
ARC
  5
DD
330
1F
100
AcDbEntity
  8
21868
  6
Continuous
 62
   179
100
AcDbCircle
 10
136.4379354333
 20
182.2324954141
 30
0.0
 40
1.999999997999993
100
AcDbArc
 50
90.0
 51
180.0
  0
ARC
  5
DE
330
1F
100
AcDbEntity
  8
21868
  6
Continuous
 62
   179
100
AcDbCircle
 10
156.9379354128
 20
236.8957303594
 30
0.0
 40
53.51323494648679
100
AcDbArc
 50
259.7743004121
 51
280.2257
  0
ARC
  5
DF
330
1F
100
AcDbEntity
  8
21868
  6
HIDDEN
 62
   179
100
AcDbCircle
 10
107.2707052096
 20
186.4099182312
 30
0.0
 40
0.4705414505844499
100
AcDbArc
 50
88.8901667657
 51
114.7714674339
  0
ARC
  5
E0
330
1F
100
AcDbEntity
  8
21868
  6
HIDDEN
 62
   179
100
AcDbCircle
 10
206.6051713944
 20
186.4099446503
 30
0.0
 40
0.470515035799308
100
AcDbArc
 50
65.2276306995
 51
91.1098913098
  0
ARC
  5
E1
330
1F
100
AcDbEntity
  8
21868
  6
Continuous
 62
   179
100
AcDbCircle
 10
109.3322500071
 20
188.5108456997
 30
0.0
 40
2.292848756389392
100
AcDbArc
 50
170.0992367611
 51
180.7003702509
  0
ARC
  5
E2
330
1F
100
AcDbEntity
  8
21868
  6
Continuous
 62
   179
100
AcDbCircle
 10
204.5303773079
 20
188.5097860868
 30
0.0
 40
2.306077638762644
100
AcDbArc
 50
359.3301790529
 51
9.8699347349
  0
ARC
  5
E3
330
1F
100
AcDbEntity
  8
21868
  6
Continuous
 62
   179
100
AcDbCircle
 10
114.796741455
 20
102.2876563788
 30
0.0
 40
7.994823992005204
100
AcDbArc
 50
89.9999989813
 51
160.0891435422
  0
ARC
  5
E4
330
1F
100
AcDbEntity
  8
21868
  6
Continuous
 62
   179
100
AcDbCircle
 10
199.0791993707
 20
102.2877463788
 30
0.0
 40
7.994732491971946
100
AcDbArc
 50
19.9104066707
 51
89.9999989809
  0
ARC
  5
E5
330
1F
100
AcDbEntity
  8
21868
  6
Continuous
 62
   179
100
AcDbCircle
 10
109.7573718135
 20
101.1510477391
 30
0.0
 40
4.586122802818064
100
AcDbArc
 50
122.6991718551
 51
125.8174961706
  0
ARC
  5
E6
330
1F
100
AcDbEntity
  8
21868
  6
Continuous
 62
   179
100
AcDbCircle
 10
204.1186468378
 20
101.1513659179
 30
0.0
 40
4.585778330592139
100
AcDbArc
 50
54.1816533488
 51
57.3001736598
  0
ARC
  5
E7
330
1F
100
AcDbEntity
  8
21868
  6
Continuous
 62
   179
100
AcDbCircle
 10
116.6328139551
 20
92.2163055737
 30
0.0
 40
90.86843730245721
100
AcDbArc
 50
7.1109228498
 51
8.0939973635
  0
ARC
  5
E8
330
1F
100
AcDbEntity
  8
21868
  6
Continuous
 62
   179
100
AcDbCircle
 10
196.4846657116
 20
92.3171900481
 30
0.0
 40
90.10339114844918
100
AcDbArc
 50
171.9016144278
 51
172.8930297052
  0
ARC
  5
E9
330
1F
100
AcDbEntity
  8
21868
  6
Continuous
 62
   179
100
AcDbCircle
 10
110.9004394833
 20
102.9533125344
 30
0.0
 40
3.860945127731904
100
AcDbArc
 50
172.3845433354
 51
179.6353524202
  0
ARC
  5
EA
330
1F
100
AcDbEntity
  8
21868
  6
Continuous
 62
   179
100
AcDbCircle
 10
202.9878390833
 20
102.9541841988
 30
0.0
 40
3.848531303195539
100
AcDbArc
 50
0.3529572363
 51
7.626910759
  0
ARC
  5
EB
330
1F
100
AcDbEntity
  8
21868
  6
Continuous
 62
   179
100
AcDbCircle
 10
198.9379353708
 20
102.4403553382
 30
0.0
 40
22.99999997700004
100
AcDbArc
 50
0.0
 51
90.0
  0
ARC
  5
EC
330
1F
100
AcDbEntity
  8
21868
  6
Continuous
 62
   179
100
AcDbCircle
 10
114.9379354548
 20
102.4403553382
 30
0.0
 40
22.99999997700004
100
AcDbArc
 50
90.0
 51
180.0
  0
SPLINE
  5
ED
330
1F
100
AcDbEntity
  8
21868
  6
HIDDEN
 62
   179
100
AcDbSpline
210
0.0
220
0.0
230
1.0
 70
     8
 71
     3
 72
     8
 73
     4
 74
     0
 42
0.000000001
 43
0.00000001
 40
0.0
 40
0.0
 40
0.0
 40
0.0
 40
1.0
 40
1.0
 40
1.0
 40
1.0
 10
107.073548356422
 20
186.8371633973102
 30
0.0
 10
107.0510067466741
 20
186.826402660265
 30
0.0
 10
107.0395724262868
 20
186.8134271173009
 30
0.0
 10
107.0395724627691
 20
186.7987757497414
 30
0.0
  0
SPLINE
  5
EE
330
1F
100
AcDbEntity
  8
21868
  6
HIDDEN
 62
   179
100
AcDbSpline
210
0.0
220
0.0
230
1.0
 70
     8
 71
     3
 72
     8
 73
     4
 74
     0
 42
0.000000001
 43
0.00000001
 40
0.0
 40
0.0
 40
0.0
 40
0.0
 40
1.0
 40
1.0
 40
1.0
 40
1.0
 10
206.8362973629722
 20
186.798776491887
 30
0.0
 10
206.8362973629722
 20
186.8134272435683
 30
0.0
 10
206.8248638728261
 20
186.8264022977078
 30
0.0
 10
206.8023239044697
 20
186.8371627288923
 30
0.0
  0
SPLINE
  5
EF
330
1F
100
AcDbEntity
  8
21868
  6
Continuous
 62
   179
100
AcDbSpline
210
0.0
220
0.0
230
1.0
 70
     8
 71
     3
 72
    16
 73
    12
 74
     0
 42
0.000000001
 43
0.00000001
 40
0.0
 40
0.0
 40
0.0
 40
0.0
 40
0.1009740558668807
 40
0.2017487329538649
 40
0.3023179183546834
 40
0.402675525698345
 40
0.5028154960043866
 40
0.6276649397417919
 40
0.7521532732149866
 40
0.876268823538203
 40
1.0
 40
1.0
 40
1.0
 40
1.0
 10
206.8023236329198
 20
188.9050758186424
 30
0.0
 10
206.7963417241339
 20
188.9353811231582
 30
0.0
 10
206.7843897181673
 20
188.9959318927133
 30
0.0
 10
206.7657112089872
 20
189.0758136652731
 30
0.0
 10
206.7465063104097
 20
189.1472561668265
 30
0.0
 10
206.7267216623327
 20
189.2093139709498
 30
0.0
 10
206.7046842113612
 20
189.2663851521315
 30
0.0
 10
206.6802116906769
 20
189.3154466044648
 30
0.0
 10
206.6530866938168
 20
189.3527373896801
 30
0.0
 10
206.6251541376331
 20
189.3760571426936
 30
0.0
 10
206.6057463439592
 20
189.3789348064831
 30
0.0
 10
206.5960574964407
 20
189.3803714069609
 30
0.0
  0
SPLINE
  5
F0
330
1F
100
AcDbEntity
  8
21868
  6
Continuous
 62
   179
100
AcDbSpline
210
0.0
220
0.0
230
1.0
 70
     8
 71
     3
 72
    16
 73
    12
 74
     0
 42
0.000000001
 43
0.00000001
 40
0.0
 40
0.0
 40
0.0
 40
0.0
 40
0.0989619091763303
 40
0.1981713764161627
 40
0.2976224765079406
 40
0.3973092524994864
 40
0.4972257165722125
 40
0.6224247674770419
 40
0.7479614088252656
 40
0.8738237926155167
 40
1.0
 40
1.0
 40
1.0
 40
1.0
 10
107.2798191423864
 20
189.3803714069609
 30
0.0
 10
107.2720554544956
 20
189.3794527572359
 30
0.0
 10
107.2565086574682
 20
189.3776131597389
 30
0.0
 10
107.2339427161629
 20
189.3627071111994
 30
0.0
 10
107.2118927623352
 20
189.3388623301429
 30
0.0
 10
107.1904164964727
 20
189.3052118045629
 30
0.0
 10
107.1677538751087
 20
189.2584060239937
 30
0.0
 10
107.1440847002142
 20
189.1955551681498
 30
0.0
 10
107.1196375906993
 20
189.1133791106233
 30
0.0
 10
107.0960116428745
 20
189.0178539060707
 30
0.0
 10
107.0810424148079
 20
188.9427046433937
 30
0.0
 10
107.0735484813744
 20
188.9050832263395
 30
0.0
  0
SPLINE
  5
F1
330
1F
100
AcDbEntity
  8
21868
  6
Continuous
 62
   179
100
AcDbSpline
210
0.0
220
0.0
230
1.0
 70
     8
 71
     3
 72
     8
 73
     4
 74
     0
 42
0.000000001
 43
0.00000001
 40
0.0
 40
0.0
 40
0.0
 40
0.0
 40
1.0
 40
1.0
 40
1.0
 40
1.0
 10
107.073548356422
 20
104.8698666394824
 30
0.0
 10
107.0510067466741
 20
104.8540274001547
 30
0.0
 10
107.0395724262868
 20
104.8389389122493
 30
0.0
 10
107.0395724627691
 20
104.8255852673256
 30
0.0
  0
SPLINE
  5
F2
330
1F
100
AcDbEntity
  8
21868
  6
Continuous
 62
   179
100
AcDbSpline
210
0.0
220
0.0
230
1.0
 70
     8
 71
     3
 72
     8
 73
     4
 74
     0
 42
0.000000001
 43
0.00000001
 40
0.0
 40
0.0
 40
0.0
 40
0.0
 40
1.0
 40
1.0
 40
1.0
 40
1.0
 10
206.8362973629722
 20
104.8255859437394
 30
0.0
 10
206.8362973629722
 20
104.8389391350653
 30
0.0
 10
206.8248638728261
 20
104.8540270296205
 30
0.0
 10
206.8023239044697
 20
104.869865655611
 30
0.0
  0
ENDSEC
  0
SECTION
  2
OBJECTS
  0
DICTIONARY
  5
C
330
0
100
AcDbDictionary
281
     1
  3
ACAD_GROUP
350
D
  3
ACAD_LAYOUT
350
1A
  3
ACAD_MLINESTYLE
350
17
  3
ACAD_PLOTSETTINGS
350
19
  3
ACAD_PLOTSTYLENAME
350
E
  3
ACAD_SCALELIST
350
47
  0
DICTIONARY
  5
D
102
{ACAD_REACTORS
330
C
102
}
330
C
100
AcDbDictionary
281
     1
  0
DICTIONARY
  5
1A
102
{ACAD_REACTORS
330
C
102
}
330
C
100
AcDbDictionary
281
     1
  3
Layout1
350
1E
  3
Layout2
350
26
  3
Model
350
22
  0
DICTIONARY
  5
17
102
{ACAD_REACTORS
330
C
102
}
330
C
100
AcDbDictionary
281
     1
  3
Standard
350
18
  0
DICTIONARY
  5
19
102
{ACAD_REACTORS
330
C
102
}
330
C
100
AcDbDictionary
281
     1
  0
ACDBDICTIONARYWDFLT
  5
E
102
{ACAD_REACTORS
330
C
102
}
330
C
100
AcDbDictionary
281
     1
  3
Normal
350
F
100
AcDbDictionaryWithDefault
340
F
  0
DICTIONARY
  5
47
102
{ACAD_REACTORS
330
C
102
}
330
C
100
AcDbDictionary
281
     1
  3
A0
350
48
  3
A1
350
49
  3
A2
350
4A
  3
A3
350
4B
  3
A4
350
4C
  3
A5
350
4D
  3
A6
350
4E
  3
A7
350
4F
  3
A8
350
50
  3
A9
350
51
  3
B0
350
52
  3
B1
350
53
  3
B2
350
54
  3
B3
350
55
  3
B4
350
56
  3
B5
350
57
  3
B6
350
58
  3
B7
350
59
  3
B8
350
5A
  3
B9
350
5B
  3
C0
350
5C
  3
C1
350
5D
  3
C2
350
5E
  3
C3
350
5F
  3
C4
350
60
  3
C5
350
61
  3
C6
350
62
  3
C7
350
63
  3
C8
350
64
  3
C9
350
65
  3
D0
350
66
  3
D1
350
67
  3
D2
350
68
  0
LAYOUT
  5
1E
102
{ACAD_REACTORS
330
1A
102
}
330
1A
100
AcDbPlotSettings
  1

  2
none_device
  4

  6

 40
0.0
 41
0.0
 42
0.0
 43
0.0
 44
0.0
 45
0.0
 46
0.0
 47
0.0
 48
0.0
 49
0.0
140
0.0
141
0.0
142
1.0
143
1.0
 70
   688
 72
     1
 73
     0
 74
     5
  7

 75
    16
147
1.0
148
0.0
149
0.0
100
AcDbLayout
  1
Layout1
 70
     1
 71
     1
 10
0.0
 20
0.0
 11
420.0
 21
297.0
 12
0.0
 22
0.0
 32
0.0
 14
1.0000000000E+20
 24
1.0000000000E+20
 34
1.0000000000E+20
 15
-1.0000000000E+20
 25
-1.0000000000E+20
 35
-1.0000000000E+20
146
0.0
 13
0.0
 23
0.0
 33
0.0
 16
1.0
 26
0.0
 36
0.0
 17
0.0
 27
1.0
 37
0.0
 76
     0
330
1B
  0
LAYOUT
  5
26
102
{ACAD_REACTORS
330
1A
102
}
330
1A
100
AcDbPlotSettings
  1

  2
none_device
  4

  6

 40
0.0
 41
0.0
 42
0.0
 43
0.0
 44
0.0
 45
0.0
 46
0.0
 47
0.0
 48
0.0
 49
0.0
140
0.0
141
0.0
142
1.0
143
1.0
 70
   688
 72
     1
 73
     0
 74
     5
  7

 75
    16
147
1.0
148
0.0
149
0.0
100
AcDbLayout
  1
Layout2
 70
     1
 71
     2
 10
0.0
 20
0.0
 11
0.0
 21
0.0
 12
0.0
 22
0.0
 32
0.0
 14
0.0
 24
0.0
 34
0.0
 15
0.0
 25
0.0
 35
0.0
146
0.0
 13
0.0
 23
0.0
 33
0.0
 16
1.0
 26
0.0
 36
0.0
 17
0.0
 27
1.0
 37
0.0
 76
     0
330
23
  0
LAYOUT
  5
22
102
{ACAD_REACTORS
330
1A
102
}
330
1A
100
AcDbPlotSettings
  1

  2
none_device
  4
Letter_(8.50_x_11.00_Inches)
  6

 40
6.35
 41
6.35
 42
6.35000508
 43
6.35000508
 44
215.9
 45
279.4
 46
0.0
 47
0.0
 48
0.0
 49
0.0
140
0.0
141
0.0
142
1.0
143
1.0
 70
  1712
 72
     1
 73
     0
 74
     0
  7

 75
     0
147
1.0
148
0.0
149
0.0
100
AcDbLayout
  1
Model
 70
     1
 71
     0
 10
0.0
 20
0.0
 11
431.8
 21
279.4
 12
0.0
 22
0.0
 32
0.0
 14
0.0
 24
0.0
 34
0.0
 15
431.8
 25
279.4
 35
0.0
146
0.0
 13
0.0
 23
0.0
 33
0.0
 16
1.0
 26
0.0
 36
0.0
 17
0.0
 27
1.0
 37
0.0
 76
     0
330
1F
331
29
  0
MLINESTYLE
  5
18
102
{ACAD_REACTORS
330
17
102
}
330
17
100
AcDbMlineStyle
  2
Standard
 70
     0
  3

 62
   256
 51
90.0
 52
90.0
 71
     2
 49
0.5
 62
   256
  6
BYLAYER
 49
-0.5
 62
   256
  6
BYLAYER
  0
ACDBPLACEHOLDER
  5
F
102
{ACAD_REACTORS
330
E
102
}
330
E
  0
SCALE
  5
48
102
{ACAD_REACTORS
330
47
102
}
330
47
100
AcDbScale
 70
     0
300
1:1
140
1.0
141
1.0
290
     1
  0
SCALE
  5
49
102
{ACAD_REACTORS
330
47
102
}
330
47
100
AcDbScale
 70
     0
300
1:2
140
1.0
141
2.0
290
     0
  0
SCALE
  5
4A
102
{ACAD_REACTORS
330
47
102
}
330
47
100
AcDbScale
 70
     0
300
1:4
140
1.0
141
4.0
290
     0
  0
SCALE
  5
4B
102
{ACAD_REACTORS
330
47
102
}
330
47
100
AcDbScale
 70
     0
300
1:5
140
1.0
141
5.0
290
     0
  0
SCALE
  5
4C
102
{ACAD_REACTORS
330
47
102
}
330
47
100
AcDbScale
 70
     0
300
1:8
140
1.0
141
8.0
290
     0
  0
SCALE
  5
4D
102
{ACAD_REACTORS
330
47
102
}
330
47
100
AcDbScale
 70
     0
300
1:10
140
1.0
141
10.0
290
     0
  0
SCALE
  5
4E
102
{ACAD_REACTORS
330
47
102
}
330
47
100
AcDbScale
 70
     0
300
1:16
140
1.0
141
16.0
290
     0
  0
SCALE
  5
4F
102
{ACAD_REACTORS
330
47
102
}
330
47
100
AcDbScale
 70
     0
300
1:20
140
1.0
141
20.0
290
     0
  0
SCALE
  5
50
102
{ACAD_REACTORS
330
47
102
}
330
47
100
AcDbScale
 70
     0
300
1:30
140
1.0
141
30.0
290
     0
  0
SCALE
  5
51
102
{ACAD_REACTORS
330
47
102
}
330
47
100
AcDbScale
 70
     0
300
1:40
140
1.0
141
40.0
290
     0
  0
SCALE
  5
52
102
{ACAD_REACTORS
330
47
102
}
330
47
100
AcDbScale
 70
     0
300
1:50
140
1.0
141
50.0
290
     0
  0
SCALE
  5
53
102
{ACAD_REACTORS
330
47
102
}
330
47
100
AcDbScale
 70
     0
300
1:100
140
1.0
141
100.0
290
     0
  0
SCALE
  5
54
102
{ACAD_REACTORS
330
47
102
}
330
47
100
AcDbScale
 70
     0
300
2:1
140
2.0
141
1.0
290
     0
  0
SCALE
  5
55
102
{ACAD_REACTORS
330
47
102
}
330
47
100
AcDbScale
 70
     0
300
4:1
140
4.0
141
1.0
290
     0
  0
SCALE
  5
56
102
{ACAD_REACTORS
330
47
102
}
330
47
100
AcDbScale
 70
     0
300
8:1
140
8.0
141
1.0
290
     0
  0
SCALE
  5
57
102
{ACAD_REACTORS
330
47
102
}
330
47
100
AcDbScale
 70
     0
300
10:1
140
10.0
141
1.0
290
     0
  0
SCALE
  5
58
102
{ACAD_REACTORS
330
47
102
}
330
47
100
AcDbScale
 70
     0
300
100:1
140
100.0
141
1.0
290
     0
  0
SCALE
  5
59
102
{ACAD_REACTORS
330
47
102
}
330
47
100
AcDbScale
 70
     0
300
1/128" = 1'-0"
140
0.0078125
141
12.0
290
     0
  0
SCALE
  5
5A
102
{ACAD_REACTORS
330
47
102
}
330
47
100
AcDbScale
 70
     0
300
1/64" = 1'-0"
140
0.015625
141
12.0
290
     0
  0
SCALE
  5
5B
102
{ACAD_REACTORS
330
47
102
}
330
47
100
AcDbScale
 70
     0
300
1/32" = 1'-0"
140
0.03125
141
12.0
290
     0
  0
SCALE
  5
5C
102
{ACAD_REACTORS
330
47
102
}
330
47
100
AcDbScale
 70
     0
300
1/16" = 1'-0"
140
0.0625
141
12.0
290
     0
  0
SCALE
  5
5D
102
{ACAD_REACTORS
330
47
102
}
330
47
100
AcDbScale
 70
     0
300
3/32" = 1'-0"
140
0.09375
141
12.0
290
     0
  0
SCALE
  5
5E
102
{ACAD_REACTORS
330
47
102
}
330
47
100
AcDbScale
 70
     0
300
1/8" = 1'-0"
140
0.125
141
12.0
290
     0
  0
SCALE
  5
5F
102
{ACAD_REACTORS
330
47
102
}
330
47
100
AcDbScale
 70
     0
300
3/16" = 1'-0"
140
0.1875
141
12.0
290
     0
  0
SCALE
  5
60
102
{ACAD_REACTORS
330
47
102
}
330
47
100
AcDbScale
 70
     0
300
1/4" = 1'-0"
140
0.25
141
12.0
290
     0
  0
SCALE
  5
61
102
{ACAD_REACTORS
330
47
102
}
330
47
100
AcDbScale
 70
     0
300
3/8" = 1'-0"
140
0.375
141
12.0
290
     0
  0
SCALE
  5
62
102
{ACAD_REACTORS
330
47
102
}
330
47
100
AcDbScale
 70
     0
300
1/2" = 1'-0"
140
0.5
141
12.0
290
     0
  0
SCALE
  5
63
102
{ACAD_REACTORS
330
47
102
}
330
47
100
AcDbScale
 70
     0
300
3/4" = 1'-0"
140
0.75
141
12.0
290
     0
  0
SCALE
  5
64
102
{ACAD_REACTORS
330
47
102
}
330
47
100
AcDbScale
 70
     0
300
1" = 1'-0"
140
1.0
141
12.0
290
     0
  0
SCALE
  5
65
102
{ACAD_REACTORS
330
47
102
}
330
47
100
AcDbScale
 70
     0
300
1-1/2" = 1'-0"
140
1.5
141
12.0
290
     0
  0
SCALE
  5
66
102
{ACAD_REACTORS
330
47
102
}
330
47
100
AcDbScale
 70
     0
300
3" = 1'-0"
140
3.0
141
12.0
290
     0
  0
SCALE
  5
67
102
{ACAD_REACTORS
330
47
102
}
330
47
100
AcDbScale
 70
     0
300
6" = 1'-0"
140
6.0
141
12.0
290
     0
  0
SCALE
  5
68
102
{ACAD_REACTORS
330
47
102
}
330
47
100
AcDbScale
 70
     0
300
1'-0" = 1'-0"
140
12.0
141
12.0
290
     0
  0
ENDSEC
  0
EOF
