  0
SECTION
  2
HEADER
  9
$ACADVER
  1
AC1015
  9
$ACADMAINTVER
 70
     6
  9
$DWGCODEPAGE
  3
ANSI_932
  9
$INSBASE
 10
0.0
 20
0.0
 30
0.0
  9
$EXTMIN
 10
42.904875
 20
13.709068
 30
1.000000E+20
  9
$EXTMAX
 10
166.694735
 20
282.709014
 30
-1.000000E+20
  9
$LIMMIN
 10
42.904875
 20
13.709068
  9
$LIMMAX
 10
166.694735
 20
282.709014
  9
$ORTHOMODE
 70
     0
  9
$REGENMODE
 70
     1
  9
$FILLMODE
 70
     1
  9
$QTEXTMODE
 70
     0
  9
$MIRRTEXT
 70
     1
  9
$LTSCALE
 40
1.0
  9
$ATTMODE
 70
     1
  9
$TEXTSIZE
 40
0.2
  9
$TRACEWID
 40
0.05
  9
$TEXTSTYLE
  7
Standard
  9
$CLAYER
  8
0
  9
$CELTYPE
  6
Continuous
  9
$CECOLOR
 62
   256
  9
$CELTSCALE
 40
1.0
  9
$DISPSILH
 70
     0
  9
$DIMSCALE
 40
1.0
  9
$DIMASZ
 40
0.18
  9
$DIMEXO
 40
0.0625
  9
$DIMDLI
 40
0.38
  9
$DIMRND
 40
0.0
  9
$DIMDLE
 40
0.0
  9
$DIMEXE
 40
0.18
  9
$DIMTP
 40
0.0
  9
$DIMTM
 40
0.0
  9
$DIMTXT
 40
0.18
  9
$DIMCEN
 40
0.09
  9
$DIMTSZ
 40
0.0
  9
$DIMTOL
 70
     0
  9
$DIMLIM
 70
     0
  9
$DIMTIH
 70
     1
  9
$DIMTOH
 70
     1
  9
$DIMSE1
 70
     0
  9
$DIMSE2
 70
     0
  9
$DIMTAD
 70
     0
  9
$DIMZIN
 70
     0
  9
$DIMBLK
  1

  9
$DIMASO
 70
     1
  9
$DIMSHO
 70
     1
  9
$DIMPOST
  1

  9
$DIMAPOST
  1

  9
$DIMALT
 70
     0
  9
$DIMALTD
 70
     2
  9
$DIMALTF
 40
25.4
  9
$DIMLFAC
 40
1.0
  9
$DIMTOFL
 70
     0
  9
$DIMTVP
 40
0.0
  9
$DIMTIX
 70
     0
  9
$DIMSOXD
 70
     0
  9
$DIMSAH
 70
     0
  9
$DIMBLK1
  1

  9
$DIMBLK2
  1

  9
$DIMSTYLE
  2
Standard
  9
$DIMCLRD
 70
     0
  9
$DIMCLRE
 70
     0
  9
$DIMCLRT
 70
     0
  9
$DIMTFAC
 40
1.0
  9
$DIMGAP
 40
0.09
  9
$DIMJUST
 70
     0
  9
$DIMSD1
 70
     0
  9
$DIMSD2
 70
     0
  9
$DIMTOLJ
 70
     1
  9
$DIMTZIN
 70
     0
  9
$DIMALTZ
 70
     0
  9
$DIMALTTZ
 70
     0
  9
$DIMUPT
 70
     0
  9
$DIMDEC
 70
     4
  9
$DIMTDEC
 70
     4
  9
$DIMALTU
 70
     2
  9
$DIMALTTD
 70
     2
  9
$DIMTXSTY
  7
Standard
  9
$DIMAUNIT
 70
     0
  9
$DIMADEC
 70
     0
  9
$DIMALTRND
 40
0.0
  9
$DIMAZIN
 70
     0
  9
$DIMDSEP
 70
     0
  9
$DIMATFIT
 70
     3
  9
$DIMFRAC
 70
     0
  9
$DIMLDRBLK
  1

  9
$DIMLUNIT
 70
     2
  9
$DIMLWD
 70
     0
  9
$DIMLWE
 70
     0
  9
$DIMTMOVE
 70
     0
  9
$LUNITS
 70
     2
  9
$LUPREC
 70
     4
  9
$SKETCHINC
 40
0.1
  9
$FILLETRAD
 40
0.0
  9
$AUNITS
 70
     0
  9
$AUPREC
 70
     0
  9
$MENU
  1
acad
  9
$ELEVATION
 40
0.0
  9
$PELEVATION
 40
0.0
  9
$THICKNESS
 40
0.0
  9
$LIMCHECK
 70
     0
  9
$CHAMFERA
 40
0.0
  9
$CHAMFERB
 40
0.0
  9
$CHAMFERC
 40
0.0
  9
$CHAMFERD
 40
0.0
  9
$SKPOLY
 70
     0
  9
$TDCREATE
 40
0.000000000
  9
$TDUCREATE
 40
0.000000000
  9
$TDUPDATE
 40
0.000000000
  9
$TDUUPDATE
 40
0.000000000
  9
$TDINDWG
 40
0.0000000000
  9
$TDUSRTIMER
 40
0.0000000000
  9
$USRTIMER
 70
     1
  9
$ANGBASE
 50
0.0
  9
$ANGDIR
 70
     0
  9
$PDMODE
 70
     0
  9
$PDSIZE
 40
0.0
  9
$PLINEWID
 40
0.0
  9
$SPLFRAME
 70
     0
  9
$SPLINETYPE
 70
     6
  9
$SPLINESEGS
 70
     8
  9
$HANDSEED
  5
5D8
  9
$SURFTAB1
 70
     6
  9
$SURFTAB2
 70
     6
  9
$SURFTYPE
 70
     6
  9
$SURFU
 70
     6
  9
$SURFV
 70
     6
  9
$UCSBASE
  2

  9
$UCSNAME
  2

  9
$UCSORG
 10
0.0
 20
0.0
 30
0.0
  9
$UCSXDIR
 10
1.0
 20
0.0
 30
0.0
  9
$UCSYDIR
 10
0.0
 20
1.0
 30
0.0
  9
$UCSORTHOREF
  2

  9
$UCSORTHOVIEW
 70
     0
  9
$UCSORGTOP
 10
0.0
 20
0.0
 30
0.0
  9
$UCSORGBOTTOM
 10
0.0
 20
0.0
 30
0.0
  9
$UCSORGLEFT
 10
0.0
 20
0.0
 30
0.0
  9
$UCSORGRIGHT
 10
0.0
 20
0.0
 30
0.0
  9
$UCSORGFRONT
 10
0.0
 20
0.0
 30
0.0
  9
$UCSORGBACK
 10
0.0
 20
0.0
 30
0.0
  9
$PUCSBASE
  2

  9
$PUCSNAME
  2

  9
$PUCSORG
 10
0.0
 20
0.0
 30
0.0
  9
$PUCSXDIR
 10
1.0
 20
0.0
 30
0.0
  9
$PUCSYDIR
 10
0.0
 20
1.0
 30
0.0
  9
$PUCSORTHOREF
  2

  9
$PUCSORTHOVIEW
 70
     0
  9
$PUCSORGTOP
 10
0.0
 20
0.0
 30
0.0
  9
$PUCSORGBOTTOM
 10
0.0
 20
0.0
 30
0.0
  9
$PUCSORGLEFT
 10
0.0
 20
0.0
 30
0.0
  9
$PUCSORGRIGHT
 10
0.0
 20
0.0
 30
0.0
  9
$PUCSORGFRONT
 10
0.0
 20
0.0
 30
0.0
  9
$PUCSORGBACK
 10
0.0
 20
0.0
 30
0.0
  9
$USERI1
 70
     0
  9
$USERI2
 70
     0
  9
$USERI3
 70
     0
  9
$USERI4
 70
     0
  9
$USERI5
 70
     0
  9
$USERR1
 40
0.0
  9
$USERR2
 40
0.0
  9
$USERR3
 40
0.0
  9
$USERR4
 40
0.0
  9
$USERR5
 40
0.0
  9
$WORLDVIEW
 70
     1
  9
$SHADEDGE
 70
     3
  9
$SHADEDIF
 70
    70
  9
$TILEMODE
 70
     1
  9
$MAXACTVP
 70
    16
  9
$PINSBASE
 10
0.0
 20
0.0
 30
0.0
  9
$PLIMCHECK
 70
     0
  9
$PEXTMIN
 10
1.000000E+20
 20
1.000000E+20
 30
1.000000E+20
  9
$PEXTMAX
 10
-1.000000E+20
 20
-1.000000E+20
 30
-1.000000E+20
  9
$PLIMMIN
 10
0.0
 20
0.0
  9
$PLIMMAX
 10
12.0
 20
9.0
  9
$UNITMODE
 70
     0
  9
$VISRETAIN
 70
     0
  9
$PLINEGEN
 70
     1
  9
$PSLTSCALE
 70
     0
  9
$TREEDEPTH
 70
  3020
  9
$CMLSTYLE
  2
Standard
  9
$CMLJUST
 70
     0
  9
$CMLSCALE
 40
1.0
  9
$PROXYGRAPHICS
 70
     0
  9
$MEASUREMENT
 70
     1
  9
$CELWEIGHT
370
     0
  9
$ENDCAPS
280
     0
  9
$JOINSTYLE
280
     0
  9
$LWDISPLAY
290
     0
  9
$INSUNITS
 70
     0
  9
$HYPERLINKBASE
  1

  9
$STYLESHEET
  1

  9
$XEDIT
290
     1
  9
$CEPSNTYPE
380
     0
  9
$PSTYLEMODE
290
     1
  9
$FINGERPRINTGUID
  2

  9
$VERSIONGUID
  2

  9
$EXTNAMES
290
     1
  9
$PSVPSCALE
 40
0.0
  0
ENDSEC
  0
SECTION
  2
CLASSES
  0
CLASS
  1
LWPOLYLINE
  2
AcDbPolyline
  3
AutoCAD 2000
 90
    32768
280
     0
281
     1
  0
CLASS
  1
IMAGE
  2
AcDbRasterImage
  3
ISM
 90
    32895
280
     0
281
     1
  0
CLASS
  1
OLE2FRAME
  2
AcDbOle2Frame
  3
AutoCAD 2000
 90
    32768
280
     0
281
     1
  0
CLASS
  1
HATCH
  2
AcDbHatch
  3
AutoCAD 2000
 90
        0
280
     0
281
     1
  0
CLASS
  1
DICTIONARYVAR
  2
AcDbDictionaryVar
  3
AutoCAD 2000
 90
    32768
280
     0
281
     0
  0
CLASS
  1
RASTERVARIABLES
  2
AcDbRasterVariables
  3
ISM
 90
    32768
280
     0
281
     0
  0
CLASS
  1
IMAGEDEF
  2
AcDbRasterImageDef
  3
ISM
 90
    32768
280
     0
281
     0
  0
CLASS
  1
IMAGEDEF_REACTOR
  2
AcDbRasterImageDefReactor
  3
ISM
 90
    32769
280
     0
281
     0
  0
CLASS
  1
IDBUFFER
  2
AcDbIdBuffer
  3
AutoCAD 2000
 90
    32768
280
     0
281
     0
  0
CLASS
  1
SPATIAL_FILTER
  2
AcDbSpatialFilter
  3
AutoCAD 2000
 90
    32768
280
     0
281
     0
  0
CLASS
  1
XRECORD
  2
AcDbXrecord
  3
AutoCAD 2000
 90
    32768
280
     0
281
     0
  0
CLASS
  1
SORTENTSTABLE
  2
AcDbSortentsTable
  3
AutoCAD 2000
 90
    32768
280
     0
281
     0
  0
CLASS
  1
LAYER_INDEX
  2
AcDbLayerIndex
  3
AutoCAD 2000
 90
    32768
280
     0
281
     0
  0
CLASS
  1
SPATIAL_INDEX
  2
AcDbSpatialIndex
  3
AutoCAD 2000
 90
    32768
280
     0
281
     0
  0
CLASS
  1
OBJECT_PTR
  2
CAseDLPNTableRecord
  3
"ASE-LPNTableRecord"
 90
    32769
280
     0
281
     0
  0
CLASS
  1
LAYOUT
  2
AcDbLayout
  3
AutoCAD 2000
 90
        0
280
     0
281
     0
  0
CLASS
  1
PLOTSETTINGS
  2
AcDbPlotSettings
  3
AutoCAD 2000
 90
    32768
280
     0
281
     0
  0
CLASS
  1
ACDBDICTIONARYWDFLT
  2
AcDbDictionaryWithDefault
  3
AutoCAD 2000
 90
        0
280
     0
281
     0
  0
CLASS
  1
ACDBPLACEHOLDER
  2
AcDbPlaceHolder
  3
AutoCAD 2000
 90
        0
280
     0
281
     0
  0
CLASS
  1
VBA_PROJECT
  2
AcDbVbaProject
  3
acadvba
 90
    32768
280
     0
281
     0
  0
CLASS
  1
WIPEOUT
  2
AcDbWipeout
  3
WipeOut|AutoCAD Express Tool|expresstools@autodesk.com
 90
    32895
280
     0
281
     1
  0
CLASS
  1
WIPEOUTVARIABLES
  2
AcDbWipeoutVariables
  3
WipeOut|AutoCAD Express Tool|expresstools@autodesk.com
 90
        0
280
     0
281
     0
  0
CLASS
  1
RTEXT
  2
RText
  3
RText|AutoCAD Express Tool|expresstools@autodesk.com
 90
    32768
280
     0
281
     1
  0
CLASS
  1
ARCALIGNEDTEXT
  2
AcDbArcAlignedText
  3
ATEXT|AutoCAD Express Tool|expresstools@autodesk.com
 90
    32768
280
     0
281
     1
  0
ENDSEC
  0
SECTION
  2
TABLES
  0
TABLE
  2
VPORT
  5
7
100
AcDbSymbolTable
 70
     1
  0
VPORT
  5
15
100
AcDbSymbolTableRecord
100
AcDbViewportTableRecord
  2
*ACTIVE
 70
     0
 10
0.0
 20
0.0
 11
1.0
 21
1.0
 12
6.591288
 22
4.579184
 13
0.0
 23
0.0
 14
1.0
 24
1.0
 15
0.0
 25
0.0
 16
0.0
 26
0.0
 36
1.0
 17
0.0
 27
0.0
 37
0.0
 40
9.158369
 41
0.688564
 42
50.0
 43
0.0
 44
0.0
 50
0.0
 51
0.0
 71
     0
 72
   100
 73
     1
 74
     1
 75
     0
 76
     0
 77
     0
 78
     0
281
     0
 65
     0
110
0.0
120
0.0
130
0.0
111
1.0
121
0.0
131
0.0
112
0.0
122
1.0
132
0.0
345
0
346
0
 79
     0
146
0.0
  0
ENDTAB
  0
TABLE
  2
LTYPE
  5
4
100
AcDbSymbolTable
 70
     3
  0
LTYPE
  5
11
100
AcDbSymbolTableRecord
100
AcDbLinetypeTableRecord
  2
ByBlock
 70
    64
  3

 72
    65
 73
     0
 40
0.0
  0
LTYPE
  5
12
100
AcDbSymbolTableRecord
100
AcDbLinetypeTableRecord
  2
ByLayer
 70
    64
  3

 72
    65
 73
     0
 40
0.0
  0
LTYPE
  5
13
100
AcDbSymbolTableRecord
100
AcDbLinetypeTableRecord
  2
Continuous
 70
    64
  3
Solid line
 72
    65
 73
     0
 40
0.0
  0
ENDTAB
  0
TABLE
  2
LAYER
  5
2
100
AcDbSymbolTable
 70
     2
  0
LAYER
  5
14
100
AcDbSymbolTableRecord
100
AcDbLayerTableRecord
  2
0
 70
     0
 62
     7
  6
Continuous
290
     1
370
    -3
390
1D
  0
LAYER
  5
28
100
AcDbSymbolTableRecord
100
AcDbLayerTableRecord
  2
EBENE_1
 70
     0
 62
   160
  6
Continuous
290
     1
370
    -3
390
1D
  0
ENDTAB
  0
TABLE
  2
STYLE
  5
3
100
AcDbSymbolTable
 70
     5
  0
STYLE
  5
17
100
AcDbSymbolTableRecord
100
AcDbTextStyleTableRecord
  2
Standard
 70
     0
 40
0.0
 41
1.0
 50
0.0
 71
     0
 42
0.0
  3
txt
  4

  0
STYLE
  5
24
100
AcDbSymbolTableRecord
100
AcDbTextStyleTableRecord
  2
STD
 70
     0
 40
0.0
 41
1.0
 50
0.0
 71
     0
 42
0.0
  3
txt
  4

  0
STYLE
  5
25
100
AcDbSymbolTableRecord
100
AcDbTextStyleTableRecord
  2
TATESTD
 70
     4
 40
0.0
 41
1.0
 50
0.0
 71
     0
 42
0.0
  3
txt
  4

  0
STYLE
  5
26
100
AcDbSymbolTableRecord
100
AcDbTextStyleTableRecord
  2
KANJISTD
 70
     0
 40
0.0
 41
1.0
 50
0.0
 71
     0
 42
0.0
  3
txt
  4
extfont
  0
STYLE
  5
27
100
AcDbSymbolTableRecord
100
AcDbTextStyleTableRecord
  2
KANJITATE
 70
     4
 40
0.0
 41
1.0
 50
0.0
 71
     0
 42
0.0
  3
txt
  4
extfont
  0
ENDTAB
  0
TABLE
  2
VIEW
  5
5
100
AcDbSymbolTable
 70
     0
  0
ENDTAB
  0
TABLE
  2
UCS
  5
6
100
AcDbSymbolTable
 70
     0
  0
ENDTAB
  0
TABLE
  2
APPID
  5
8
100
AcDbSymbolTable
 70
     1
  0
APPID
  5
16
100
AcDbSymbolTableRecord
100
AcDbRegAppTableRecord
  2
ACAD
 70
     0
  0
ENDTAB
  0
TABLE
  2
DIMSTYLE
  5
9
100
AcDbSymbolTable
 70
     1
100
AcDbDimStyleTable
 71
     0
  0
DIMSTYLE
105
18
100
AcDbSymbolTableRecord
100
AcDbDimStyleTableRecord
  2
Standard
 70
     0
  3

  4

 40
1.0
 41
0.18
 42
0.0625
 43
0.38
 44
0.18
 45
0.0
 46
0.0
 47
0.0
 48
0.0
 71
     0
 72
     0
 73
     1
 74
     1
 75
     0
 76
     0
 77
     0
 78
     0
 79
     0
140
0.18
141
0.09
142
0.0
143
25.4
144
1.0
145
0.0
146
1.0
147
0.09
148
0.0
170
     0
171
     2
172
     0
173
     0
174
     0
175
     0
176
     0
177
     0
178
     0
179
     0
271
     4
272
     4
273
     2
274
     2
275
     0
276
     0
277
     2
278
    46
279
     0
280
     0
281
     0
282
     0
283
     1
284
     0
285
     0
286
     0
288
     0
340
17
341
0
342
0
343
0
344
0
371
    -2
372
    -2
  0
ENDTAB
  0
TABLE
  2
BLOCK_RECORD
  5
1
100
AcDbSymbolTable
 70
     1
  0
BLOCK_RECORD
  5
A
100
AcDbSymbolTableRecord
100
AcDbBlockTableRecord
  2
*MODEL_SPACE
340
20
  0
BLOCK_RECORD
  5
B
100
AcDbSymbolTableRecord
100
AcDbBlockTableRecord
  2
*PAPER_SPACE
340
21
  0
BLOCK_RECORD
  5
29
100
AcDbSymbolTableRecord
100
AcDbBlockTableRecord
  2
AI9-BLK1
340
0
102
{BLKREFS
331
2A
102
}
  0
ENDTAB
  0
ENDSEC
  0
SECTION
  2
BLOCKS
  0
BLOCK
  5
D
100
AcDbEntity
  8
0
100
AcDbBlockBegin
  2
*MODEL_SPACE
 70
     0
 10
0.0
 20
0.0
 30
0.0
  3
*MODEL_SPACE
  1

  0
ENDBLK
  5
E
100
AcDbEntity
  8
0
100
AcDbBlockEnd
  0
BLOCK
  5
F
100
AcDbEntity
 67
     1
  8
0
100
AcDbBlockBegin
  2
*PAPER_SPACE
 70
     0
 10
0.0
 20
0.0
 30
0.0
  3
*PAPER_SPACE
  1

  0
ENDBLK
  5
10
100
AcDbEntity
 67
     1
  8
0
100
AcDbBlockEnd
  0
BLOCK
  5
2B
100
AcDbEntity
  8
EBENE_1
 62
     7
100
AcDbBlockBegin
  2
AI9-BLK1
 70
     0
 10
0.0
 20
0.0
 30
0.0
  3
AI9-BLK1
  1

  0
LINE
  5
5D6
100
AcDbEntity
  8
EBENE_1
 62
     7
100
AcDbLine
 10
49.787486
 20
-75.311165
 30
0.0
 11
49.787486
 21
-72.347694
 31
0.0
  0
LINE
  5
5D5
100
AcDbEntity
  8
EBENE_1
 62
     7
100
AcDbLine
 10
49.787486
 20
-70.908333
 30
0.0
 11
49.787486
 21
-68.19911
 31
0.0
  0
LINE
  5
5D4
100
AcDbEntity
  8
EBENE_1
 62
     7
100
AcDbLine
 10
49.787486
 20
-66.844499
 30
0.0
 11
49.787486
 21
-64.050526
 31
0.0
  0
LINE
  5
5D3
100
AcDbEntity
  8
EBENE_1
 62
     7
100
AcDbLine
 10
49.787486
 20
-62.695915
 30
0.0
 11
49.787486
 21
-59.901942
 31
0.0
  0
LINE
  5
5D2
100
AcDbEntity
  8
EBENE_1
 62
     7
100
AcDbLine
 10
49.787486
 20
-58.547331
 30
0.0
 11
49.787486
 21
-55.837419
 31
0.0
  0
LINE
  5
5D1
100
AcDbEntity
  8
EBENE_1
 62
     7
100
AcDbLine
 10
49.787486
 20
-54.398058
 30
0.0
 11
49.787486
 21
-51.688835
 31
0.0
  0
LINE
  5
5D0
100
AcDbEntity
  8
EBENE_1
 62
     7
100
AcDbLine
 10
49.787486
 20
-50.334223
 30
0.0
 11
49.787486
 21
-47.540251
 31
0.0
  0
LINE
  5
5CF
100
AcDbEntity
  8
EBENE_1
 62
     7
100
AcDbLine
 10
49.787486
 20
-46.185639
 30
0.0
 11
49.787486
 21
-43.391667
 31
0.0
  0
LINE
  5
5CE
100
AcDbEntity
  8
EBENE_1
 62
     7
100
AcDbLine
 10
49.787486
 20
-42.037055
 30
0.0
 11
49.787486
 21
-39.243083
 31
0.0
  0
LINE
  5
5CD
100
AcDbEntity
  8
EBENE_1
 62
     7
100
AcDbLine
 10
49.787486
 20
-37.888471
 30
0.0
 11
49.787486
 21
-35.179248
 31
0.0
  0
LINE
  5
5CC
100
AcDbEntity
  8
EBENE_1
 62
     7
100
AcDbLine
 10
49.787486
 20
-33.739887
 30
0.0
 11
49.787486
 21
-31.030664
 31
0.0
  0
LINE
  5
5CB
100
AcDbEntity
  8
EBENE_1
 62
     7
100
AcDbLine
 10
49.787486
 20
-29.675363
 30
0.0
 11
49.787486
 21
-26.881391
 31
0.0
  0
LINE
  5
5CA
100
AcDbEntity
  8
EBENE_1
 62
     7
100
AcDbLine
 10
49.787486
 20
-25.52678
 30
0.0
 11
49.787486
 21
-22.732807
 31
0.0
  0
LINE
  5
5C9
100
AcDbEntity
  8
EBENE_1
 62
     7
100
AcDbLine
 10
49.787486
 20
-21.378196
 30
0.0
 11
49.787486
 21
-18.668972
 31
0.0
  0
LINE
  5
5C8
100
AcDbEntity
  8
EBENE_1
 62
     7
100
AcDbLine
 10
49.787486
 20
-17.229612
 30
0.0
 11
49.787486
 21
-14.520388
 31
0.0
  0
LINE
  5
5C7
100
AcDbEntity
  8
EBENE_1
 62
     7
100
AcDbLine
 10
49.787486
 20
-13.165777
 30
0.0
 11
49.787486
 21
-10.371804
 31
0.0
  0
LINE
  5
5C6
100
AcDbEntity
  8
EBENE_1
 62
     7
100
AcDbLine
 10
49.787486
 20
-9.017193
 30
0.0
 11
49.787486
 21
-6.22322
 31
0.0
  0
LINE
  5
5C5
100
AcDbEntity
  8
EBENE_1
 62
     7
100
AcDbLine
 10
49.787486
 20
-4.868609
 30
0.0
 11
49.787486
 21
-2.074292
 31
0.0
  0
LINE
  5
5C4
100
AcDbEntity
  8
EBENE_1
 62
     7
100
AcDbLine
 10
49.787486
 20
-0.71968
 30
0.0
 11
49.787486
 21
1.989715
 31
0.0
  0
LINE
  5
5C3
100
AcDbEntity
  8
EBENE_1
 62
     7
100
AcDbLine
 10
49.787486
 20
3.429076
 30
0.0
 11
49.787486
 21
6.138299
 31
0.0
  0
LINE
  5
5C2
100
AcDbEntity
  8
EBENE_1
 62
     7
100
AcDbLine
 10
49.787486
 20
7.49291
 30
0.0
 11
49.787486
 21
10.287055
 31
0.0
  0
LINE
  5
5C1
100
AcDbEntity
  8
EBENE_1
 62
     7
100
AcDbLine
 10
49.787486
 20
11.641667
 30
0.0
 11
49.787486
 21
14.435639
 31
0.0
  0
LINE
  5
5C0
100
AcDbEntity
  8
EBENE_1
 62
     7
100
AcDbLine
 10
49.787486
 20
15.790251
 30
0.0
 11
49.787486
 21
18.584395
 31
0.0
  0
LINE
  5
5BF
100
AcDbEntity
  8
EBENE_1
 62
     7
100
AcDbLine
 10
49.787486
 20
19.939007
 30
0.0
 11
49.787486
 21
22.64823
 31
0.0
  0
LINE
  5
5BE
100
AcDbEntity
  8
EBENE_1
 62
     7
100
AcDbLine
 10
49.787486
 20
24.087591
 30
0.0
 11
49.787486
 21
26.796986
 31
0.0
  0
LINE
  5
5BD
100
AcDbEntity
  8
EBENE_1
 62
     7
100
AcDbLine
 10
49.787486
 20
28.151598
 30
0.0
 11
49.787486
 21
30.945742
 31
0.0
  0
LINE
  5
5BC
100
AcDbEntity
  8
EBENE_1
 62
     7
100
AcDbLine
 10
49.787486
 20
32.300354
 30
0.0
 11
49.787486
 21
35.094326
 31
0.0
  0
LINE
  5
5BB
100
AcDbEntity
  8
EBENE_1
 62
     7
100
AcDbLine
 10
49.787486
 20
36.448938
 30
0.0
 11
49.787486
 21
39.158333
 31
0.0
  0
LINE
  5
5BA
100
AcDbEntity
  8
EBENE_1
 62
     7
100
AcDbLine
 10
49.787486
 20
40.597694
 30
0.0
 11
49.787486
 21
43.306917
 31
0.0
  0
LINE
  5
5B9
100
AcDbEntity
  8
EBENE_1
 62
     7
100
AcDbLine
 10
49.787486
 20
44.661701
 30
0.0
 11
49.787486
 21
47.455674
 31
0.0
  0
LINE
  5
5B8
100
AcDbEntity
  8
EBENE_1
 62
     7
100
AcDbLine
 10
49.787486
 20
48.810285
 30
0.0
 11
49.787486
 21
51.604258
 31
0.0
  0
LINE
  5
5B7
100
AcDbEntity
  8
EBENE_1
 62
     7
100
AcDbLine
 10
49.787486
 20
52.959041
 30
0.0
 11
49.787486
 21
55.753014
 31
0.0
  0
LINE
  5
5B6
100
AcDbEntity
  8
EBENE_1
 62
     7
100
AcDbLine
 10
49.787486
 20
57.107625
 30
0.0
 11
49.787486
 21
59.817021
 31
0.0
  0
LINE
  5
5B5
100
AcDbEntity
  8
EBENE_1
 62
     7
100
AcDbLine
 10
49.787486
 20
61.256382
 30
0.0
 11
49.787486
 21
63.965605
 31
0.0
  0
LINE
  5
5B4
100
AcDbEntity
  8
EBENE_1
 62
     7
100
AcDbLine
 10
49.787486
 20
65.320388
 30
0.0
 11
49.787486
 21
68.114361
 31
0.0
  0
LINE
  5
5B3
100
AcDbEntity
  8
EBENE_1
 62
     7
100
AcDbLine
 10
49.787486
 20
69.468972
 30
0.0
 11
49.787486
 21
72.262945
 31
0.0
  0
LINE
  5
5B2
100
AcDbEntity
  8
EBENE_1
 62
     7
100
AcDbLine
 10
49.787486
 20
73.617729
 30
0.0
 11
49.787486
 21
76.326952
 31
0.0
  0
LINE
  5
5B1
100
AcDbEntity
  8
EBENE_1
 62
     7
100
AcDbLine
 10
49.787486
 20
77.766313
 30
0.0
 11
49.787486
 21
80.475708
 31
0.0
  0
LINE
  5
5B0
100
AcDbEntity
  8
EBENE_1
 62
     7
100
AcDbLine
 10
49.787486
 20
81.914897
 30
0.0
 11
49.787486
 21
84.624292
 31
0.0
  0
LINE
  5
5AF
100
AcDbEntity
  8
EBENE_1
 62
     7
100
AcDbLine
 10
49.787486
 20
85.978904
 30
0.0
 11
49.787486
 21
88.773048
 31
0.0
  0
LINE
  5
5AE
100
AcDbEntity
  8
EBENE_1
 62
     7
100
AcDbLine
 10
49.787486
 20
90.12766
 30
0.0
 11
49.787486
 21
92.921632
 31
0.0
  0
LINE
  5
5AD
100
AcDbEntity
  8
EBENE_1
 62
     7
100
AcDbLine
 10
49.787486
 20
94.276244
 30
0.0
 11
49.787486
 21
96.985639
 31
0.0
  0
LINE
  5
5AC
100
AcDbEntity
  8
EBENE_1
 62
     7
100
AcDbLine
 10
49.787486
 20
98.425
 30
0.0
 11
49.787486
 21
101.134395
 31
0.0
  0
LINE
  5
5AB
100
AcDbEntity
  8
EBENE_1
 62
     7
100
AcDbLine
 10
49.787486
 20
102.489007
 30
0.0
 11
49.787486
 21
105.282979
 31
0.0
  0
LINE
  5
5AA
100
AcDbEntity
  8
EBENE_1
 62
     7
100
AcDbLine
 10
49.787486
 20
106.637591
 30
0.0
 11
49.787486
 21
109.431563
 31
0.0
  0
LINE
  5
5A9
100
AcDbEntity
  8
EBENE_1
 62
     7
100
AcDbLine
 10
49.787486
 20
110.786347
 30
0.0
 11
49.787486
 21
113.749646
 31
0.0
  0
LINE
  5
5A8
100
AcDbEntity
  8
EBENE_1
 62
     7
100
AcDbLine
 10
49.787486
 20
113.749646
 30
0.0
 11
49.787486
 21
113.749646
 31
0.0
  0
LINE
  5
5A7
100
AcDbEntity
  8
EBENE_1
 62
     7
100
AcDbLine
 10
-37.249923
 20
-75.311165
 30
0.0
 11
-37.249923
 21
-73.532807
 31
0.0
  0
LINE
  5
5A6
100
AcDbEntity
  8
EBENE_1
 62
     7
100
AcDbLine
 10
-37.249923
 20
-72.178196
 30
0.0
 11
-37.249923
 21
-69.384223
 31
0.0
  0
LINE
  5
5A5
100
AcDbEntity
  8
EBENE_1
 62
     7
100
AcDbLine
 10
-37.249923
 20
-68.029612
 30
0.0
 11
-37.249923
 21
-65.235639
 31
0.0
  0
LINE
  5
5A4
100
AcDbEntity
  8
EBENE_1
 62
     7
100
AcDbLine
 10
-37.249923
 20
-63.881028
 30
0.0
 11
-37.249923
 21
-61.171804
 31
0.0
  0
LINE
  5
5A3
100
AcDbEntity
  8
EBENE_1
 62
     7
100
AcDbLine
 10
-37.249923
 20
-59.732444
 30
0.0
 11
-37.249923
 21
-57.02322
 31
0.0
  0
LINE
  5
5A2
100
AcDbEntity
  8
EBENE_1
 62
     7
100
AcDbLine
 10
-37.249923
 20
-55.58386
 30
0.0
 11
-37.249923
 21
-52.874637
 31
0.0
  0
LINE
  5
5A1
100
AcDbEntity
  8
EBENE_1
 62
     7
100
AcDbLine
 10
-37.249923
 20
-51.519336
 30
0.0
 11
-37.249923
 21
-48.725363
 31
0.0
  0
LINE
  5
5A0
100
AcDbEntity
  8
EBENE_1
 62
     7
100
AcDbLine
 10
-37.249923
 20
-47.370752
 30
0.0
 11
-37.249923
 21
-44.57678
 31
0.0
  0
LINE
  5
59F
100
AcDbEntity
  8
EBENE_1
 62
     7
100
AcDbLine
 10
-37.249923
 20
-43.222168
 30
0.0
 11
-37.249923
 21
-40.512945
 31
0.0
  0
LINE
  5
59E
100
AcDbEntity
  8
EBENE_1
 62
     7
100
AcDbLine
 10
-37.249923
 20
-39.073584
 30
0.0
 11
-37.249923
 21
-36.364361
 31
0.0
  0
LINE
  5
59D
100
AcDbEntity
  8
EBENE_1
 62
     7
100
AcDbLine
 10
-37.249923
 20
-35.009749
 30
0.0
 11
-37.249923
 21
-32.215777
 31
0.0
  0
LINE
  5
59C
100
AcDbEntity
  8
EBENE_1
 62
     7
100
AcDbLine
 10
-37.249923
 20
-30.861165
 30
0.0
 11
-37.249923
 21
-28.067193
 31
0.0
  0
LINE
  5
59B
100
AcDbEntity
  8
EBENE_1
 62
     7
100
AcDbLine
 10
-37.249923
 20
-26.712581
 30
0.0
 11
-37.249923
 21
-23.918609
 31
0.0
  0
LINE
  5
59A
100
AcDbEntity
  8
EBENE_1
 62
     7
100
AcDbLine
 10
-37.249923
 20
-22.563997
 30
0.0
 11
-37.249923
 21
-19.854085
 31
0.0
  0
LINE
  5
599
100
AcDbEntity
  8
EBENE_1
 62
     7
100
AcDbLine
 10
-37.249923
 20
-18.414724
 30
0.0
 11
-37.249923
 21
-15.705501
 31
0.0
  0
LINE
  5
598
100
AcDbEntity
  8
EBENE_1
 62
     7
100
AcDbLine
 10
-37.249923
 20
-14.35089
 30
0.0
 11
-37.249923
 21
-11.556917
 31
0.0
  0
LINE
  5
597
100
AcDbEntity
  8
EBENE_1
 62
     7
100
AcDbLine
 10
-37.249923
 20
-10.202306
 30
0.0
 11
-37.249923
 21
-7.408333
 31
0.0
  0
LINE
  5
596
100
AcDbEntity
  8
EBENE_1
 62
     7
100
AcDbLine
 10
-37.249923
 20
-6.053722
 30
0.0
 11
-37.249923
 21
-3.344499
 31
0.0
  0
LINE
  5
595
100
AcDbEntity
  8
EBENE_1
 62
     7
100
AcDbLine
 10
-37.249923
 20
-1.905138
 30
0.0
 11
-37.249923
 21
0.804258
 31
0.0
  0
LINE
  5
594
100
AcDbEntity
  8
EBENE_1
 62
     7
100
AcDbLine
 10
-37.249923
 20
2.159041
 30
0.0
 11
-37.249923
 21
4.953014
 31
0.0
  0
LINE
  5
593
100
AcDbEntity
  8
EBENE_1
 62
     7
100
AcDbLine
 10
-37.249923
 20
6.307625
 30
0.0
 11
-37.249923
 21
9.101598
 31
0.0
  0
LINE
  5
592
100
AcDbEntity
  8
EBENE_1
 62
     7
100
AcDbLine
 10
-37.249923
 20
10.456382
 30
0.0
 11
-37.249923
 21
13.250354
 31
0.0
  0
LINE
  5
591
100
AcDbEntity
  8
EBENE_1
 62
     7
100
AcDbLine
 10
-37.249923
 20
14.604966
 30
0.0
 11
-37.249923
 21
17.314361
 31
0.0
  0
LINE
  5
590
100
AcDbEntity
  8
EBENE_1
 62
     7
100
AcDbLine
 10
-37.249923
 20
18.753722
 30
0.0
 11
-37.249923
 21
21.462945
 31
0.0
  0
LINE
  5
58F
100
AcDbEntity
  8
EBENE_1
 62
     7
100
AcDbLine
 10
-37.249923
 20
22.817729
 30
0.0
 11
-37.249923
 21
25.611701
 31
0.0
  0
LINE
  5
58E
100
AcDbEntity
  8
EBENE_1
 62
     7
100
AcDbLine
 10
-37.249923
 20
26.966313
 30
0.0
 11
-37.249923
 21
29.760285
 31
0.0
  0
LINE
  5
58D
100
AcDbEntity
  8
EBENE_1
 62
     7
100
AcDbLine
 10
-37.249923
 20
31.114897
 30
0.0
 11
-37.249923
 21
33.824292
 31
0.0
  0
LINE
  5
58C
100
AcDbEntity
  8
EBENE_1
 62
     7
100
AcDbLine
 10
-37.249923
 20
35.263653
 30
0.0
 11
-37.249923
 21
37.973048
 31
0.0
  0
LINE
  5
58B
100
AcDbEntity
  8
EBENE_1
 62
     7
100
AcDbLine
 10
-37.249923
 20
39.412409
 30
0.0
 11
-37.249923
 21
42.121632
 31
0.0
  0
LINE
  5
58A
100
AcDbEntity
  8
EBENE_1
 62
     7
100
AcDbLine
 10
-37.249923
 20
43.476244
 30
0.0
 11
-37.249923
 21
46.270388
 31
0.0
  0
LINE
  5
589
100
AcDbEntity
  8
EBENE_1
 62
     7
100
AcDbLine
 10
-37.249923
 20
47.625
 30
0.0
 11
-37.249923
 21
50.418972
 31
0.0
  0
LINE
  5
588
100
AcDbEntity
  8
EBENE_1
 62
     7
100
AcDbLine
 10
-37.249923
 20
51.773584
 30
0.0
 11
-37.249923
 21
54.482979
 31
0.0
  0
LINE
  5
587
100
AcDbEntity
  8
EBENE_1
 62
     7
100
AcDbLine
 10
-37.249923
 20
55.92234
 30
0.0
 11
-37.249923
 21
58.631563
 31
0.0
  0
LINE
  5
586
100
AcDbEntity
  8
EBENE_1
 62
     7
100
AcDbLine
 10
-37.249923
 20
59.986347
 30
0.0
 11
-37.249923
 21
62.78032
 31
0.0
  0
LINE
  5
585
100
AcDbEntity
  8
EBENE_1
 62
     7
100
AcDbLine
 10
-37.249923
 20
64.134931
 30
0.0
 11
-37.249923
 21
66.929076
 31
0.0
  0
LINE
  5
584
100
AcDbEntity
  8
EBENE_1
 62
     7
100
AcDbLine
 10
-37.249923
 20
68.283687
 30
0.0
 11
-37.249923
 21
71.07766
 31
0.0
  0
LINE
  5
583
100
AcDbEntity
  8
EBENE_1
 62
     7
100
AcDbLine
 10
-37.249923
 20
72.432271
 30
0.0
 11
-37.249923
 21
75.141667
 31
0.0
  0
LINE
  5
582
100
AcDbEntity
  8
EBENE_1
 62
     7
100
AcDbLine
 10
-37.249923
 20
76.581028
 30
0.0
 11
-37.249923
 21
79.290251
 31
0.0
  0
LINE
  5
581
100
AcDbEntity
  8
EBENE_1
 62
     7
100
AcDbLine
 10
-37.249923
 20
80.645034
 30
0.0
 11
-37.249923
 21
83.439007
 31
0.0
  0
LINE
  5
580
100
AcDbEntity
  8
EBENE_1
 62
     7
100
AcDbLine
 10
-37.249923
 20
84.793618
 30
0.0
 11
-37.249923
 21
87.587591
 31
0.0
  0
LINE
  5
57F
100
AcDbEntity
  8
EBENE_1
 62
     7
100
AcDbLine
 10
-37.249923
 20
88.942375
 30
0.0
 11
-37.249923
 21
91.651598
 31
0.0
  0
LINE
  5
57E
100
AcDbEntity
  8
EBENE_1
 62
     7
100
AcDbLine
 10
-37.249923
 20
93.090959
 30
0.0
 11
-37.249923
 21
95.800354
 31
0.0
  0
LINE
  5
57D
100
AcDbEntity
  8
EBENE_1
 62
     7
100
AcDbLine
 10
-37.249923
 20
97.154966
 30
0.0
 11
-37.249923
 21
99.948938
 31
0.0
  0
LINE
  5
57C
100
AcDbEntity
  8
EBENE_1
 62
     7
100
AcDbLine
 10
-37.249923
 20
101.303722
 30
0.0
 11
-37.249923
 21
104.097694
 31
0.0
  0
LINE
  5
57B
100
AcDbEntity
  8
EBENE_1
 62
     7
100
AcDbLine
 10
-37.249923
 20
105.452306
 30
0.0
 11
-37.249923
 21
108.246278
 31
0.0
  0
LINE
  5
57A
100
AcDbEntity
  8
EBENE_1
 62
     7
100
AcDbLine
 10
-37.249923
 20
109.601062
 30
0.0
 11
-37.249923
 21
112.310285
 31
0.0
  0
LINE
  5
579
100
AcDbEntity
  8
EBENE_1
 62
     7
100
AcDbLine
 10
-37.249923
 20
113.749646
 30
0.0
 11
-37.249923
 21
115.52766
 31
0.0
  0
LINE
  5
578
100
AcDbEntity
  8
EBENE_1
 62
     7
100
AcDbLine
 10
-37.249923
 20
115.52766
 30
0.0
 11
-37.249923
 21
115.52766
 31
0.0
  0
LINE
  5
577
100
AcDbEntity
  8
EBENE_1
 62
     7
100
AcDbLine
 10
-22.517833
 20
115.52766
 30
0.0
 11
-22.517833
 21
113.749646
 31
0.0
  0
LINE
  5
576
100
AcDbEntity
  8
EBENE_1
 62
     7
100
AcDbLine
 10
-22.517833
 20
112.310285
 30
0.0
 11
-22.517833
 21
109.601062
 31
0.0
  0
LINE
  5
575
100
AcDbEntity
  8
EBENE_1
 62
     7
100
AcDbLine
 10
-22.517833
 20
108.246278
 30
0.0
 11
-22.517833
 21
105.452306
 31
0.0
  0
LINE
  5
574
100
AcDbEntity
  8
EBENE_1
 62
     7
100
AcDbLine
 10
-22.517833
 20
104.097694
 30
0.0
 11
-22.517833
 21
101.303722
 31
0.0
  0
LINE
  5
573
100
AcDbEntity
  8
EBENE_1
 62
     7
100
AcDbLine
 10
-22.517833
 20
99.948938
 30
0.0
 11
-22.517833
 21
97.154966
 31
0.0
  0
LINE
  5
572
100
AcDbEntity
  8
EBENE_1
 62
     7
100
AcDbLine
 10
-22.517833
 20
95.800354
 30
0.0
 11
-22.517833
 21
93.090959
 31
0.0
  0
LINE
  5
571
100
AcDbEntity
  8
EBENE_1
 62
     7
100
AcDbLine
 10
-22.517833
 20
91.651598
 30
0.0
 11
-22.517833
 21
88.942375
 31
0.0
  0
LINE
  5
570
100
AcDbEntity
  8
EBENE_1
 62
     7
100
AcDbLine
 10
-22.517833
 20
87.587591
 30
0.0
 11
-22.517833
 21
84.793618
 31
0.0
  0
LINE
  5
56F
100
AcDbEntity
  8
EBENE_1
 62
     7
100
AcDbLine
 10
-22.517833
 20
83.439007
 30
0.0
 11
-22.517833
 21
80.645034
 31
0.0
  0
LINE
  5
56E
100
AcDbEntity
  8
EBENE_1
 62
     7
100
AcDbLine
 10
-22.517833
 20
79.290251
 30
0.0
 11
-22.517833
 21
76.581028
 31
0.0
  0
LINE
  5
56D
100
AcDbEntity
  8
EBENE_1
 62
     7
100
AcDbLine
 10
-22.517833
 20
75.141667
 30
0.0
 11
-22.517833
 21
72.432271
 31
0.0
  0
LINE
  5
56C
100
AcDbEntity
  8
EBENE_1
 62
     7
100
AcDbLine
 10
-22.517833
 20
71.07766
 30
0.0
 11
-22.517833
 21
68.283687
 31
0.0
  0
LINE
  5
56B
100
AcDbEntity
  8
EBENE_1
 62
     7
100
AcDbLine
 10
-22.517833
 20
66.929076
 30
0.0
 11
-22.517833
 21
64.134931
 31
0.0
  0
LINE
  5
56A
100
AcDbEntity
  8
EBENE_1
 62
     7
100
AcDbLine
 10
-22.517833
 20
62.78032
 30
0.0
 11
-22.517833
 21
59.986347
 31
0.0
  0
LINE
  5
569
100
AcDbEntity
  8
EBENE_1
 62
     7
100
AcDbLine
 10
-22.517833
 20
58.631563
 30
0.0
 11
-22.517833
 21
55.92234
 31
0.0
  0
LINE
  5
568
100
AcDbEntity
  8
EBENE_1
 62
     7
100
AcDbLine
 10
-22.517833
 20
54.482979
 30
0.0
 11
-22.517833
 21
51.773584
 31
0.0
  0
LINE
  5
567
100
AcDbEntity
  8
EBENE_1
 62
     7
100
AcDbLine
 10
-22.517833
 20
50.418972
 30
0.0
 11
-22.517833
 21
47.625
 31
0.0
  0
LINE
  5
566
100
AcDbEntity
  8
EBENE_1
 62
     7
100
AcDbLine
 10
-22.517833
 20
46.270388
 30
0.0
 11
-22.517833
 21
43.476244
 31
0.0
  0
LINE
  5
565
100
AcDbEntity
  8
EBENE_1
 62
     7
100
AcDbLine
 10
-22.517833
 20
42.121632
 30
0.0
 11
-22.517833
 21
39.412409
 31
0.0
  0
LINE
  5
564
100
AcDbEntity
  8
EBENE_1
 62
     7
100
AcDbLine
 10
-22.517833
 20
37.973048
 30
0.0
 11
-22.517833
 21
35.263653
 31
0.0
  0
LINE
  5
563
100
AcDbEntity
  8
EBENE_1
 62
     7
100
AcDbLine
 10
-22.517833
 20
33.824292
 30
0.0
 11
-22.517833
 21
31.114897
 31
0.0
  0
LINE
  5
562
100
AcDbEntity
  8
EBENE_1
 62
     7
100
AcDbLine
 10
-22.517833
 20
29.760285
 30
0.0
 11
-22.517833
 21
26.966313
 31
0.0
  0
LINE
  5
561
100
AcDbEntity
  8
EBENE_1
 62
     7
100
AcDbLine
 10
-22.517833
 20
25.611701
 30
0.0
 11
-22.517833
 21
22.817729
 31
0.0
  0
LINE
  5
560
100
AcDbEntity
  8
EBENE_1
 62
     7
100
AcDbLine
 10
-22.517833
 20
21.462945
 30
0.0
 11
-22.517833
 21
18.753722
 31
0.0
  0
LINE
  5
55F
100
AcDbEntity
  8
EBENE_1
 62
     7
100
AcDbLine
 10
-22.517833
 20
17.314361
 30
0.0
 11
-22.517833
 21
14.604966
 31
0.0
  0
LINE
  5
55E
100
AcDbEntity
  8
EBENE_1
 62
     7
100
AcDbLine
 10
-22.517833
 20
13.250354
 30
0.0
 11
-22.517833
 21
10.456382
 31
0.0
  0
LINE
  5
55D
100
AcDbEntity
  8
EBENE_1
 62
     7
100
AcDbLine
 10
-22.517833
 20
9.101598
 30
0.0
 11
-22.517833
 21
6.307625
 31
0.0
  0
LINE
  5
55C
100
AcDbEntity
  8
EBENE_1
 62
     7
100
AcDbLine
 10
-22.517833
 20
4.953014
 30
0.0
 11
-22.517833
 21
2.159041
 31
0.0
  0
LINE
  5
55B
100
AcDbEntity
  8
EBENE_1
 62
     7
100
AcDbLine
 10
-22.517833
 20
0.804258
 30
0.0
 11
-22.517833
 21
-1.905138
 31
0.0
  0
LINE
  5
55A
100
AcDbEntity
  8
EBENE_1
 62
     7
100
AcDbLine
 10
-22.517833
 20
-3.344499
 30
0.0
 11
-22.517833
 21
-6.053722
 31
0.0
  0
LINE
  5
559
100
AcDbEntity
  8
EBENE_1
 62
     7
100
AcDbLine
 10
-22.517833
 20
-7.408333
 30
0.0
 11
-22.517833
 21
-10.202306
 31
0.0
  0
LINE
  5
558
100
AcDbEntity
  8
EBENE_1
 62
     7
100
AcDbLine
 10
-22.517833
 20
-11.556917
 30
0.0
 11
-22.517833
 21
-14.35089
 31
0.0
  0
LINE
  5
557
100
AcDbEntity
  8
EBENE_1
 62
     7
100
AcDbLine
 10
-22.517833
 20
-15.705501
 30
0.0
 11
-22.517833
 21
-18.414724
 31
0.0
  0
LINE
  5
556
100
AcDbEntity
  8
EBENE_1
 62
     7
100
AcDbLine
 10
-22.517833
 20
-19.854085
 30
0.0
 11
-22.517833
 21
-22.563997
 31
0.0
  0
LINE
  5
555
100
AcDbEntity
  8
EBENE_1
 62
     7
100
AcDbLine
 10
-22.517833
 20
-23.918609
 30
0.0
 11
-22.517833
 21
-26.712581
 31
0.0
  0
LINE
  5
554
100
AcDbEntity
  8
EBENE_1
 62
     7
100
AcDbLine
 10
-22.517833
 20
-28.067193
 30
0.0
 11
-22.517833
 21
-30.861165
 31
0.0
  0
LINE
  5
553
100
AcDbEntity
  8
EBENE_1
 62
     7
100
AcDbLine
 10
-22.517833
 20
-32.215777
 30
0.0
 11
-22.517833
 21
-35.009749
 31
0.0
  0
LINE
  5
552
100
AcDbEntity
  8
EBENE_1
 62
     7
100
AcDbLine
 10
-22.517833
 20
-36.364361
 30
0.0
 11
-22.517833
 21
-39.073584
 31
0.0
  0
LINE
  5
551
100
AcDbEntity
  8
EBENE_1
 62
     7
100
AcDbLine
 10
-22.517833
 20
-40.512945
 30
0.0
 11
-22.517833
 21
-43.222168
 31
0.0
  0
LINE
  5
550
100
AcDbEntity
  8
EBENE_1
 62
     7
100
AcDbLine
 10
-22.517833
 20
-44.57678
 30
0.0
 11
-22.517833
 21
-47.370752
 31
0.0
  0
LINE
  5
54F
100
AcDbEntity
  8
EBENE_1
 62
     7
100
AcDbLine
 10
-22.517833
 20
-48.725363
 30
0.0
 11
-22.517833
 21
-51.519336
 31
0.0
  0
LINE
  5
54E
100
AcDbEntity
  8
EBENE_1
 62
     7
100
AcDbLine
 10
-22.517833
 20
-52.874637
 30
0.0
 11
-22.517833
 21
-55.58386
 31
0.0
  0
LINE
  5
54D
100
AcDbEntity
  8
EBENE_1
 62
     7
100
AcDbLine
 10
-22.517833
 20
-57.02322
 30
0.0
 11
-22.517833
 21
-59.732444
 31
0.0
  0
LINE
  5
54C
100
AcDbEntity
  8
EBENE_1
 62
     7
100
AcDbLine
 10
-22.517833
 20
-61.171804
 30
0.0
 11
-22.517833
 21
-63.881028
 31
0.0
  0
LINE
  5
54B
100
AcDbEntity
  8
EBENE_1
 62
     7
100
AcDbLine
 10
-22.517833
 20
-65.235639
 30
0.0
 11
-22.517833
 21
-68.029612
 31
0.0
  0
LINE
  5
54A
100
AcDbEntity
  8
EBENE_1
 62
     7
100
AcDbLine
 10
-22.517833
 20
-69.384223
 30
0.0
 11
-22.517833
 21
-72.178196
 31
0.0
  0
LINE
  5
549
100
AcDbEntity
  8
EBENE_1
 62
     7
100
AcDbLine
 10
-22.517833
 20
-73.532807
 30
0.0
 11
-22.517833
 21
-75.311165
 31
0.0
  0
LINE
  5
548
100
AcDbEntity
  8
EBENE_1
 62
     7
100
AcDbLine
 10
-22.517833
 20
-75.311165
 30
0.0
 11
-22.517833
 21
-75.311165
 31
0.0
  0
LINE
  5
547
100
AcDbEntity
  8
EBENE_1
 62
     7
100
AcDbLine
 10
-39.027936
 20
-75.311165
 30
0.0
 11
-39.027936
 21
115.52766
 31
0.0
  0
LINE
  5
546
100
AcDbEntity
  8
EBENE_1
 62
     7
100
AcDbLine
 10
-20.739819
 20
115.52766
 30
0.0
 11
-20.739819
 21
-75.311165
 31
0.0
  0
LINE
  5
545
100
AcDbEntity
  8
EBENE_1
 62
     7
100
AcDbLine
 10
51.5655
 20
113.749646
 30
0.0
 11
51.5655
 21
-73.532807
 31
0.0
  0
LINE
  5
544
100
AcDbEntity
  8
EBENE_1
 62
     7
100
AcDbLine
 10
44.199542
 20
-75.311165
 30
0.0
 11
44.199542
 21
115.52766
 31
0.0
  0
LINE
  5
543
100
AcDbEntity
  8
EBENE_1
 62
     7
100
AcDbLine
 10
-19.300458
 20
-75.311165
 30
0.0
 11
15.412668
 21
-75.311165
 31
0.0
  0
LINE
  5
542
100
AcDbEntity
  8
EBENE_1
 62
     7
100
AcDbLine
 10
-19.300458
 20
115.52766
 30
0.0
 11
15.412668
 21
115.52766
 31
0.0
  0
LINE
  5
541
100
AcDbEntity
  8
EBENE_1
 62
     7
100
AcDbLine
 10
14.650613
 20
-70.146278
 30
0.0
 11
14.650613
 21
110.362945
 31
0.0
  0
POLYLINE
  5
53C
100
AcDbEntity
  8
EBENE_1
 62
     7
100
AcDb2dPolyline
 66
     1
 10
0.0
 20
0.0
 30
0.0
 70
     1
  0
VERTEX
  5
53D
100
AcDbEntity
  8
EBENE_1
 62
     7
100
AcDbVertex
100
AcDb2dVertex
 10
13.804153
 20
-70.146278
 30
0.0
  0
VERTEX
  5
53E
100
AcDbEntity
  8
EBENE_1
 62
     7
100
AcDbVertex
100
AcDb2dVertex
 10
15.497418
 20
-70.146278
 30
0.0
  0
VERTEX
  5
53F
100
AcDbEntity
  8
EBENE_1
 62
     7
100
AcDbVertex
100
AcDb2dVertex
 10
14.650613
 20
-75.311165
 30
0.0
  0
SEQEND
  5
540
100
AcDbEntity
  8
EBENE_1
 62
     7
  0
HATCH
  5
53B
100
AcDbEntity
  8
EBENE_1
 62
     7
100
AcDbHatch
 10
0.0
 20
0.0
 30
0.0
210
0.0
220
0.0
230
1.0
  2
SOLID
 70
     1
 71
     0
 91
        1
 92
        3
 72
     0
 73
     1
 93
        3
 10
13.80415310329861
 20
-70.146278211805551
 10
15.497417534722221
 20
-70.146278211805551
 10
14.65061306423611
 20
-75.311165364583331
 97
        0
 75
     0
 76
     1
 98
        1
 10
0.0
 20
0.0
  0
POLYLINE
  5
536
100
AcDbEntity
  8
EBENE_1
 62
     7
100
AcDb2dPolyline
 66
     1
 10
0.0
 20
0.0
 30
0.0
 70
     1
  0
VERTEX
  5
537
100
AcDbEntity
  8
EBENE_1
 62
     7
100
AcDbVertex
100
AcDb2dVertex
 10
13.804153
 20
110.362945
 30
0.0
  0
VERTEX
  5
538
100
AcDbEntity
  8
EBENE_1
 62
     7
100
AcDbVertex
100
AcDb2dVertex
 10
15.497418
 20
110.362945
 30
0.0
  0
VERTEX
  5
539
100
AcDbEntity
  8
EBENE_1
 62
     7
100
AcDbVertex
100
AcDb2dVertex
 10
14.650613
 20
115.52766
 30
0.0
  0
SEQEND
  5
53A
100
AcDbEntity
  8
EBENE_1
 62
     7
  0
HATCH
  5
535
100
AcDbEntity
  8
EBENE_1
 62
     7
100
AcDbHatch
 10
0.0
 20
0.0
 30
0.0
210
0.0
220
0.0
230
1.0
  2
SOLID
 70
     1
 71
     0
 91
        1
 92
        3
 72
     0
 73
     1
 93
        3
 10
13.80415310329861
 20
110.36294487847221
 10
15.497417534722221
 20
110.36294487847221
 10
14.65061306423611
 20
115.52765977647569
 97
        0
 75
     0
 76
     1
 98
        1
 10
0.0
 20
0.0
  0
LINE
  5
534
100
AcDbEntity
  8
EBENE_1
 62
     7
100
AcDbLine
 10
9.232167
 20
13.673584
 30
0.0
 11
9.062668
 21
13.673584
 31
0.0
  0
LINE
  5
533
100
AcDbEntity
  8
EBENE_1
 62
     7
100
AcDbLine
 10
9.062668
 20
13.673584
 30
0.0
 11
8.554861
 21
13.92766
 31
0.0
  0
LINE
  5
532
100
AcDbEntity
  8
EBENE_1
 62
     7
100
AcDbLine
 10
8.554861
 20
13.92766
 30
0.0
 11
8.300613
 21
14.181563
 31
0.0
  0
LINE
  5
531
100
AcDbEntity
  8
EBENE_1
 62
     7
100
AcDbLine
 10
8.300613
 20
14.181563
 30
0.0
 11
8.04671
 21
14.689715
 31
0.0
  0
LINE
  5
530
100
AcDbEntity
  8
EBENE_1
 62
     7
100
AcDbLine
 10
8.04671
 20
14.689715
 30
0.0
 11
8.04671
 21
15.705674
 31
0.0
  0
LINE
  5
52F
100
AcDbEntity
  8
EBENE_1
 62
     7
100
AcDbLine
 10
8.04671
 20
15.705674
 30
0.0
 11
8.300613
 21
16.129076
 31
0.0
  0
LINE
  5
52E
100
AcDbEntity
  8
EBENE_1
 62
     7
100
AcDbLine
 10
8.300613
 20
16.129076
 30
0.0
 11
8.554861
 21
16.382979
 31
0.0
  0
LINE
  5
52D
100
AcDbEntity
  8
EBENE_1
 62
     7
100
AcDbLine
 10
8.554861
 20
16.382979
 30
0.0
 11
9.062668
 21
16.637055
 31
0.0
  0
LINE
  5
52C
100
AcDbEntity
  8
EBENE_1
 62
     7
100
AcDbLine
 10
9.062668
 20
16.637055
 30
0.0
 11
9.48607
 21
16.637055
 31
0.0
  0
LINE
  5
52B
100
AcDbEntity
  8
EBENE_1
 62
     7
100
AcDbLine
 10
9.48607
 20
16.637055
 30
0.0
 11
9.994222
 21
16.382979
 31
0.0
  0
LINE
  5
52A
100
AcDbEntity
  8
EBENE_1
 62
     7
100
AcDbLine
 10
9.994222
 20
16.382979
 30
0.0
 11
10.756277
 21
15.959577
 31
0.0
  0
LINE
  5
529
100
AcDbEntity
  8
EBENE_1
 62
     7
100
AcDbLine
 10
10.756277
 20
15.959577
 30
0.0
 11
13.211252
 21
13.504258
 31
0.0
  0
LINE
  5
528
100
AcDbEntity
  8
EBENE_1
 62
     7
100
AcDbLine
 10
13.211252
 20
13.504258
 30
0.0
 11
13.211252
 21
16.890959
 31
0.0
  0
LINE
  5
527
100
AcDbEntity
  8
EBENE_1
 62
     7
100
AcDbLine
 10
9.232167
 20
18.584395
 30
0.0
 11
9.062668
 21
18.584395
 31
0.0
  0
LINE
  5
526
100
AcDbEntity
  8
EBENE_1
 62
     7
100
AcDbLine
 10
9.062668
 20
18.584395
 30
0.0
 11
8.554861
 21
18.838299
 31
0.0
  0
LINE
  5
525
100
AcDbEntity
  8
EBENE_1
 62
     7
100
AcDbLine
 10
8.554861
 20
18.838299
 30
0.0
 11
8.300613
 21
19.092375
 31
0.0
  0
LINE
  5
524
100
AcDbEntity
  8
EBENE_1
 62
     7
100
AcDbLine
 10
8.300613
 20
19.092375
 30
0.0
 11
8.04671
 21
19.600354
 31
0.0
  0
LINE
  5
523
100
AcDbEntity
  8
EBENE_1
 62
     7
100
AcDbLine
 10
8.04671
 20
19.600354
 30
0.0
 11
8.04671
 21
20.616313
 31
0.0
  0
LINE
  5
522
100
AcDbEntity
  8
EBENE_1
 62
     7
100
AcDbLine
 10
8.04671
 20
20.616313
 30
0.0
 11
8.300613
 21
21.039715
 31
0.0
  0
LINE
  5
521
100
AcDbEntity
  8
EBENE_1
 62
     7
100
AcDbLine
 10
8.300613
 20
21.039715
 30
0.0
 11
8.554861
 21
21.293618
 31
0.0
  0
LINE
  5
520
100
AcDbEntity
  8
EBENE_1
 62
     7
100
AcDbLine
 10
8.554861
 20
21.293618
 30
0.0
 11
9.062668
 21
21.547694
 31
0.0
  0
LINE
  5
51F
100
AcDbEntity
  8
EBENE_1
 62
     7
100
AcDbLine
 10
9.062668
 20
21.547694
 30
0.0
 11
9.48607
 21
21.547694
 31
0.0
  0
LINE
  5
51E
100
AcDbEntity
  8
EBENE_1
 62
     7
100
AcDbLine
 10
9.48607
 20
21.547694
 30
0.0
 11
9.994222
 21
21.293618
 31
0.0
  0
LINE
  5
51D
100
AcDbEntity
  8
EBENE_1
 62
     7
100
AcDbLine
 10
9.994222
 20
21.293618
 30
0.0
 11
10.756277
 21
20.870388
 31
0.0
  0
LINE
  5
51C
100
AcDbEntity
  8
EBENE_1
 62
     7
100
AcDbLine
 10
10.756277
 20
20.870388
 30
0.0
 11
13.211252
 21
18.414897
 31
0.0
  0
LINE
  5
51B
100
AcDbEntity
  8
EBENE_1
 62
     7
100
AcDbLine
 10
13.211252
 20
18.414897
 30
0.0
 11
13.211252
 21
21.801598
 31
0.0
  0
LINE
  5
51A
100
AcDbEntity
  8
EBENE_1
 62
     7
100
AcDbLine
 10
8.04671
 20
24.764897
 30
0.0
 11
8.300613
 21
24.003014
 31
0.0
  0
LINE
  5
519
100
AcDbEntity
  8
EBENE_1
 62
     7
100
AcDbLine
 10
8.300613
 20
24.003014
 30
0.0
 11
9.062668
 21
23.579612
 31
0.0
  0
LINE
  5
518
100
AcDbEntity
  8
EBENE_1
 62
     7
100
AcDbLine
 10
9.062668
 20
23.579612
 30
0.0
 11
10.248126
 21
23.325708
 31
0.0
  0
LINE
  5
517
100
AcDbEntity
  8
EBENE_1
 62
     7
100
AcDbLine
 10
10.248126
 20
23.325708
 30
0.0
 11
11.010181
 21
23.325708
 31
0.0
  0
LINE
  5
516
100
AcDbEntity
  8
EBENE_1
 62
     7
100
AcDbLine
 10
11.010181
 20
23.325708
 30
0.0
 11
12.195638
 21
23.579612
 31
0.0
  0
LINE
  5
515
100
AcDbEntity
  8
EBENE_1
 62
     7
100
AcDbLine
 10
12.195638
 20
23.579612
 30
0.0
 11
12.957693
 21
24.003014
 31
0.0
  0
LINE
  5
514
100
AcDbEntity
  8
EBENE_1
 62
     7
100
AcDbLine
 10
12.957693
 20
24.003014
 30
0.0
 11
13.211252
 21
24.764897
 31
0.0
  0
LINE
  5
513
100
AcDbEntity
  8
EBENE_1
 62
     7
100
AcDbLine
 10
13.211252
 20
24.764897
 30
0.0
 11
13.211252
 21
25.273048
 31
0.0
  0
LINE
  5
512
100
AcDbEntity
  8
EBENE_1
 62
     7
100
AcDbLine
 10
13.211252
 20
25.273048
 30
0.0
 11
12.957693
 21
26.034931
 31
0.0
  0
LINE
  5
511
100
AcDbEntity
  8
EBENE_1
 62
     7
100
AcDbLine
 10
12.957693
 20
26.034931
 30
0.0
 11
12.195638
 21
26.458333
 31
0.0
  0
LINE
  5
510
100
AcDbEntity
  8
EBENE_1
 62
     7
100
AcDbLine
 10
12.195638
 20
26.458333
 30
0.0
 11
11.010181
 21
26.712409
 31
0.0
  0
LINE
  5
50F
100
AcDbEntity
  8
EBENE_1
 62
     7
100
AcDbLine
 10
11.010181
 20
26.712409
 30
0.0
 11
10.248126
 21
26.712409
 31
0.0
  0
LINE
  5
50E
100
AcDbEntity
  8
EBENE_1
 62
     7
100
AcDbLine
 10
10.248126
 20
26.712409
 30
0.0
 11
9.062668
 21
26.458333
 31
0.0
  0
LINE
  5
50D
100
AcDbEntity
  8
EBENE_1
 62
     7
100
AcDbLine
 10
9.062668
 20
26.458333
 30
0.0
 11
8.300613
 21
26.034931
 31
0.0
  0
LINE
  5
50C
100
AcDbEntity
  8
EBENE_1
 62
     7
100
AcDbLine
 10
8.300613
 20
26.034931
 30
0.0
 11
8.04671
 21
25.273048
 31
0.0
  0
LINE
  5
50B
100
AcDbEntity
  8
EBENE_1
 62
     7
100
AcDbLine
 10
8.04671
 20
25.273048
 30
0.0
 11
8.04671
 21
24.764897
 31
0.0
  0
LINE
  5
50A
100
AcDbEntity
  8
EBENE_1
 62
     7
100
AcDbLine
 10
8.04671
 20
24.764897
 30
0.0
 11
8.04671
 21
24.764897
 31
0.0
  0
LINE
  5
509
100
AcDbEntity
  8
EBENE_1
 62
     7
100
AcDbLine
 10
-22.517833
 20
-35.009749
 30
0.0
 11
-3.298507
 21
-35.009749
 31
0.0
  0
LINE
  5
508
100
AcDbEntity
  8
EBENE_1
 62
     7
100
AcDbLine
 10
-22.517833
 20
1.481563
 30
0.0
 11
-3.298507
 21
1.481563
 31
0.0
  0
LINE
  5
507
100
AcDbEntity
  8
EBENE_1
 62
     7
100
AcDbLine
 10
-3.975812
 20
-29.844862
 30
0.0
 11
-3.975812
 21
-3.682807
 31
0.0
  0
POLYLINE
  5
502
100
AcDbEntity
  8
EBENE_1
 62
     7
100
AcDb2dPolyline
 66
     1
 10
0.0
 20
0.0
 30
0.0
 70
     1
  0
VERTEX
  5
503
100
AcDbEntity
  8
EBENE_1
 62
     7
100
AcDbVertex
100
AcDb2dVertex
 10
-4.822617
 20
-29.844862
 30
0.0
  0
VERTEX
  5
504
100
AcDbEntity
  8
EBENE_1
 62
     7
100
AcDbVertex
100
AcDb2dVertex
 10
-3.12918
 20
-29.844862
 30
0.0
  0
VERTEX
  5
505
100
AcDbEntity
  8
EBENE_1
 62
     7
100
AcDbVertex
100
AcDb2dVertex
 10
-3.975812
 20
-35.009749
 30
0.0
  0
SEQEND
  5
506
100
AcDbEntity
  8
EBENE_1
 62
     7
  0
HATCH
  5
501
100
AcDbEntity
  8
EBENE_1
 62
     7
100
AcDbHatch
 10
0.0
 20
0.0
 30
0.0
210
0.0
220
0.0
230
1.0
  2
SOLID
 70
     1
 71
     0
 91
        1
 92
        3
 72
     0
 73
     1
 93
        3
 10
-4.8226169162326382
 20
-29.844862196180554
 10
-3.1291802300347218
 20
-29.844862196180554
 10
-3.9758124457465276
 20
-35.00974934895833
 97
        0
 75
     0
 76
     1
 98
        1
 10
0.0
 20
0.0
  0
POLYLINE
  5
4FC
100
AcDbEntity
  8
EBENE_1
 62
     7
100
AcDb2dPolyline
 66
     1
 10
0.0
 20
0.0
 30
0.0
 70
     1
  0
VERTEX
  5
4FD
100
AcDbEntity
  8
EBENE_1
 62
     7
100
AcDbVertex
100
AcDb2dVertex
 10
-4.822617
 20
-3.682807
 30
0.0
  0
VERTEX
  5
4FE
100
AcDbEntity
  8
EBENE_1
 62
     7
100
AcDbVertex
100
AcDb2dVertex
 10
-3.12918
 20
-3.682807
 30
0.0
  0
VERTEX
  5
4FF
100
AcDbEntity
  8
EBENE_1
 62
     7
100
AcDbVertex
100
AcDb2dVertex
 10
-3.975812
 20
1.481563
 30
0.0
  0
SEQEND
  5
500
100
AcDbEntity
  8
EBENE_1
 62
     7
  0
HATCH
  5
4FB
100
AcDbEntity
  8
EBENE_1
 62
     7
100
AcDbHatch
 10
0.0
 20
0.0
 30
0.0
210
0.0
220
0.0
230
1.0
  2
SOLID
 70
     1
 71
     0
 91
        1
 92
        3
 72
     0
 73
     1
 93
        3
 10
-4.8226169162326382
 20
-3.6828070746527772
 10
-3.1291802300347218
 20
-3.6828070746527772
 10
-3.9758124457465276
 20
1.4815633138020832
 97
        0
 75
     0
 76
     1
 98
        1
 10
0.0
 20
0.0
  0
LINE
  5
4FA
100
AcDbEntity
  8
EBENE_1
 62
     7
100
AcDbLine
 10
-10.664465
 20
-18.499474
 30
0.0
 11
-7.193187
 21
-20.955138
 31
0.0
  0
LINE
  5
4F9
100
AcDbEntity
  8
EBENE_1
 62
     7
100
AcDbLine
 10
-7.193187
 20
-20.955138
 30
0.0
 11
-7.193187
 21
-17.229612
 31
0.0
  0
LINE
  5
4F8
100
AcDbEntity
  8
EBENE_1
 62
     7
100
AcDbLine
 10
-10.664465
 20
-18.499474
 30
0.0
 11
-5.499923
 21
-18.499474
 31
0.0
  0
LINE
  5
4F7
100
AcDbEntity
  8
EBENE_1
 62
     7
100
AcDbLine
 10
-9.394603
 20
-15.790251
 30
0.0
 11
-9.648507
 21
-15.790251
 31
0.0
  0
LINE
  5
4F6
100
AcDbEntity
  8
EBENE_1
 62
     7
100
AcDbLine
 10
-9.648507
 20
-15.790251
 30
0.0
 11
-10.156486
 21
-15.536003
 31
0.0
  0
LINE
  5
4F5
100
AcDbEntity
  8
EBENE_1
 62
     7
100
AcDbLine
 10
-10.156486
 20
-15.536003
 30
0.0
 11
-10.410562
 21
-15.282444
 31
0.0
  0
LINE
  5
4F4
100
AcDbEntity
  8
EBENE_1
 62
     7
100
AcDbLine
 10
-10.410562
 20
-15.282444
 30
0.0
 11
-10.664465
 21
-14.774637
 31
0.0
  0
LINE
  5
4F3
100
AcDbEntity
  8
EBENE_1
 62
     7
100
AcDbLine
 10
-10.664465
 20
-14.774637
 30
0.0
 11
-10.664465
 21
-13.843083
 31
0.0
  0
LINE
  5
4F2
100
AcDbEntity
  8
EBENE_1
 62
     7
100
AcDbLine
 10
-10.664465
 20
-13.843083
 30
0.0
 11
-10.410562
 21
-13.335276
 31
0.0
  0
LINE
  5
4F1
100
AcDbEntity
  8
EBENE_1
 62
     7
100
AcDbLine
 10
-10.410562
 20
-13.335276
 30
0.0
 11
-10.156486
 21
-13.081028
 31
0.0
  0
LINE
  5
4F0
100
AcDbEntity
  8
EBENE_1
 62
     7
100
AcDbLine
 10
-10.156486
 20
-13.081028
 30
0.0
 11
-9.648507
 21
-12.82678
 31
0.0
  0
LINE
  5
4EF
100
AcDbEntity
  8
EBENE_1
 62
     7
100
AcDbLine
 10
-9.648507
 20
-12.82678
 30
0.0
 11
-9.140527
 21
-12.82678
 31
0.0
  0
LINE
  5
4EE
100
AcDbEntity
  8
EBENE_1
 62
     7
100
AcDbLine
 10
-9.140527
 20
-12.82678
 30
0.0
 11
-8.632548
 21
-13.081028
 31
0.0
  0
LINE
  5
4ED
100
AcDbEntity
  8
EBENE_1
 62
     7
100
AcDbLine
 10
-8.632548
 20
-13.081028
 30
0.0
 11
-7.955242
 21
-13.588835
 31
0.0
  0
LINE
  5
4EC
100
AcDbEntity
  8
EBENE_1
 62
     7
100
AcDbLine
 10
-7.955242
 20
-13.588835
 30
0.0
 11
-5.499923
 21
-16.044499
 31
0.0
  0
LINE
  5
4EB
100
AcDbEntity
  8
EBENE_1
 62
     7
100
AcDbLine
 10
-5.499923
 20
-16.044499
 30
0.0
 11
-5.499923
 21
-12.57322
 31
0.0
  0
LINE
  5
4EA
100
AcDbEntity
  8
EBENE_1
 62
     7
100
AcDbLine
 10
-37.249923
 20
-44.915777
 30
0.0
 11
-55.791943
 21
-44.915777
 31
0.0
  0
LINE
  5
4E9
100
AcDbEntity
  8
EBENE_1
 62
     7
100
AcDbLine
 10
-37.249923
 20
20.108333
 30
0.0
 11
-55.791943
 21
20.108333
 31
0.0
  0
LINE
  5
4E8
100
AcDbEntity
  8
EBENE_1
 62
     7
100
AcDbLine
 10
-55.029888
 20
-39.75089
 30
0.0
 11
-55.029888
 21
14.943618
 31
0.0
  0
POLYLINE
  5
4E3
100
AcDbEntity
  8
EBENE_1
 62
     7
100
AcDb2dPolyline
 66
     1
 10
0.0
 20
0.0
 30
0.0
 70
     1
  0
VERTEX
  5
4E4
100
AcDbEntity
  8
EBENE_1
 62
     7
100
AcDbVertex
100
AcDb2dVertex
 10
-55.96127
 20
-39.75089
 30
0.0
  0
VERTEX
  5
4E5
100
AcDbEntity
  8
EBENE_1
 62
     7
100
AcDbVertex
100
AcDb2dVertex
 10
-54.183256
 20
-39.75089
 30
0.0
  0
VERTEX
  5
4E6
100
AcDbEntity
  8
EBENE_1
 62
     7
100
AcDbVertex
100
AcDb2dVertex
 10
-55.029888
 20
-44.915777
 30
0.0
  0
SEQEND
  5
4E7
100
AcDbEntity
  8
EBENE_1
 62
     7
  0
HATCH
  5
4E2
100
AcDbEntity
  8
EBENE_1
 62
     7
100
AcDbHatch
 10
0.0
 20
0.0
 30
0.0
210
0.0
220
0.0
230
1.0
  2
SOLID
 70
     1
 71
     0
 91
        1
 92
        3
 72
     0
 73
     1
 93
        3
 10
-55.961269802517357
 20
-39.750889756944439
 10
-54.18325602213541
 20
-39.750889756944439
 10
-55.029888237847217
 20
-44.915776909722219
 97
        0
 75
     0
 76
     1
 98
        1
 10
0.0
 20
0.0
  0
POLYLINE
  5
4DD
100
AcDbEntity
  8
EBENE_1
 62
     7
100
AcDb2dPolyline
 66
     1
 10
0.0
 20
0.0
 30
0.0
 70
     1
  0
VERTEX
  5
4DE
100
AcDbEntity
  8
EBENE_1
 62
     7
100
AcDbVertex
100
AcDb2dVertex
 10
-55.96127
 20
14.943618
 30
0.0
  0
VERTEX
  5
4DF
100
AcDbEntity
  8
EBENE_1
 62
     7
100
AcDbVertex
100
AcDb2dVertex
 10
-54.183256
 20
14.943618
 30
0.0
  0
VERTEX
  5
4E0
100
AcDbEntity
  8
EBENE_1
 62
     7
100
AcDbVertex
100
AcDb2dVertex
 10
-55.029888
 20
20.108333
 30
0.0
  0
SEQEND
  5
4E1
100
AcDbEntity
  8
EBENE_1
 62
     7
  0
HATCH
  5
4DC
100
AcDbEntity
  8
EBENE_1
 62
     7
100
AcDbHatch
 10
0.0
 20
0.0
 30
0.0
210
0.0
220
0.0
230
1.0
  2
SOLID
 70
     1
 71
     0
 91
        1
 92
        3
 72
     0
 73
     1
 93
        3
 10
-55.961269802517357
 20
14.94361843532986
 10
-54.18325602213541
 20
14.94361843532986
 10
-55.029888237847217
 20
20.108333333333331
 97
        0
 75
     0
 76
     1
 98
        1
 10
0.0
 20
0.0
  0
LINE
  5
4DB
100
AcDbEntity
  8
EBENE_1
 62
     7
100
AcDbLine
 10
-61.718541
 20
-16.637055
 30
0.0
 11
-61.718541
 21
-13.165777
 31
0.0
  0
LINE
  5
4DA
100
AcDbEntity
  8
EBENE_1
 62
     7
100
AcDbLine
 10
-61.718541
 20
-13.165777
 30
0.0
 11
-56.553826
 21
-15.620752
 31
0.0
  0
LINE
  5
4D9
100
AcDbEntity
  8
EBENE_1
 62
     7
100
AcDbLine
 10
-56.553826
 20
-15.620752
 30
0.0
 11
-56.553826
 21
-15.620752
 31
0.0
  0
LINE
  5
4D8
100
AcDbEntity
  8
EBENE_1
 62
     7
100
AcDbLine
 10
-61.718541
 20
-8.762945
 30
0.0
 11
-61.718541
 21
-11.218609
 31
0.0
  0
LINE
  5
4D7
100
AcDbEntity
  8
EBENE_1
 62
     7
100
AcDbLine
 10
-61.718541
 20
-11.218609
 30
0.0
 11
-59.517125
 21
-11.472168
 31
0.0
  0
LINE
  5
4D6
100
AcDbEntity
  8
EBENE_1
 62
     7
100
AcDbLine
 10
-59.517125
 20
-11.472168
 30
0.0
 11
-59.771201
 21
-11.218609
 31
0.0
  0
LINE
  5
4D5
100
AcDbEntity
  8
EBENE_1
 62
     7
100
AcDbLine
 10
-59.771201
 20
-11.218609
 30
0.0
 11
-59.940527
 21
-10.456554
 31
0.0
  0
LINE
  5
4D4
100
AcDbEntity
  8
EBENE_1
 62
     7
100
AcDbLine
 10
-59.940527
 20
-10.456554
 30
0.0
 11
-59.940527
 21
-9.694499
 31
0.0
  0
LINE
  5
4D3
100
AcDbEntity
  8
EBENE_1
 62
     7
100
AcDbLine
 10
-59.940527
 20
-9.694499
 30
0.0
 11
-59.771201
 21
-9.017193
 31
0.0
  0
LINE
  5
4D2
100
AcDbEntity
  8
EBENE_1
 62
     7
100
AcDbLine
 10
-59.771201
 20
-9.017193
 30
0.0
 11
-59.263222
 21
-8.508697
 31
0.0
  0
LINE
  5
4D1
100
AcDbEntity
  8
EBENE_1
 62
     7
100
AcDbLine
 10
-59.263222
 20
-8.508697
 30
0.0
 11
-58.501166
 21
-8.255138
 31
0.0
  0
LINE
  5
4D0
100
AcDbEntity
  8
EBENE_1
 62
     7
100
AcDbLine
 10
-58.501166
 20
-8.255138
 30
0.0
 11
-57.993187
 21
-8.255138
 31
0.0
  0
LINE
  5
4CF
100
AcDbEntity
  8
EBENE_1
 62
     7
100
AcDbLine
 10
-57.993187
 20
-8.255138
 30
0.0
 11
-57.231132
 21
-8.508697
 31
0.0
  0
LINE
  5
4CE
100
AcDbEntity
  8
EBENE_1
 62
     7
100
AcDbLine
 10
-57.231132
 20
-8.508697
 30
0.0
 11
-56.807902
 21
-9.017193
 31
0.0
  0
LINE
  5
4CD
100
AcDbEntity
  8
EBENE_1
 62
     7
100
AcDbLine
 10
-56.807902
 20
-9.017193
 30
0.0
 11
-56.553826
 21
-9.694499
 31
0.0
  0
LINE
  5
4CC
100
AcDbEntity
  8
EBENE_1
 62
     7
100
AcDbLine
 10
-56.553826
 20
-9.694499
 30
0.0
 11
-56.553826
 21
-10.456554
 31
0.0
  0
LINE
  5
4CB
100
AcDbEntity
  8
EBENE_1
 62
     7
100
AcDbLine
 10
-56.553826
 20
-10.456554
 30
0.0
 11
-56.807902
 21
-11.218609
 31
0.0
  0
LINE
  5
4CA
100
AcDbEntity
  8
EBENE_1
 62
     7
100
AcDbLine
 10
-56.807902
 20
-11.218609
 30
0.0
 11
-57.061806
 21
-11.472168
 31
0.0
  0
LINE
  5
4C9
100
AcDbEntity
  8
EBENE_1
 62
     7
100
AcDbLine
 10
-57.061806
 20
-11.472168
 30
0.0
 11
-57.485208
 21
-11.726416
 31
0.0
  0
LINE
  5
4C8
100
AcDbEntity
  8
EBENE_1
 62
     7
100
AcDbLine
 10
-57.485208
 20
-11.726416
 30
0.0
 11
-57.485208
 21
-11.726416
 31
0.0
  0
LINE
  5
4C7
100
AcDbEntity
  8
EBENE_1
 62
     7
100
AcDbLine
 10
-34.87918
 20
1.481563
 30
0.0
 11
-34.87918
 21
-35.009749
 31
0.0
  0
LINE
  5
4C6
100
AcDbEntity
  8
EBENE_1
 62
     7
100
AcDbLine
 10
-34.87918
 20
-35.009749
 30
0.0
 11
-23.957194
 21
-35.009749
 31
0.0
  0
LINE
  5
4C5
100
AcDbEntity
  8
EBENE_1
 62
     7
100
AcDbLine
 10
-23.957194
 20
-35.009749
 30
0.0
 11
-23.957194
 21
1.481563
 31
0.0
  0
LINE
  5
4C4
100
AcDbEntity
  8
EBENE_1
 62
     7
100
AcDbLine
 10
-23.957194
 20
1.481563
 30
0.0
 11
-34.87918
 21
1.481563
 31
0.0
  0
LINE
  5
4C3
100
AcDbEntity
  8
EBENE_1
 62
     7
100
AcDbLine
 10
-26.412514
 20
-117.813997
 30
0.0
 11
-26.412514
 21
-104.690251
 31
0.0
  0
LINE
  5
4C2
100
AcDbEntity
  8
EBENE_1
 62
     7
100
AcDbLine
 10
-33.355242
 20
-117.813997
 30
0.0
 11
-33.355242
 21
-104.690251
 31
0.0
  0
LINE
  5
4C1
100
AcDbEntity
  8
EBENE_1
 62
     7
100
AcDbLine
 10
-21.247799
 20
-105.452306
 30
0.0
 11
-16.083256
 21
-105.452306
 31
0.0
  0
LINE
  5
4C0
100
AcDbEntity
  8
EBENE_1
 62
     7
100
AcDbLine
 10
-38.519957
 20
-105.452306
 30
0.0
 11
-43.6845
 21
-105.452306
 31
0.0
  0
LINE
  5
4BF
100
AcDbEntity
  8
EBENE_1
 62
     7
100
AcDbLine
 10
-26.412514
 20
-105.452306
 30
0.0
 11
-33.355242
 21
-105.452306
 31
0.0
  0
POLYLINE
  5
4BA
100
AcDbEntity
  8
EBENE_1
 62
     7
100
AcDb2dPolyline
 66
     1
 10
0.0
 20
0.0
 30
0.0
 70
     1
  0
VERTEX
  5
4BB
100
AcDbEntity
  8
EBENE_1
 62
     7
100
AcDbVertex
100
AcDb2dVertex
 10
-21.247799
 20
-104.520752
 30
0.0
  0
VERTEX
  5
4BC
100
AcDbEntity
  8
EBENE_1
 62
     7
100
AcDbVertex
100
AcDb2dVertex
 10
-21.247799
 20
-106.29911
 30
0.0
  0
VERTEX
  5
4BD
100
AcDbEntity
  8
EBENE_1
 62
     7
100
AcDbVertex
100
AcDb2dVertex
 10
-26.412514
 20
-105.452306
 30
0.0
  0
SEQEND
  5
4BE
100
AcDbEntity
  8
EBENE_1
 62
     7
  0
HATCH
  5
4B9
100
AcDbEntity
  8
EBENE_1
 62
     7
100
AcDbHatch
 10
0.0
 20
0.0
 30
0.0
210
0.0
220
0.0
230
1.0
  2
SOLID
 70
     1
 71
     0
 91
        1
 92
        3
 72
     0
 73
     1
 93
        3
 10
-21.247798665364581
 20
-104.52075195312499
 10
-21.247798665364581
 20
-106.29911024305555
 10
-26.412513563368051
 20
-105.45230577256943
 97
        0
 75
     0
 76
     1
 98
        1
 10
0.0
 20
0.0
  0
POLYLINE
  5
4B4
100
AcDbEntity
  8
EBENE_1
 62
     7
100
AcDb2dPolyline
 66
     1
 10
0.0
 20
0.0
 30
0.0
 70
     1
  0
VERTEX
  5
4B5
100
AcDbEntity
  8
EBENE_1
 62
     7
100
AcDbVertex
100
AcDb2dVertex
 10
-38.519957
 20
-104.520752
 30
0.0
  0
VERTEX
  5
4B6
100
AcDbEntity
  8
EBENE_1
 62
     7
100
AcDbVertex
100
AcDb2dVertex
 10
-38.519957
 20
-106.29911
 30
0.0
  0
VERTEX
  5
4B7
100
AcDbEntity
  8
EBENE_1
 62
     7
100
AcDbVertex
100
AcDb2dVertex
 10
-33.355242
 20
-105.452306
 30
0.0
  0
SEQEND
  5
4B8
100
AcDbEntity
  8
EBENE_1
 62
     7
  0
HATCH
  5
4B3
100
AcDbEntity
  8
EBENE_1
 62
     7
100
AcDbHatch
 10
0.0
 20
0.0
 30
0.0
210
0.0
220
0.0
230
1.0
  2
SOLID
 70
     1
 71
     0
 91
        1
 92
        3
 72
     0
 73
     1
 93
        3
 10
-38.51995713975694
 20
-104.52075195312499
 10
-38.51995713975694
 20
-106.29911024305555
 10
-33.355242241753466
 20
-105.45230577256943
 97
        0
 75
     0
 76
     1
 98
        1
 10
0.0
 20
0.0
  0
LINE
  5
4B2
100
AcDbEntity
  8
EBENE_1
 62
     7
100
AcDbLine
 10
-30.391943
 20
-98.763997
 30
0.0
 11
-31.069249
 21
-99.017556
 31
0.0
  0
LINE
  5
4B1
100
AcDbEntity
  8
EBENE_1
 62
     7
100
AcDbLine
 10
-31.069249
 20
-99.017556
 30
0.0
 11
-31.323153
 21
-99.525363
 31
0.0
  0
LINE
  5
4B0
100
AcDbEntity
  8
EBENE_1
 62
     7
100
AcDbLine
 10
-31.323153
 20
-99.525363
 30
0.0
 11
-31.323153
 21
-100.03386
 31
0.0
  0
LINE
  5
4AF
100
AcDbEntity
  8
EBENE_1
 62
     7
100
AcDbLine
 10
-31.323153
 20
-100.03386
 30
0.0
 11
-31.069249
 21
-100.541667
 31
0.0
  0
LINE
  5
4AE
100
AcDbEntity
  8
EBENE_1
 62
     7
100
AcDbLine
 10
-31.069249
 20
-100.541667
 30
0.0
 11
-30.645847
 21
-100.711165
 31
0.0
  0
LINE
  5
4AD
100
AcDbEntity
  8
EBENE_1
 62
     7
100
AcDbLine
 10
-30.645847
 20
-100.711165
 30
0.0
 11
-29.629888
 21
-100.964724
 31
0.0
  0
LINE
  5
4AC
100
AcDbEntity
  8
EBENE_1
 62
     7
100
AcDbLine
 10
-29.629888
 20
-100.964724
 30
0.0
 11
-28.867833
 21
-101.218972
 31
0.0
  0
LINE
  5
4AB
100
AcDbEntity
  8
EBENE_1
 62
     7
100
AcDbLine
 10
-28.867833
 20
-101.218972
 30
0.0
 11
-28.444603
 21
-101.72678
 31
0.0
  0
LINE
  5
4AA
100
AcDbEntity
  8
EBENE_1
 62
     7
100
AcDbLine
 10
-28.444603
 20
-101.72678
 30
0.0
 11
-28.190527
 21
-102.235276
 31
0.0
  0
LINE
  5
4A9
100
AcDbEntity
  8
EBENE_1
 62
     7
100
AcDbLine
 10
-28.190527
 20
-102.235276
 30
0.0
 11
-28.190527
 21
-102.997331
 31
0.0
  0
LINE
  5
4A8
100
AcDbEntity
  8
EBENE_1
 62
     7
100
AcDbLine
 10
-28.190527
 20
-102.997331
 30
0.0
 11
-28.444603
 21
-103.420388
 31
0.0
  0
LINE
  5
4A7
100
AcDbEntity
  8
EBENE_1
 62
     7
100
AcDbLine
 10
-28.444603
 20
-103.420388
 30
0.0
 11
-28.61393
 21
-103.674637
 31
0.0
  0
LINE
  5
4A6
100
AcDbEntity
  8
EBENE_1
 62
     7
100
AcDbLine
 10
-28.61393
 20
-103.674637
 30
0.0
 11
-29.375812
 21
-103.928196
 31
0.0
  0
LINE
  5
4A5
100
AcDbEntity
  8
EBENE_1
 62
     7
100
AcDbLine
 10
-29.375812
 20
-103.928196
 30
0.0
 11
-30.391943
 21
-103.928196
 31
0.0
  0
LINE
  5
4A4
100
AcDbEntity
  8
EBENE_1
 62
     7
100
AcDbLine
 10
-30.391943
 20
-103.928196
 30
0.0
 11
-31.069249
 21
-103.674637
 31
0.0
  0
LINE
  5
4A3
100
AcDbEntity
  8
EBENE_1
 62
     7
100
AcDbLine
 10
-31.069249
 20
-103.674637
 30
0.0
 11
-31.323153
 21
-103.420388
 31
0.0
  0
LINE
  5
4A2
100
AcDbEntity
  8
EBENE_1
 62
     7
100
AcDbLine
 10
-31.323153
 20
-103.420388
 30
0.0
 11
-31.577228
 21
-102.997331
 31
0.0
  0
LINE
  5
4A1
100
AcDbEntity
  8
EBENE_1
 62
     7
100
AcDbLine
 10
-31.577228
 20
-102.997331
 30
0.0
 11
-31.577228
 21
-102.235276
 31
0.0
  0
LINE
  5
4A0
100
AcDbEntity
  8
EBENE_1
 62
     7
100
AcDbLine
 10
-31.577228
 20
-102.235276
 30
0.0
 11
-31.323153
 21
-101.72678
 31
0.0
  0
LINE
  5
49F
100
AcDbEntity
  8
EBENE_1
 62
     7
100
AcDbLine
 10
-31.323153
 20
-101.72678
 30
0.0
 11
-30.899923
 21
-101.218972
 31
0.0
  0
LINE
  5
49E
100
AcDbEntity
  8
EBENE_1
 62
     7
100
AcDbLine
 10
-30.899923
 20
-101.218972
 30
0.0
 11
-30.137868
 21
-100.964724
 31
0.0
  0
LINE
  5
49D
100
AcDbEntity
  8
EBENE_1
 62
     7
100
AcDbLine
 10
-30.137868
 20
-100.964724
 30
0.0
 11
-29.121909
 21
-100.711165
 31
0.0
  0
LINE
  5
49C
100
AcDbEntity
  8
EBENE_1
 62
     7
100
AcDbLine
 10
-29.121909
 20
-100.711165
 30
0.0
 11
-28.61393
 21
-100.541667
 31
0.0
  0
LINE
  5
49B
100
AcDbEntity
  8
EBENE_1
 62
     7
100
AcDbLine
 10
-28.61393
 20
-100.541667
 30
0.0
 11
-28.444603
 21
-100.03386
 31
0.0
  0
LINE
  5
49A
100
AcDbEntity
  8
EBENE_1
 62
     7
100
AcDbLine
 10
-28.444603
 20
-100.03386
 30
0.0
 11
-28.444603
 21
-99.525363
 31
0.0
  0
LINE
  5
499
100
AcDbEntity
  8
EBENE_1
 62
     7
100
AcDbLine
 10
-28.444603
 20
-99.525363
 30
0.0
 11
-28.61393
 21
-99.017556
 31
0.0
  0
LINE
  5
498
100
AcDbEntity
  8
EBENE_1
 62
     7
100
AcDbLine
 10
-28.61393
 20
-99.017556
 30
0.0
 11
-29.375812
 21
-98.763997
 31
0.0
  0
LINE
  5
497
100
AcDbEntity
  8
EBENE_1
 62
     7
100
AcDbLine
 10
-29.375812
 20
-98.763997
 30
0.0
 11
-30.391943
 21
-98.763997
 31
0.0
  0
LINE
  5
496
100
AcDbEntity
  8
EBENE_1
 62
     7
100
AcDbLine
 10
-26.412514
 20
-122.385639
 30
0.0
 11
-20.739819
 21
-122.385639
 31
0.0
  0
LINE
  5
495
100
AcDbEntity
  8
EBENE_1
 62
     7
100
AcDbLine
 10
-22.517833
 20
-129.751942
 30
0.0
 11
-21.840527
 21
-129.582444
 31
0.0
  0
LINE
  5
494
100
AcDbEntity
  8
EBENE_1
 62
     7
100
AcDbLine
 10
-21.840527
 20
-129.582444
 30
0.0
 11
-21.247799
 21
-129.243446
 31
0.0
  0
LINE
  5
493
100
AcDbEntity
  8
EBENE_1
 62
     7
100
AcDbLine
 10
-21.247799
 20
-129.243446
 30
0.0
 11
-20.909146
 21
-128.65089
 31
0.0
  0
LINE
  5
492
100
AcDbEntity
  8
EBENE_1
 62
     7
100
AcDbLine
 10
-20.909146
 20
-128.65089
 30
0.0
 11
-20.739819
 21
-127.973584
 31
0.0
  0
LINE
  5
491
100
AcDbEntity
  8
EBENE_1
 62
     7
100
AcDbLine
 10
-20.739819
 20
-75.311165
 30
0.0
 11
-39.027936
 21
-75.311165
 31
0.0
  0
LINE
  5
490
100
AcDbEntity
  8
EBENE_1
 62
     7
100
AcDbLine
 10
-19.300458
 20
-75.311165
 30
0.0
 11
-3.298507
 21
-75.311165
 31
0.0
  0
LINE
  5
48F
100
AcDbEntity
  8
EBENE_1
 62
     7
100
AcDbLine
 10
-22.517833
 20
-35.009749
 30
0.0
 11
-3.298507
 21
-35.009749
 31
0.0
  0
LINE
  5
48E
100
AcDbEntity
  8
EBENE_1
 62
     7
100
AcDbLine
 10
-3.975812
 20
-70.146278
 30
0.0
 11
-3.975812
 21
-40.174637
 31
0.0
  0
POLYLINE
  5
489
100
AcDbEntity
  8
EBENE_1
 62
     7
100
AcDb2dPolyline
 66
     1
 10
0.0
 20
0.0
 30
0.0
 70
     1
  0
VERTEX
  5
48A
100
AcDbEntity
  8
EBENE_1
 62
     7
100
AcDbVertex
100
AcDb2dVertex
 10
-4.822617
 20
-70.146278
 30
0.0
  0
VERTEX
  5
48B
100
AcDbEntity
  8
EBENE_1
 62
     7
100
AcDbVertex
100
AcDb2dVertex
 10
-3.12918
 20
-70.146278
 30
0.0
  0
VERTEX
  5
48C
100
AcDbEntity
  8
EBENE_1
 62
     7
100
AcDbVertex
100
AcDb2dVertex
 10
-3.975812
 20
-75.311165
 30
0.0
  0
SEQEND
  5
48D
100
AcDbEntity
  8
EBENE_1
 62
     7
  0
HATCH
  5
488
100
AcDbEntity
  8
EBENE_1
 62
     7
100
AcDbHatch
 10
0.0
 20
0.0
 30
0.0
210
0.0
220
0.0
230
1.0
  2
SOLID
 70
     1
 71
     0
 91
        1
 92
        3
 72
     0
 73
     1
 93
        3
 10
-4.8226169162326382
 20
-70.146278211805551
 10
-3.1291802300347218
 20
-70.146278211805551
 10
-3.9758124457465276
 20
-75.311165364583331
 97
        0
 75
     0
 76
     1
 98
        1
 10
0.0
 20
0.0
  0
POLYLINE
  5
483
100
AcDbEntity
  8
EBENE_1
 62
     7
100
AcDb2dPolyline
 66
     1
 10
0.0
 20
0.0
 30
0.0
 70
     1
  0
VERTEX
  5
484
100
AcDbEntity
  8
EBENE_1
 62
     7
100
AcDbVertex
100
AcDb2dVertex
 10
-4.822617
 20
-40.174637
 30
0.0
  0
VERTEX
  5
485
100
AcDbEntity
  8
EBENE_1
 62
     7
100
AcDbVertex
100
AcDb2dVertex
 10
-3.12918
 20
-40.174637
 30
0.0
  0
VERTEX
  5
486
100
AcDbEntity
  8
EBENE_1
 62
     7
100
AcDbVertex
100
AcDb2dVertex
 10
-3.975812
 20
-35.009749
 30
0.0
  0
SEQEND
  5
487
100
AcDbEntity
  8
EBENE_1
 62
     7
  0
HATCH
  5
482
100
AcDbEntity
  8
EBENE_1
 62
     7
100
AcDbHatch
 10
0.0
 20
0.0
 30
0.0
210
0.0
220
0.0
230
1.0
  2
SOLID
 70
     1
 71
     0
 91
        1
 92
        3
 72
     0
 73
     1
 93
        3
 10
-4.8226169162326382
 20
-40.17463650173611
 10
-3.1291802300347218
 20
-40.17463650173611
 10
-3.9758124457465276
 20
-35.00974934895833
 97
        0
 75
     0
 76
     1
 98
        1
 10
0.0
 20
0.0
  0
LINE
  5
481
100
AcDbEntity
  8
EBENE_1
 62
     7
100
AcDbLine
 10
-10.664465
 20
-60.579248
 30
0.0
 11
-7.193187
 21
-63.034223
 31
0.0
  0
LINE
  5
480
100
AcDbEntity
  8
EBENE_1
 62
     7
100
AcDbLine
 10
-7.193187
 20
-63.034223
 30
0.0
 11
-7.193187
 21
-59.308697
 31
0.0
  0
LINE
  5
47F
100
AcDbEntity
  8
EBENE_1
 62
     7
100
AcDbLine
 10
-10.664465
 20
-60.579248
 30
0.0
 11
-5.499923
 21
-60.579248
 31
0.0
  0
LINE
  5
47E
100
AcDbEntity
  8
EBENE_1
 62
     7
100
AcDbLine
 10
-9.902582
 20
-55.160113
 30
0.0
 11
-10.410562
 21
-55.414361
 31
0.0
  0
LINE
  5
47D
100
AcDbEntity
  8
EBENE_1
 62
     7
100
AcDbLine
 10
-10.410562
 20
-55.414361
 30
0.0
 11
-10.664465
 21
-56.091667
 31
0.0
  0
LINE
  5
47C
100
AcDbEntity
  8
EBENE_1
 62
     7
100
AcDbLine
 10
-10.664465
 20
-56.091667
 30
0.0
 11
-10.664465
 21
-56.599474
 31
0.0
  0
LINE
  5
47B
100
AcDbEntity
  8
EBENE_1
 62
     7
100
AcDbLine
 10
-10.664465
 20
-56.599474
 30
0.0
 11
-10.410562
 21
-57.361529
 31
0.0
  0
LINE
  5
47A
100
AcDbEntity
  8
EBENE_1
 62
     7
100
AcDbLine
 10
-10.410562
 20
-57.361529
 30
0.0
 11
-9.648507
 21
-57.869336
 31
0.0
  0
LINE
  5
479
100
AcDbEntity
  8
EBENE_1
 62
     7
100
AcDbLine
 10
-9.648507
 20
-57.869336
 30
0.0
 11
-8.463222
 21
-58.123584
 31
0.0
  0
LINE
  5
478
100
AcDbEntity
  8
EBENE_1
 62
     7
100
AcDbLine
 10
-8.463222
 20
-58.123584
 30
0.0
 11
-7.193187
 21
-58.123584
 31
0.0
  0
LINE
  5
477
100
AcDbEntity
  8
EBENE_1
 62
     7
100
AcDbLine
 10
-7.193187
 20
-58.123584
 30
0.0
 11
-6.177228
 21
-57.869336
 31
0.0
  0
LINE
  5
476
100
AcDbEntity
  8
EBENE_1
 62
     7
100
AcDbLine
 10
-6.177228
 20
-57.869336
 30
0.0
 11
-5.753826
 21
-57.361529
 31
0.0
  0
LINE
  5
475
100
AcDbEntity
  8
EBENE_1
 62
     7
100
AcDbLine
 10
-5.753826
 20
-57.361529
 30
0.0
 11
-5.499923
 21
-56.599474
 31
0.0
  0
LINE
  5
474
100
AcDbEntity
  8
EBENE_1
 62
     7
100
AcDbLine
 10
-5.499923
 20
-56.599474
 30
0.0
 11
-5.499923
 21
-56.345915
 31
0.0
  0
LINE
  5
473
100
AcDbEntity
  8
EBENE_1
 62
     7
100
AcDbLine
 10
-5.499923
 20
-56.345915
 30
0.0
 11
-5.753826
 21
-55.668609
 31
0.0
  0
LINE
  5
472
100
AcDbEntity
  8
EBENE_1
 62
     7
100
AcDbLine
 10
-5.753826
 20
-55.668609
 30
0.0
 11
-6.177228
 21
-55.160113
 31
0.0
  0
LINE
  5
471
100
AcDbEntity
  8
EBENE_1
 62
     7
100
AcDbLine
 10
-6.177228
 20
-55.160113
 30
0.0
 11
-6.939284
 21
-54.906554
 31
0.0
  0
LINE
  5
470
100
AcDbEntity
  8
EBENE_1
 62
     7
100
AcDbLine
 10
-6.939284
 20
-54.906554
 30
0.0
 11
-7.193187
 21
-54.906554
 31
0.0
  0
LINE
  5
46F
100
AcDbEntity
  8
EBENE_1
 62
     7
100
AcDbLine
 10
-7.193187
 20
-54.906554
 30
0.0
 11
-7.955242
 21
-55.160113
 31
0.0
  0
LINE
  5
46E
100
AcDbEntity
  8
EBENE_1
 62
     7
100
AcDbLine
 10
-7.955242
 20
-55.160113
 30
0.0
 11
-8.463222
 21
-55.668609
 31
0.0
  0
LINE
  5
46D
100
AcDbEntity
  8
EBENE_1
 62
     7
100
AcDbLine
 10
-8.463222
 20
-55.668609
 30
0.0
 11
-8.632548
 21
-56.345915
 31
0.0
  0
LINE
  5
46C
100
AcDbEntity
  8
EBENE_1
 62
     7
100
AcDbLine
 10
-8.632548
 20
-56.345915
 30
0.0
 11
-8.632548
 21
-56.599474
 31
0.0
  0
LINE
  5
46B
100
AcDbEntity
  8
EBENE_1
 62
     7
100
AcDbLine
 10
-8.632548
 20
-56.599474
 30
0.0
 11
-8.463222
 21
-57.361529
 31
0.0
  0
LINE
  5
46A
100
AcDbEntity
  8
EBENE_1
 62
     7
100
AcDbLine
 10
-8.463222
 20
-57.361529
 30
0.0
 11
-7.955242
 21
-57.869336
 31
0.0
  0
LINE
  5
469
100
AcDbEntity
  8
EBENE_1
 62
     7
100
AcDbLine
 10
-7.955242
 20
-57.869336
 30
0.0
 11
-7.193187
 21
-58.123584
 31
0.0
  0
LINE
  5
468
100
AcDbEntity
  8
EBENE_1
 62
     7
100
AcDbLine
 10
-7.193187
 20
-58.123584
 30
0.0
 11
-7.193187
 21
-58.123584
 31
0.0
  0
LINE
  5
467
100
AcDbEntity
  8
EBENE_1
 62
     7
100
AcDbLine
 10
-6.007902
 20
-52.958697
 30
0.0
 11
-5.753826
 21
-53.212945
 31
0.0
  0
LINE
  5
466
100
AcDbEntity
  8
EBENE_1
 62
     7
100
AcDbLine
 10
-5.753826
 20
-53.212945
 30
0.0
 11
-5.499923
 21
-52.958697
 31
0.0
  0
LINE
  5
465
100
AcDbEntity
  8
EBENE_1
 62
     7
100
AcDbLine
 10
-5.499923
 20
-52.958697
 30
0.0
 11
-5.753826
 21
-52.705138
 31
0.0
  0
LINE
  5
464
100
AcDbEntity
  8
EBENE_1
 62
     7
100
AcDbLine
 10
-10.664465
 20
-47.794499
 30
0.0
 11
-10.664465
 21
-50.249474
 31
0.0
  0
LINE
  5
463
100
AcDbEntity
  8
EBENE_1
 62
     7
100
AcDbLine
 10
-10.664465
 20
-50.249474
 30
0.0
 11
-8.463222
 21
-50.503722
 31
0.0
  0
LINE
  5
462
100
AcDbEntity
  8
EBENE_1
 62
     7
100
AcDbLine
 10
-8.463222
 20
-50.503722
 30
0.0
 11
-8.632548
 21
-50.249474
 31
0.0
  0
LINE
  5
461
100
AcDbEntity
  8
EBENE_1
 62
     7
100
AcDbLine
 10
-8.632548
 20
-50.249474
 30
0.0
 11
-8.886624
 21
-49.487419
 31
0.0
  0
LINE
  5
460
100
AcDbEntity
  8
EBENE_1
 62
     7
100
AcDbLine
 10
-8.886624
 20
-49.487419
 30
0.0
 11
-8.886624
 21
-48.725363
 31
0.0
  0
LINE
  5
45F
100
AcDbEntity
  8
EBENE_1
 62
     7
100
AcDbLine
 10
-8.886624
 20
-48.725363
 30
0.0
 11
-8.632548
 21
-48.048058
 31
0.0
  0
LINE
  5
45E
100
AcDbEntity
  8
EBENE_1
 62
     7
100
AcDbLine
 10
-8.632548
 20
-48.048058
 30
0.0
 11
-8.209146
 21
-47.540251
 31
0.0
  0
LINE
  5
45D
100
AcDbEntity
  8
EBENE_1
 62
     7
100
AcDbLine
 10
-8.209146
 20
-47.540251
 30
0.0
 11
-7.447263
 21
-47.286003
 31
0.0
  0
LINE
  5
45C
100
AcDbEntity
  8
EBENE_1
 62
     7
100
AcDbLine
 10
-7.447263
 20
-47.286003
 30
0.0
 11
-6.939284
 21
-47.286003
 31
0.0
  0
LINE
  5
45B
100
AcDbEntity
  8
EBENE_1
 62
     7
100
AcDbLine
 10
-6.939284
 20
-47.286003
 30
0.0
 11
-6.177228
 21
-47.540251
 31
0.0
  0
LINE
  5
45A
100
AcDbEntity
  8
EBENE_1
 62
     7
100
AcDbLine
 10
-6.177228
 20
-47.540251
 30
0.0
 11
-5.753826
 21
-48.048058
 31
0.0
  0
LINE
  5
459
100
AcDbEntity
  8
EBENE_1
 62
     7
100
AcDbLine
 10
-5.753826
 20
-48.048058
 30
0.0
 11
-5.499923
 21
-48.725363
 31
0.0
  0
LINE
  5
458
100
AcDbEntity
  8
EBENE_1
 62
     7
100
AcDbLine
 10
-5.499923
 20
-48.725363
 30
0.0
 11
-5.499923
 21
-49.487419
 31
0.0
  0
LINE
  5
457
100
AcDbEntity
  8
EBENE_1
 62
     7
100
AcDbLine
 10
-5.499923
 20
-49.487419
 30
0.0
 11
-5.753826
 21
-50.249474
 31
0.0
  0
LINE
  5
456
100
AcDbEntity
  8
EBENE_1
 62
     7
100
AcDbLine
 10
-5.753826
 20
-50.249474
 30
0.0
 11
-6.007902
 21
-50.503722
 31
0.0
  0
LINE
  5
455
100
AcDbEntity
  8
EBENE_1
 62
     7
100
AcDbLine
 10
-6.007902
 20
-50.503722
 30
0.0
 11
-6.431132
 21
-50.67322
 31
0.0
  0
LINE
  5
454
100
AcDbEntity
  8
EBENE_1
 62
     7
100
AcDbLine
 10
-6.431132
 20
-50.67322
 30
0.0
 11
-6.431132
 21
-50.67322
 31
0.0
  0
LINE
  5
453
100
AcDbEntity
  8
EBENE_1
 62
     7
100
AcDbLine
 10
-39.027936
 20
-76.750526
 30
0.0
 11
-39.027936
 21
-90.212581
 31
0.0
  0
LINE
  5
452
100
AcDbEntity
  8
EBENE_1
 62
     7
100
AcDbLine
 10
-20.739819
 20
-76.750526
 30
0.0
 11
-20.739819
 21
-90.212581
 31
0.0
  0
LINE
  5
451
100
AcDbEntity
  8
EBENE_1
 62
     7
100
AcDbLine
 10
-33.863222
 20
-89.450526
 30
0.0
 11
-25.904534
 21
-89.450526
 31
0.0
  0
POLYLINE
  5
44C
100
AcDbEntity
  8
EBENE_1
 62
     7
100
AcDb2dPolyline
 66
     1
 10
0.0
 20
0.0
 30
0.0
 70
     1
  0
VERTEX
  5
44D
100
AcDbEntity
  8
EBENE_1
 62
     7
100
AcDbVertex
100
AcDb2dVertex
 10
-33.863222
 20
-88.603722
 30
0.0
  0
VERTEX
  5
44E
100
AcDbEntity
  8
EBENE_1
 62
     7
100
AcDbVertex
100
AcDb2dVertex
 10
-33.863222
 20
-90.297331
 30
0.0
  0
VERTEX
  5
44F
100
AcDbEntity
  8
EBENE_1
 62
     7
100
AcDbVertex
100
AcDb2dVertex
 10
-39.027936
 20
-89.450526
 30
0.0
  0
SEQEND
  5
450
100
AcDbEntity
  8
EBENE_1
 62
     7
  0
HATCH
  5
44B
100
AcDbEntity
  8
EBENE_1
 62
     7
100
AcDbHatch
 10
0.0
 20
0.0
 30
0.0
210
0.0
220
0.0
230
1.0
  2
SOLID
 70
     1
 71
     0
 91
        1
 92
        3
 72
     0
 73
     1
 93
        3
 10
-33.863221571180553
 20
-88.603721788194434
 10
-33.863221571180553
 20
-90.29733072916666
 10
-39.027936469184027
 20
-89.450526258680554
 97
        0
 75
     0
 76
     1
 98
        1
 10
0.0
 20
0.0
  0
POLYLINE
  5
446
100
AcDbEntity
  8
EBENE_1
 62
     7
100
AcDb2dPolyline
 66
     1
 10
0.0
 20
0.0
 30
0.0
 70
     1
  0
VERTEX
  5
447
100
AcDbEntity
  8
EBENE_1
 62
     7
100
AcDbVertex
100
AcDb2dVertex
 10
-25.904534
 20
-88.603722
 30
0.0
  0
VERTEX
  5
448
100
AcDbEntity
  8
EBENE_1
 62
     7
100
AcDbVertex
100
AcDb2dVertex
 10
-25.904534
 20
-90.297331
 30
0.0
  0
VERTEX
  5
449
100
AcDbEntity
  8
EBENE_1
 62
     7
100
AcDbVertex
100
AcDb2dVertex
 10
-20.739819
 20
-89.450526
 30
0.0
  0
SEQEND
  5
44A
100
AcDbEntity
  8
EBENE_1
 62
     7
  0
HATCH
  5
445
100
AcDbEntity
  8
EBENE_1
 62
     7
100
AcDbHatch
 10
0.0
 20
0.0
 30
0.0
210
0.0
220
0.0
230
1.0
  2
SOLID
 70
     1
 71
     0
 91
        1
 92
        3
 72
     0
 73
     1
 93
        3
 10
-25.904534233940971
 20
-88.603721788194434
 10
-25.904534233940971
 20
-90.29733072916666
 10
-20.739819335937497
 20
-89.450526258680554
 97
        0
 75
     0
 76
     1
 98
        1
 10
0.0
 20
0.0
  0
LINE
  5
444
100
AcDbEntity
  8
EBENE_1
 62
     7
100
AcDbLine
 10
-31.831132
 20
-88.011165
 30
0.0
 11
-29.883792
 21
-82.846278
 31
0.0
  0
LINE
  5
443
100
AcDbEntity
  8
EBENE_1
 62
     7
100
AcDbLine
 10
-29.883792
 20
-82.846278
 30
0.0
 11
-27.936452
 21
-88.011165
 31
0.0
  0
LINE
  5
442
100
AcDbEntity
  8
EBENE_1
 62
     7
100
AcDbLine
 10
-31.069249
 20
-86.232807
 30
0.0
 11
-28.61393
 21
-86.232807
 31
0.0
  0
LINE
  5
441
100
AcDbEntity
  8
EBENE_1
 62
     7
100
AcDbLine
 10
-40.467125
 20
-75.311165
 30
0.0
 11
-55.791943
 21
-75.311165
 31
0.0
  0
LINE
  5
440
100
AcDbEntity
  8
EBENE_1
 62
     7
100
AcDbLine
 10
-37.249923
 20
-66.590251
 30
0.0
 11
-55.791943
 21
-66.590251
 31
0.0
  0
LINE
  5
43F
100
AcDbEntity
  8
EBENE_1
 62
     7
100
AcDbLine
 10
-55.029888
 20
-80.475363
 30
0.0
 11
-55.029888
 21
-85.640251
 31
0.0
  0
LINE
  5
43E
100
AcDbEntity
  8
EBENE_1
 62
     7
100
AcDbLine
 10
-55.029888
 20
-61.425363
 30
0.0
 11
-55.029888
 21
-56.345915
 31
0.0
  0
LINE
  5
43D
100
AcDbEntity
  8
EBENE_1
 62
     7
100
AcDbLine
 10
-55.029888
 20
-75.311165
 30
0.0
 11
-55.029888
 21
-66.590251
 31
0.0
  0
POLYLINE
  5
438
100
AcDbEntity
  8
EBENE_1
 62
     7
100
AcDb2dPolyline
 66
     1
 10
0.0
 20
0.0
 30
0.0
 70
     1
  0
VERTEX
  5
439
100
AcDbEntity
  8
EBENE_1
 62
     7
100
AcDbVertex
100
AcDb2dVertex
 10
-55.96127
 20
-80.475363
 30
0.0
  0
VERTEX
  5
43A
100
AcDbEntity
  8
EBENE_1
 62
     7
100
AcDbVertex
100
AcDb2dVertex
 10
-54.183256
 20
-80.475363
 30
0.0
  0
VERTEX
  5
43B
100
AcDbEntity
  8
EBENE_1
 62
     7
100
AcDbVertex
100
AcDb2dVertex
 10
-55.029888
 20
-75.311165
 30
0.0
  0
SEQEND
  5
43C
100
AcDbEntity
  8
EBENE_1
 62
     7
  0
HATCH
  5
437
100
AcDbEntity
  8
EBENE_1
 62
     7
100
AcDbHatch
 10
0.0
 20
0.0
 30
0.0
210
0.0
220
0.0
230
1.0
  2
SOLID
 70
     1
 71
     0
 91
        1
 92
        3
 72
     0
 73
     1
 93
        3
 10
-55.961269802517357
 20
-80.475363498263889
 10
-54.18325602213541
 20
-80.475363498263889
 10
-55.029888237847217
 20
-75.311165364583331
 97
        0
 75
     0
 76
     1
 98
        1
 10
0.0
 20
0.0
  0
POLYLINE
  5
432
100
AcDbEntity
  8
EBENE_1
 62
     7
100
AcDb2dPolyline
 66
     1
 10
0.0
 20
0.0
 30
0.0
 70
     1
  0
VERTEX
  5
433
100
AcDbEntity
  8
EBENE_1
 62
     7
100
AcDbVertex
100
AcDb2dVertex
 10
-55.96127
 20
-61.425363
 30
0.0
  0
VERTEX
  5
434
100
AcDbEntity
  8
EBENE_1
 62
     7
100
AcDbVertex
100
AcDb2dVertex
 10
-54.183256
 20
-61.425363
 30
0.0
  0
VERTEX
  5
435
100
AcDbEntity
  8
EBENE_1
 62
     7
100
AcDbVertex
100
AcDb2dVertex
 10
-55.029888
 20
-66.590251
 30
0.0
  0
SEQEND
  5
436
100
AcDbEntity
  8
EBENE_1
 62
     7
  0
HATCH
  5
431
100
AcDbEntity
  8
EBENE_1
 62
     7
100
AcDbHatch
 10
0.0
 20
0.0
 30
0.0
210
0.0
220
0.0
230
1.0
  2
SOLID
 70
     1
 71
     0
 91
        1
 92
        3
 72
     0
 73
     1
 93
        3
 10
-55.961269802517357
 20
-61.425363498263884
 10
-54.18325602213541
 20
-61.425363498263884
 10
-55.029888237847217
 20
-66.590250651041657
 97
        0
 75
     0
 76
     1
 98
        1
 10
0.0
 20
0.0
  0
LINE
  5
430
100
AcDbEntity
  8
EBENE_1
 62
     7
100
AcDbLine
 10
-60.702582
 20
-74.63386
 30
0.0
 11
-60.956486
 21
-74.125363
 31
0.0
  0
LINE
  5
42F
100
AcDbEntity
  8
EBENE_1
 62
     7
100
AcDbLine
 10
-60.956486
 20
-74.125363
 30
0.0
 11
-61.718541
 21
-73.448058
 31
0.0
  0
LINE
  5
42E
100
AcDbEntity
  8
EBENE_1
 62
     7
100
AcDbLine
 10
-61.718541
 20
-73.448058
 30
0.0
 11
-56.553826
 21
-73.448058
 31
0.0
  0
LINE
  5
42D
100
AcDbEntity
  8
EBENE_1
 62
     7
100
AcDbLine
 10
-61.718541
 20
-69.214724
 30
0.0
 11
-61.464465
 21
-69.97678
 31
0.0
  0
LINE
  5
42C
100
AcDbEntity
  8
EBENE_1
 62
     7
100
AcDbLine
 10
-61.464465
 20
-69.97678
 30
0.0
 11
-60.702582
 21
-70.485276
 31
0.0
  0
LINE
  5
42B
100
AcDbEntity
  8
EBENE_1
 62
     7
100
AcDbLine
 10
-60.702582
 20
-70.485276
 30
0.0
 11
-59.517125
 21
-70.738835
 31
0.0
  0
LINE
  5
42A
100
AcDbEntity
  8
EBENE_1
 62
     7
100
AcDbLine
 10
-59.517125
 20
-70.738835
 30
0.0
 11
-58.755242
 21
-70.738835
 31
0.0
  0
LINE
  5
429
100
AcDbEntity
  8
EBENE_1
 62
     7
100
AcDbLine
 10
-58.755242
 20
-70.738835
 30
0.0
 11
-57.485208
 21
-70.485276
 31
0.0
  0
LINE
  5
428
100
AcDbEntity
  8
EBENE_1
 62
     7
100
AcDbLine
 10
-57.485208
 20
-70.485276
 30
0.0
 11
-56.807902
 21
-69.97678
 31
0.0
  0
LINE
  5
427
100
AcDbEntity
  8
EBENE_1
 62
     7
100
AcDbLine
 10
-56.807902
 20
-69.97678
 30
0.0
 11
-56.553826
 21
-69.214724
 31
0.0
  0
LINE
  5
426
100
AcDbEntity
  8
EBENE_1
 62
     7
100
AcDbLine
 10
-56.553826
 20
-69.214724
 30
0.0
 11
-56.553826
 21
-68.791667
 31
0.0
  0
LINE
  5
425
100
AcDbEntity
  8
EBENE_1
 62
     7
100
AcDbLine
 10
-56.553826
 20
-68.791667
 30
0.0
 11
-56.807902
 21
-68.029612
 31
0.0
  0
LINE
  5
424
100
AcDbEntity
  8
EBENE_1
 62
     7
100
AcDbLine
 10
-56.807902
 20
-68.029612
 30
0.0
 11
-57.485208
 21
-67.521804
 31
0.0
  0
LINE
  5
423
100
AcDbEntity
  8
EBENE_1
 62
     7
100
AcDbLine
 10
-57.485208
 20
-67.521804
 30
0.0
 11
-58.755242
 21
-67.267556
 31
0.0
  0
LINE
  5
422
100
AcDbEntity
  8
EBENE_1
 62
     7
100
AcDbLine
 10
-58.755242
 20
-67.267556
 30
0.0
 11
-59.517125
 21
-67.267556
 31
0.0
  0
LINE
  5
421
100
AcDbEntity
  8
EBENE_1
 62
     7
100
AcDbLine
 10
-59.517125
 20
-67.267556
 30
0.0
 11
-60.702582
 21
-67.521804
 31
0.0
  0
LINE
  5
420
100
AcDbEntity
  8
EBENE_1
 62
     7
100
AcDbLine
 10
-60.702582
 20
-67.521804
 30
0.0
 11
-61.464465
 21
-68.029612
 31
0.0
  0
LINE
  5
41F
100
AcDbEntity
  8
EBENE_1
 62
     7
100
AcDbLine
 10
-61.464465
 20
-68.029612
 30
0.0
 11
-61.718541
 21
-68.791667
 31
0.0
  0
LINE
  5
41E
100
AcDbEntity
  8
EBENE_1
 62
     7
100
AcDbLine
 10
-61.718541
 20
-68.791667
 30
0.0
 11
-61.718541
 21
-69.214724
 31
0.0
  0
LINE
  5
41D
100
AcDbEntity
  8
EBENE_1
 62
     7
100
AcDbLine
 10
-61.718541
 20
-69.214724
 30
0.0
 11
-61.718541
 21
-69.214724
 31
0.0
  0
LINE
  5
41C
100
AcDbEntity
  8
EBENE_1
 62
     7
100
AcDbLine
 10
-34.794603
 20
-119.337419
 30
0.0
 11
-55.791943
 21
-119.337419
 31
0.0
  0
LINE
  5
41B
100
AcDbEntity
  8
EBENE_1
 62
     7
100
AcDbLine
 10
-40.467125
 20
-122.385639
 30
0.0
 11
-55.791943
 21
-122.385639
 31
0.0
  0
LINE
  5
41A
100
AcDbEntity
  8
EBENE_1
 62
     7
100
AcDbLine
 10
-55.029888
 20
-114.17322
 30
0.0
 11
-55.029888
 21
-109.008333
 31
0.0
  0
LINE
  5
419
100
AcDbEntity
  8
EBENE_1
 62
     7
100
AcDbLine
 10
-55.029888
 20
-127.550526
 30
0.0
 11
-55.029888
 21
-132.630664
 31
0.0
  0
LINE
  5
418
100
AcDbEntity
  8
EBENE_1
 62
     7
100
AcDbLine
 10
-55.029888
 20
-119.337419
 30
0.0
 11
-55.029888
 21
-122.385639
 31
0.0
  0
POLYLINE
  5
413
100
AcDbEntity
  8
EBENE_1
 62
     7
100
AcDb2dPolyline
 66
     1
 10
0.0
 20
0.0
 30
0.0
 70
     1
  0
VERTEX
  5
414
100
AcDbEntity
  8
EBENE_1
 62
     7
100
AcDbVertex
100
AcDb2dVertex
 10
-55.96127
 20
-114.17322
 30
0.0
  0
VERTEX
  5
415
100
AcDbEntity
  8
EBENE_1
 62
     7
100
AcDbVertex
100
AcDb2dVertex
 10
-54.183256
 20
-114.17322
 30
0.0
  0
VERTEX
  5
416
100
AcDbEntity
  8
EBENE_1
 62
     7
100
AcDbVertex
100
AcDb2dVertex
 10
-55.029888
 20
-119.337419
 30
0.0
  0
SEQEND
  5
417
100
AcDbEntity
  8
EBENE_1
 62
     7
  0
HATCH
  5
412
100
AcDbEntity
  8
EBENE_1
 62
     7
100
AcDbHatch
 10
0.0
 20
0.0
 30
0.0
210
0.0
220
0.0
230
1.0
  2
SOLID
 70
     1
 71
     0
 91
        1
 92
        3
 72
     0
 73
     1
 93
        3
 10
-55.961269802517357
 20
-114.17322048611111
 10
-54.18325602213541
 20
-114.17322048611111
 10
-55.029888237847217
 20
-119.33741861979166
 97
        0
 75
     0
 76
     1
 98
        1
 10
0.0
 20
0.0
  0
POLYLINE
  5
40D
100
AcDbEntity
  8
EBENE_1
 62
     7
100
AcDb2dPolyline
 66
     1
 10
0.0
 20
0.0
 30
0.0
 70
     1
  0
VERTEX
  5
40E
100
AcDbEntity
  8
EBENE_1
 62
     7
100
AcDbVertex
100
AcDb2dVertex
 10
-55.96127
 20
-127.550526
 30
0.0
  0
VERTEX
  5
40F
100
AcDbEntity
  8
EBENE_1
 62
     7
100
AcDbVertex
100
AcDb2dVertex
 10
-54.183256
 20
-127.550526
 30
0.0
  0
VERTEX
  5
410
100
AcDbEntity
  8
EBENE_1
 62
     7
100
AcDbVertex
100
AcDb2dVertex
 10
-55.029888
 20
-122.385639
 30
0.0
  0
SEQEND
  5
411
100
AcDbEntity
  8
EBENE_1
 62
     7
  0
HATCH
  5
40C
100
AcDbEntity
  8
EBENE_1
 62
     7
100
AcDbHatch
 10
0.0
 20
0.0
 30
0.0
210
0.0
220
0.0
230
1.0
  2
SOLID
 70
     1
 71
     0
 91
        1
 92
        3
 72
     0
 73
     1
 93
        3
 10
-55.961269802517357
 20
-127.55052625868055
 10
-54.18325602213541
 20
-127.55052625868055
 10
-55.029888237847217
 20
-122.38563910590277
 97
        0
 75
     0
 76
     1
 98
        1
 10
0.0
 20
0.0
  0
LINE
  5
40B
100
AcDbEntity
  8
EBENE_1
 62
     7
100
AcDbLine
 10
-61.718541
 20
-125.772168
 30
0.0
 11
-61.718541
 21
-123.062945
 31
0.0
  0
LINE
  5
40A
100
AcDbEntity
  8
EBENE_1
 62
     7
100
AcDbLine
 10
-61.718541
 20
-123.062945
 30
0.0
 11
-59.771201
 21
-124.502306
 31
0.0
  0
LINE
  5
409
100
AcDbEntity
  8
EBENE_1
 62
     7
100
AcDbLine
 10
-59.771201
 20
-124.502306
 30
0.0
 11
-59.771201
 21
-123.740251
 31
0.0
  0
LINE
  5
408
100
AcDbEntity
  8
EBENE_1
 62
     7
100
AcDbLine
 10
-59.771201
 20
-123.740251
 30
0.0
 11
-59.517125
 21
-123.317193
 31
0.0
  0
LINE
  5
407
100
AcDbEntity
  8
EBENE_1
 62
     7
100
AcDbLine
 10
-59.517125
 20
-123.317193
 30
0.0
 11
-59.263222
 21
-123.062945
 31
0.0
  0
LINE
  5
406
100
AcDbEntity
  8
EBENE_1
 62
     7
100
AcDbLine
 10
-59.263222
 20
-123.062945
 30
0.0
 11
-58.501166
 21
-122.808697
 31
0.0
  0
LINE
  5
405
100
AcDbEntity
  8
EBENE_1
 62
     7
100
AcDbLine
 10
-58.501166
 20
-122.808697
 30
0.0
 11
-57.993187
 21
-122.808697
 31
0.0
  0
LINE
  5
404
100
AcDbEntity
  8
EBENE_1
 62
     7
100
AcDbLine
 10
-57.993187
 20
-122.808697
 30
0.0
 11
-57.231132
 21
-123.062945
 31
0.0
  0
LINE
  5
403
100
AcDbEntity
  8
EBENE_1
 62
     7
100
AcDbLine
 10
-57.231132
 20
-123.062945
 30
0.0
 11
-56.807902
 21
-123.570752
 31
0.0
  0
LINE
  5
402
100
AcDbEntity
  8
EBENE_1
 62
     7
100
AcDbLine
 10
-56.807902
 20
-123.570752
 30
0.0
 11
-56.553826
 21
-124.248058
 31
0.0
  0
LINE
  5
401
100
AcDbEntity
  8
EBENE_1
 62
     7
100
AcDbLine
 10
-56.553826
 20
-124.248058
 30
0.0
 11
-56.553826
 21
-125.010113
 31
0.0
  0
LINE
  5
400
100
AcDbEntity
  8
EBENE_1
 62
     7
100
AcDbLine
 10
-56.553826
 20
-125.010113
 30
0.0
 11
-56.807902
 21
-125.772168
 31
0.0
  0
LINE
  5
3FF
100
AcDbEntity
  8
EBENE_1
 62
     7
100
AcDbLine
 10
-56.807902
 20
-125.772168
 30
0.0
 11
-57.061806
 21
-126.026416
 31
0.0
  0
LINE
  5
3FE
100
AcDbEntity
  8
EBENE_1
 62
     7
100
AcDbLine
 10
-57.061806
 20
-126.026416
 30
0.0
 11
-57.485208
 21
-126.280664
 31
0.0
  0
LINE
  5
3FD
100
AcDbEntity
  8
EBENE_1
 62
     7
100
AcDbLine
 10
-57.061806
 20
-121.115777
 30
0.0
 11
-56.807902
 21
-121.285276
 31
0.0
  0
LINE
  5
3FC
100
AcDbEntity
  8
EBENE_1
 62
     7
100
AcDbLine
 10
-56.807902
 20
-121.285276
 30
0.0
 11
-56.553826
 21
-121.115777
 31
0.0
  0
LINE
  5
3FB
100
AcDbEntity
  8
EBENE_1
 62
     7
100
AcDbLine
 10
-56.553826
 20
-121.115777
 30
0.0
 11
-56.807902
 21
-120.861529
 31
0.0
  0
LINE
  5
3FA
100
AcDbEntity
  8
EBENE_1
 62
     7
100
AcDbLine
 10
-61.718541
 20
-115.95089
 30
0.0
 11
-61.718541
 21
-118.406554
 31
0.0
  0
LINE
  5
3F9
100
AcDbEntity
  8
EBENE_1
 62
     7
100
AcDbLine
 10
-61.718541
 20
-118.406554
 30
0.0
 11
-59.517125
 21
-118.660113
 31
0.0
  0
LINE
  5
3F8
100
AcDbEntity
  8
EBENE_1
 62
     7
100
AcDbLine
 10
-59.517125
 20
-118.660113
 30
0.0
 11
-59.771201
 21
-118.406554
 31
0.0
  0
LINE
  5
3F7
100
AcDbEntity
  8
EBENE_1
 62
     7
100
AcDbLine
 10
-59.771201
 20
-118.406554
 30
0.0
 11
-59.940527
 21
-117.644499
 31
0.0
  0
LINE
  5
3F6
100
AcDbEntity
  8
EBENE_1
 62
     7
100
AcDbLine
 10
-59.940527
 20
-117.644499
 30
0.0
 11
-59.940527
 21
-116.882444
 31
0.0
  0
LINE
  5
3F5
100
AcDbEntity
  8
EBENE_1
 62
     7
100
AcDbLine
 10
-59.940527
 20
-116.882444
 30
0.0
 11
-59.771201
 21
-116.205138
 31
0.0
  0
LINE
  5
3F4
100
AcDbEntity
  8
EBENE_1
 62
     7
100
AcDbLine
 10
-59.771201
 20
-116.205138
 30
0.0
 11
-59.263222
 21
-115.697331
 31
0.0
  0
LINE
  5
3F3
100
AcDbEntity
  8
EBENE_1
 62
     7
100
AcDbLine
 10
-59.263222
 20
-115.697331
 30
0.0
 11
-58.501166
 21
-115.443083
 31
0.0
  0
LINE
  5
3F2
100
AcDbEntity
  8
EBENE_1
 62
     7
100
AcDbLine
 10
-58.501166
 20
-115.443083
 30
0.0
 11
-57.993187
 21
-115.443083
 31
0.0
  0
LINE
  5
3F1
100
AcDbEntity
  8
EBENE_1
 62
     7
100
AcDbLine
 10
-57.993187
 20
-115.443083
 30
0.0
 11
-57.231132
 21
-115.697331
 31
0.0
  0
LINE
  5
3F0
100
AcDbEntity
  8
EBENE_1
 62
     7
100
AcDbLine
 10
-57.231132
 20
-115.697331
 30
0.0
 11
-56.807902
 21
-116.205138
 31
0.0
  0
LINE
  5
3EF
100
AcDbEntity
  8
EBENE_1
 62
     7
100
AcDbLine
 10
-56.807902
 20
-116.205138
 30
0.0
 11
-56.553826
 21
-116.882444
 31
0.0
  0
LINE
  5
3EE
100
AcDbEntity
  8
EBENE_1
 62
     7
100
AcDbLine
 10
-56.553826
 20
-116.882444
 30
0.0
 11
-56.553826
 21
-117.644499
 31
0.0
  0
LINE
  5
3ED
100
AcDbEntity
  8
EBENE_1
 62
     7
100
AcDbLine
 10
-56.553826
 20
-117.644499
 30
0.0
 11
-56.807902
 21
-118.406554
 31
0.0
  0
LINE
  5
3EC
100
AcDbEntity
  8
EBENE_1
 62
     7
100
AcDbLine
 10
-56.807902
 20
-118.406554
 30
0.0
 11
-57.061806
 21
-118.660113
 31
0.0
  0
LINE
  5
3EB
100
AcDbEntity
  8
EBENE_1
 62
     7
100
AcDbLine
 10
-57.061806
 20
-118.660113
 30
0.0
 11
-57.485208
 21
-118.829612
 31
0.0
  0
LINE
  5
3EA
100
AcDbEntity
  8
EBENE_1
 62
     7
100
AcDbLine
 10
-57.485208
 20
-118.829612
 30
0.0
 11
-57.485208
 21
-118.829612
 31
0.0
  0
LINE
  5
3E9
100
AcDbEntity
  8
EBENE_1
 62
     7
100
AcDbLine
 10
-39.027936
 20
-127.973584
 30
0.0
 11
-38.85861
 21
-128.65089
 31
0.0
  0
LINE
  5
3E8
100
AcDbEntity
  8
EBENE_1
 62
     7
100
AcDbLine
 10
-38.85861
 20
-128.65089
 30
0.0
 11
-38.519957
 21
-129.243446
 31
0.0
  0
LINE
  5
3E7
100
AcDbEntity
  8
EBENE_1
 62
     7
100
AcDbLine
 10
-38.519957
 20
-129.243446
 30
0.0
 11
-37.927228
 21
-129.582444
 31
0.0
  0
LINE
  5
3E6
100
AcDbEntity
  8
EBENE_1
 62
     7
100
AcDbLine
 10
-37.927228
 20
-129.582444
 30
0.0
 11
-37.249923
 21
-129.751942
 31
0.0
  0
LINE
  5
3E5
100
AcDbEntity
  8
EBENE_1
 62
     7
100
AcDbLine
 10
-29.883792
 20
-120.014724
 30
0.0
 11
-29.883792
 21
-123.401942
 31
0.0
  0
LINE
  5
3E4
100
AcDbEntity
  8
EBENE_1
 62
     7
100
AcDbLine
 10
-29.883792
 20
-126.195915
 30
0.0
 11
-29.883792
 21
-126.195915
 31
0.0
  0
LINE
  5
3E3
100
AcDbEntity
  8
EBENE_1
 62
     7
100
AcDbLine
 10
-29.883792
 20
-128.905138
 30
0.0
 11
-29.883792
 21
-132.376416
 31
0.0
  0
LINE
  5
3E2
100
AcDbEntity
  8
EBENE_1
 62
     7
100
AcDbLine
 10
-29.883792
 20
-132.376416
 30
0.0
 11
-29.883792
 21
-132.376416
 31
0.0
  0
LINE
  5
3E1
100
AcDbEntity
  8
EBENE_1
 62
     7
100
AcDbLine
 10
-37.249923
 20
-129.751942
 30
0.0
 11
-22.517833
 21
-129.751942
 31
0.0
  0
LINE
  5
3E0
100
AcDbEntity
  8
EBENE_1
 62
     7
100
AcDbLine
 10
-39.027936
 20
-127.973584
 30
0.0
 11
-39.027936
 21
-122.385639
 31
0.0
  0
LINE
  5
3DF
100
AcDbEntity
  8
EBENE_1
 62
     7
100
AcDbLine
 10
-39.027936
 20
-122.385639
 30
0.0
 11
-33.355242
 21
-122.385639
 31
0.0
  0
LINE
  5
3DE
100
AcDbEntity
  8
EBENE_1
 62
     7
100
AcDbLine
 10
-26.412514
 20
-119.337419
 30
0.0
 11
-33.355242
 21
-119.337419
 31
0.0
  0
LINE
  5
3DD
100
AcDbEntity
  8
EBENE_1
 62
     7
100
AcDbLine
 10
-37.249923
 20
-122.385639
 30
0.0
 11
-37.249923
 21
-124.502306
 31
0.0
  0
LINE
  5
3DC
100
AcDbEntity
  8
EBENE_1
 62
     7
100
AcDbLine
 10
-37.249923
 20
-125.856917
 30
0.0
 11
-37.249923
 21
-127.973584
 31
0.0
  0
LINE
  5
3DB
100
AcDbEntity
  8
EBENE_1
 62
     7
100
AcDbLine
 10
-37.249923
 20
-127.973584
 30
0.0
 11
-37.249923
 21
-127.973584
 31
0.0
  0
LINE
  5
3DA
100
AcDbEntity
  8
EBENE_1
 62
     7
100
AcDbLine
 10
-37.249923
 20
-127.973584
 30
0.0
 11
-34.709854
 21
-127.973584
 31
0.0
  0
LINE
  5
3D9
100
AcDbEntity
  8
EBENE_1
 62
     7
100
AcDbLine
 10
-33.355242
 20
-127.973584
 30
0.0
 11
-30.56127
 21
-127.973584
 31
0.0
  0
LINE
  5
3D8
100
AcDbEntity
  8
EBENE_1
 62
     7
100
AcDbLine
 10
-29.206486
 20
-127.973584
 30
0.0
 11
-26.412514
 21
-127.973584
 31
0.0
  0
LINE
  5
3D7
100
AcDbEntity
  8
EBENE_1
 62
     7
100
AcDbLine
 10
-25.057902
 20
-127.973584
 30
0.0
 11
-22.517833
 21
-127.973584
 31
0.0
  0
LINE
  5
3D6
100
AcDbEntity
  8
EBENE_1
 62
     7
100
AcDbLine
 10
-22.517833
 20
-127.973584
 30
0.0
 11
-22.517833
 21
-127.973584
 31
0.0
  0
LINE
  5
3D5
100
AcDbEntity
  8
EBENE_1
 62
     7
100
AcDbLine
 10
-22.517833
 20
-127.973584
 30
0.0
 11
-22.517833
 21
-125.856917
 31
0.0
  0
LINE
  5
3D4
100
AcDbEntity
  8
EBENE_1
 62
     7
100
AcDbLine
 10
-22.517833
 20
-124.502306
 30
0.0
 11
-22.517833
 21
-122.385639
 31
0.0
  0
LINE
  5
3D3
100
AcDbEntity
  8
EBENE_1
 62
     7
100
AcDbLine
 10
-22.517833
 20
-122.385639
 30
0.0
 11
-22.517833
 21
-122.385639
 31
0.0
  0
LINE
  5
3D2
100
AcDbEntity
  8
EBENE_1
 62
     7
100
AcDbLine
 10
-33.355242
 20
-119.337419
 30
0.0
 11
-33.355242
 21
-122.385639
 31
0.0
  0
LINE
  5
3D1
100
AcDbEntity
  8
EBENE_1
 62
     7
100
AcDbLine
 10
-26.412514
 20
-122.385639
 30
0.0
 11
-26.412514
 21
-119.337419
 31
0.0
  0
LINE
  5
3D0
100
AcDbEntity
  8
EBENE_1
 62
     7
100
AcDbLine
 10
-29.883792
 20
-44.915777
 30
0.0
 11
-29.883792
 21
-39.073584
 31
0.0
  0
LINE
  5
3CF
100
AcDbEntity
  8
EBENE_1
 62
     7
100
AcDbLine
 10
-27.597799
 20
-44.915777
 30
0.0
 11
-27.767125
 21
-44.068972
 31
0.0
  0
LINE
  5
3CE
100
AcDbEntity
  8
EBENE_1
 62
     7
100
AcDbLine
 10
-27.767125
 20
-44.068972
 30
0.0
 11
-28.275277
 21
-43.391667
 31
0.0
  0
LINE
  5
3CD
100
AcDbEntity
  8
EBENE_1
 62
     7
100
AcDbLine
 10
-28.275277
 20
-43.391667
 30
0.0
 11
-29.03716
 21
-42.88386
 31
0.0
  0
LINE
  5
3CC
100
AcDbEntity
  8
EBENE_1
 62
     7
100
AcDbLine
 10
-29.03716
 20
-42.88386
 30
0.0
 11
-29.883792
 21
-42.714361
 31
0.0
  0
LINE
  5
3CB
100
AcDbEntity
  8
EBENE_1
 62
     7
100
AcDbLine
 10
-29.883792
 20
-42.714361
 30
0.0
 11
-30.730596
 21
-42.88386
 31
0.0
  0
LINE
  5
3CA
100
AcDbEntity
  8
EBENE_1
 62
     7
100
AcDbLine
 10
-30.730596
 20
-42.88386
 30
0.0
 11
-31.492479
 21
-43.391667
 31
0.0
  0
LINE
  5
3C9
100
AcDbEntity
  8
EBENE_1
 62
     7
100
AcDbLine
 10
-31.492479
 20
-43.391667
 30
0.0
 11
-32.000458
 21
-44.068972
 31
0.0
  0
LINE
  5
3C8
100
AcDbEntity
  8
EBENE_1
 62
     7
100
AcDbLine
 10
-32.000458
 20
-44.068972
 30
0.0
 11
-32.169785
 21
-44.915777
 31
0.0
  0
LINE
  5
3C7
100
AcDbEntity
  8
EBENE_1
 62
     7
100
AcDbLine
 10
-32.169785
 20
-44.915777
 30
0.0
 11
-32.000458
 21
-45.847331
 31
0.0
  0
LINE
  5
3C6
100
AcDbEntity
  8
EBENE_1
 62
     7
100
AcDbLine
 10
-32.000458
 20
-45.847331
 30
0.0
 11
-31.492479
 21
-46.524637
 31
0.0
  0
LINE
  5
3C5
100
AcDbEntity
  8
EBENE_1
 62
     7
100
AcDbLine
 10
-31.492479
 20
-46.524637
 30
0.0
 11
-30.730596
 21
-47.032444
 31
0.0
  0
LINE
  5
3C4
100
AcDbEntity
  8
EBENE_1
 62
     7
100
AcDbLine
 10
-30.730596
 20
-47.032444
 30
0.0
 11
-29.883792
 21
-47.201942
 31
0.0
  0
LINE
  5
3C3
100
AcDbEntity
  8
EBENE_1
 62
     7
100
AcDbLine
 10
-29.883792
 20
-47.201942
 30
0.0
 11
-29.03716
 21
-47.032444
 31
0.0
  0
LINE
  5
3C2
100
AcDbEntity
  8
EBENE_1
 62
     7
100
AcDbLine
 10
-29.03716
 20
-47.032444
 30
0.0
 11
-28.275277
 21
-46.524637
 31
0.0
  0
LINE
  5
3C1
100
AcDbEntity
  8
EBENE_1
 62
     7
100
AcDbLine
 10
-28.275277
 20
-46.524637
 30
0.0
 11
-27.767125
 21
-45.847331
 31
0.0
  0
LINE
  5
3C0
100
AcDbEntity
  8
EBENE_1
 62
     7
100
AcDbLine
 10
-27.767125
 20
-45.847331
 30
0.0
 11
-27.597799
 21
-44.915777
 31
0.0
  0
LINE
  5
3BF
100
AcDbEntity
  8
EBENE_1
 62
     7
100
AcDbLine
 10
-25.735208
 20
-44.915777
 30
0.0
 11
-25.904534
 21
-43.899474
 31
0.0
  0
LINE
  5
3BE
100
AcDbEntity
  8
EBENE_1
 62
     7
100
AcDbLine
 10
-25.904534
 20
-43.899474
 30
0.0
 11
-26.327936
 21
-42.88386
 31
0.0
  0
LINE
  5
3BD
100
AcDbEntity
  8
EBENE_1
 62
     7
100
AcDbLine
 10
-26.327936
 20
-42.88386
 30
0.0
 11
-27.005242
 21
-42.037055
 31
0.0
  0
LINE
  5
3BC
100
AcDbEntity
  8
EBENE_1
 62
     7
100
AcDbLine
 10
-27.005242
 20
-42.037055
 30
0.0
 11
-27.851874
 21
-41.359749
 31
0.0
  0
LINE
  5
3BB
100
AcDbEntity
  8
EBENE_1
 62
     7
100
AcDbLine
 10
-27.851874
 20
-41.359749
 30
0.0
 11
-28.783256
 21
-40.936003
 31
0.0
  0
LINE
  5
3BA
100
AcDbEntity
  8
EBENE_1
 62
     7
100
AcDbLine
 10
-28.783256
 20
-40.936003
 30
0.0
 11
-29.883792
 21
-40.851942
 31
0.0
  0
LINE
  5
3B9
100
AcDbEntity
  8
EBENE_1
 62
     7
100
AcDbLine
 10
-29.883792
 20
-40.851942
 30
0.0
 11
-30.9845
 21
-40.936003
 31
0.0
  0
LINE
  5
3B8
100
AcDbEntity
  8
EBENE_1
 62
     7
100
AcDbLine
 10
-30.9845
 20
-40.936003
 30
0.0
 11
-31.915881
 21
-41.359749
 31
0.0
  0
LINE
  5
3B7
100
AcDbEntity
  8
EBENE_1
 62
     7
100
AcDbLine
 10
-31.915881
 20
-41.359749
 30
0.0
 11
-32.762514
 21
-42.037055
 31
0.0
  0
LINE
  5
3B6
100
AcDbEntity
  8
EBENE_1
 62
     7
100
AcDbLine
 10
-32.762514
 20
-42.037055
 30
0.0
 11
-33.439819
 21
-42.88386
 31
0.0
  0
LINE
  5
3B5
100
AcDbEntity
  8
EBENE_1
 62
     7
100
AcDbLine
 10
-33.439819
 20
-42.88386
 30
0.0
 11
-33.863222
 21
-43.899474
 31
0.0
  0
LINE
  5
3B4
100
AcDbEntity
  8
EBENE_1
 62
     7
100
AcDbLine
 10
-33.863222
 20
-43.899474
 30
0.0
 11
-34.032548
 21
-44.915777
 31
0.0
  0
LINE
  5
3B3
100
AcDbEntity
  8
EBENE_1
 62
     7
100
AcDbLine
 10
-34.032548
 20
-44.915777
 30
0.0
 11
-33.863222
 21
-46.01614
 31
0.0
  0
LINE
  5
3B2
100
AcDbEntity
  8
EBENE_1
 62
     7
100
AcDbLine
 10
-33.863222
 20
-46.01614
 30
0.0
 11
-33.439819
 21
-47.032444
 31
0.0
  0
LINE
  5
3B1
100
AcDbEntity
  8
EBENE_1
 62
     7
100
AcDbLine
 10
-33.439819
 20
-47.032444
 30
0.0
 11
-32.762514
 21
-47.879248
 31
0.0
  0
LINE
  5
3B0
100
AcDbEntity
  8
EBENE_1
 62
     7
100
AcDbLine
 10
-32.762514
 20
-47.879248
 30
0.0
 11
-31.915881
 21
-48.471804
 31
0.0
  0
LINE
  5
3AF
100
AcDbEntity
  8
EBENE_1
 62
     7
100
AcDbLine
 10
-31.915881
 20
-48.471804
 30
0.0
 11
-30.9845
 21
-48.894862
 31
0.0
  0
LINE
  5
3AE
100
AcDbEntity
  8
EBENE_1
 62
     7
100
AcDbLine
 10
-30.9845
 20
-48.894862
 30
0.0
 11
-29.883792
 21
-49.064361
 31
0.0
  0
LINE
  5
3AD
100
AcDbEntity
  8
EBENE_1
 62
     7
100
AcDbLine
 10
-29.883792
 20
-49.064361
 30
0.0
 11
-28.783256
 21
-48.894862
 31
0.0
  0
LINE
  5
3AC
100
AcDbEntity
  8
EBENE_1
 62
     7
100
AcDbLine
 10
-28.783256
 20
-48.894862
 30
0.0
 11
-27.851874
 21
-48.471804
 31
0.0
  0
LINE
  5
3AB
100
AcDbEntity
  8
EBENE_1
 62
     7
100
AcDbLine
 10
-27.851874
 20
-48.471804
 30
0.0
 11
-27.005242
 21
-47.879248
 31
0.0
  0
LINE
  5
3AA
100
AcDbEntity
  8
EBENE_1
 62
     7
100
AcDbLine
 10
-27.005242
 20
-47.879248
 30
0.0
 11
-26.327936
 21
-47.032444
 31
0.0
  0
LINE
  5
3A9
100
AcDbEntity
  8
EBENE_1
 62
     7
100
AcDbLine
 10
-26.327936
 20
-47.032444
 30
0.0
 11
-25.904534
 21
-46.01614
 31
0.0
  0
LINE
  5
3A8
100
AcDbEntity
  8
EBENE_1
 62
     7
100
AcDbLine
 10
-25.904534
 20
-46.01614
 30
0.0
 11
-25.735208
 21
-44.915777
 31
0.0
  0
LINE
  5
3A7
100
AcDbEntity
  8
EBENE_1
 62
     7
100
AcDbLine
 10
-37.249923
 20
-66.590251
 30
0.0
 11
-55.791943
 21
-66.590251
 31
0.0
  0
LINE
  5
3A6
100
AcDbEntity
  8
EBENE_1
 62
     7
100
AcDbLine
 10
-37.249923
 20
-44.915777
 30
0.0
 11
-55.791943
 21
-44.915777
 31
0.0
  0
LINE
  5
3A5
100
AcDbEntity
  8
EBENE_1
 62
     7
100
AcDbLine
 10
-55.029888
 20
-61.425363
 30
0.0
 11
-55.029888
 21
-50.080664
 31
0.0
  0
POLYLINE
  5
3A0
100
AcDbEntity
  8
EBENE_1
 62
     7
100
AcDb2dPolyline
 66
     1
 10
0.0
 20
0.0
 30
0.0
 70
     1
  0
VERTEX
  5
3A1
100
AcDbEntity
  8
EBENE_1
 62
     7
100
AcDbVertex
100
AcDb2dVertex
 10
-55.96127
 20
-61.425363
 30
0.0
  0
VERTEX
  5
3A2
100
AcDbEntity
  8
EBENE_1
 62
     7
100
AcDbVertex
100
AcDb2dVertex
 10
-54.183256
 20
-61.425363
 30
0.0
  0
VERTEX
  5
3A3
100
AcDbEntity
  8
EBENE_1
 62
     7
100
AcDbVertex
100
AcDb2dVertex
 10
-55.029888
 20
-66.590251
 30
0.0
  0
SEQEND
  5
3A4
100
AcDbEntity
  8
EBENE_1
 62
     7
  0
HATCH
  5
39F
100
AcDbEntity
  8
EBENE_1
 62
     7
100
AcDbHatch
 10
0.0
 20
0.0
 30
0.0
210
0.0
220
0.0
230
1.0
  2
SOLID
 70
     1
 71
     0
 91
        1
 92
        3
 72
     0
 73
     1
 93
        3
 10
-55.961269802517357
 20
-61.425363498263884
 10
-54.18325602213541
 20
-61.425363498263884
 10
-55.029888237847217
 20
-66.590250651041657
 97
        0
 75
     0
 76
     1
 98
        1
 10
0.0
 20
0.0
  0
POLYLINE
  5
39A
100
AcDbEntity
  8
EBENE_1
 62
     7
100
AcDb2dPolyline
 66
     1
 10
0.0
 20
0.0
 30
0.0
 70
     1
  0
VERTEX
  5
39B
100
AcDbEntity
  8
EBENE_1
 62
     7
100
AcDbVertex
100
AcDb2dVertex
 10
-55.96127
 20
-50.080664
 30
0.0
  0
VERTEX
  5
39C
100
AcDbEntity
  8
EBENE_1
 62
     7
100
AcDbVertex
100
AcDb2dVertex
 10
-54.183256
 20
-50.080664
 30
0.0
  0
VERTEX
  5
39D
100
AcDbEntity
  8
EBENE_1
 62
     7
100
AcDbVertex
100
AcDb2dVertex
 10
-55.029888
 20
-44.915777
 30
0.0
  0
SEQEND
  5
39E
100
AcDbEntity
  8
EBENE_1
 62
     7
  0
HATCH
  5
399
100
AcDbEntity
  8
EBENE_1
 62
     7
100
AcDbHatch
 10
0.0
 20
0.0
 30
0.0
210
0.0
220
0.0
230
1.0
  2
SOLID
 70
     1
 71
     0
 91
        1
 92
        3
 72
     0
 73
     1
 93
        3
 10
-55.961269802517357
 20
-50.080664062499999
 10
-54.18325602213541
 20
-50.080664062499999
 10
-55.029888237847217
 20
-44.915776909722219
 97
        0
 75
     0
 76
     1
 98
        1
 10
0.0
 20
0.0
  0
LINE
  5
398
100
AcDbEntity
  8
EBENE_1
 62
     7
100
AcDbLine
 10
-60.448507
 20
-59.732444
 30
0.0
 11
-60.702582
 21
-59.732444
 31
0.0
  0
LINE
  5
397
100
AcDbEntity
  8
EBENE_1
 62
     7
100
AcDbLine
 10
-60.702582
 20
-59.732444
 30
0.0
 11
-61.210562
 21
-59.478196
 31
0.0
  0
LINE
  5
396
100
AcDbEntity
  8
EBENE_1
 62
     7
100
AcDbLine
 10
-61.210562
 20
-59.478196
 30
0.0
 11
-61.464465
 21
-59.224637
 31
0.0
  0
LINE
  5
395
100
AcDbEntity
  8
EBENE_1
 62
     7
100
AcDbLine
 10
-61.464465
 20
-59.224637
 30
0.0
 11
-61.718541
 21
-58.71614
 31
0.0
  0
LINE
  5
394
100
AcDbEntity
  8
EBENE_1
 62
     7
100
AcDbLine
 10
-61.718541
 20
-58.71614
 30
0.0
 11
-61.718541
 21
-57.785276
 31
0.0
  0
LINE
  5
393
100
AcDbEntity
  8
EBENE_1
 62
     7
100
AcDbLine
 10
-61.718541
 20
-57.785276
 30
0.0
 11
-61.464465
 21
-57.27678
 31
0.0
  0
LINE
  5
392
100
AcDbEntity
  8
EBENE_1
 62
     7
100
AcDbLine
 10
-61.464465
 20
-57.27678
 30
0.0
 11
-61.210562
 21
-57.02322
 31
0.0
  0
LINE
  5
391
100
AcDbEntity
  8
EBENE_1
 62
     7
100
AcDbLine
 10
-61.210562
 20
-57.02322
 30
0.0
 11
-60.702582
 21
-56.768972
 31
0.0
  0
LINE
  5
390
100
AcDbEntity
  8
EBENE_1
 62
     7
100
AcDbLine
 10
-60.702582
 20
-56.768972
 30
0.0
 11
-60.194603
 21
-56.768972
 31
0.0
  0
LINE
  5
38F
100
AcDbEntity
  8
EBENE_1
 62
     7
100
AcDbLine
 10
-60.194603
 20
-56.768972
 30
0.0
 11
-59.771201
 21
-57.02322
 31
0.0
  0
LINE
  5
38E
100
AcDbEntity
  8
EBENE_1
 62
     7
100
AcDbLine
 10
-59.771201
 20
-57.02322
 30
0.0
 11
-59.009146
 21
-57.531028
 31
0.0
  0
LINE
  5
38D
100
AcDbEntity
  8
EBENE_1
 62
     7
100
AcDbLine
 10
-59.009146
 20
-57.531028
 30
0.0
 11
-56.553826
 21
-59.986003
 31
0.0
  0
LINE
  5
38C
100
AcDbEntity
  8
EBENE_1
 62
     7
100
AcDbLine
 10
-56.553826
 20
-59.986003
 30
0.0
 11
-56.553826
 21
-56.514724
 31
0.0
  0
LINE
  5
38B
100
AcDbEntity
  8
EBENE_1
 62
     7
100
AcDbLine
 10
-61.718541
 20
-52.112581
 30
0.0
 11
-61.718541
 21
-54.567556
 31
0.0
  0
LINE
  5
38A
100
AcDbEntity
  8
EBENE_1
 62
     7
100
AcDbLine
 10
-61.718541
 20
-54.567556
 30
0.0
 11
-59.517125
 21
-54.821804
 31
0.0
  0
LINE
  5
389
100
AcDbEntity
  8
EBENE_1
 62
     7
100
AcDbLine
 10
-59.517125
 20
-54.821804
 30
0.0
 11
-59.771201
 21
-54.567556
 31
0.0
  0
LINE
  5
388
100
AcDbEntity
  8
EBENE_1
 62
     7
100
AcDbLine
 10
-59.771201
 20
-54.567556
 30
0.0
 11
-59.940527
 21
-53.805501
 31
0.0
  0
LINE
  5
387
100
AcDbEntity
  8
EBENE_1
 62
     7
100
AcDbLine
 10
-59.940527
 20
-53.805501
 30
0.0
 11
-59.940527
 21
-53.043446
 31
0.0
  0
LINE
  5
386
100
AcDbEntity
  8
EBENE_1
 62
     7
100
AcDbLine
 10
-59.940527
 20
-53.043446
 30
0.0
 11
-59.771201
 21
-52.36614
 31
0.0
  0
LINE
  5
385
100
AcDbEntity
  8
EBENE_1
 62
     7
100
AcDbLine
 10
-59.771201
 20
-52.36614
 30
0.0
 11
-59.263222
 21
-51.858333
 31
0.0
  0
LINE
  5
384
100
AcDbEntity
  8
EBENE_1
 62
     7
100
AcDbLine
 10
-59.263222
 20
-51.858333
 30
0.0
 11
-58.501166
 21
-51.604085
 31
0.0
  0
LINE
  5
383
100
AcDbEntity
  8
EBENE_1
 62
     7
100
AcDbLine
 10
-58.501166
 20
-51.604085
 30
0.0
 11
-57.993187
 21
-51.604085
 31
0.0
  0
LINE
  5
382
100
AcDbEntity
  8
EBENE_1
 62
     7
100
AcDbLine
 10
-57.993187
 20
-51.604085
 30
0.0
 11
-57.231132
 21
-51.858333
 31
0.0
  0
LINE
  5
381
100
AcDbEntity
  8
EBENE_1
 62
     7
100
AcDbLine
 10
-57.231132
 20
-51.858333
 30
0.0
 11
-56.807902
 21
-52.36614
 31
0.0
  0
LINE
  5
380
100
AcDbEntity
  8
EBENE_1
 62
     7
100
AcDbLine
 10
-56.807902
 20
-52.36614
 30
0.0
 11
-56.553826
 21
-53.043446
 31
0.0
  0
LINE
  5
37F
100
AcDbEntity
  8
EBENE_1
 62
     7
100
AcDbLine
 10
-56.553826
 20
-53.043446
 30
0.0
 11
-56.553826
 21
-53.805501
 31
0.0
  0
LINE
  5
37E
100
AcDbEntity
  8
EBENE_1
 62
     7
100
AcDbLine
 10
-56.553826
 20
-53.805501
 30
0.0
 11
-56.807902
 21
-54.567556
 31
0.0
  0
LINE
  5
37D
100
AcDbEntity
  8
EBENE_1
 62
     7
100
AcDbLine
 10
-56.807902
 20
-54.567556
 30
0.0
 11
-57.061806
 21
-54.821804
 31
0.0
  0
LINE
  5
37C
100
AcDbEntity
  8
EBENE_1
 62
     7
100
AcDbLine
 10
-57.061806
 20
-54.821804
 30
0.0
 11
-57.485208
 21
-55.075363
 31
0.0
  0
LINE
  5
37B
100
AcDbEntity
  8
EBENE_1
 62
     7
100
AcDbLine
 10
-57.485208
 20
-55.075363
 30
0.0
 11
-57.485208
 21
-55.075363
 31
0.0
  0
LINE
  5
37A
100
AcDbEntity
  8
EBENE_1
 62
     7
100
AcDbLine
 10
-29.883792
 20
-66.590251
 30
0.0
 11
-29.883792
 21
-60.748058
 31
0.0
  0
LINE
  5
379
100
AcDbEntity
  8
EBENE_1
 62
     7
100
AcDbLine
 10
-25.735208
 20
-66.590251
 30
0.0
 11
-25.904534
 21
-65.574637
 31
0.0
  0
LINE
  5
378
100
AcDbEntity
  8
EBENE_1
 62
     7
100
AcDbLine
 10
-25.904534
 20
-65.574637
 30
0.0
 11
-26.327936
 21
-64.558333
 31
0.0
  0
LINE
  5
377
100
AcDbEntity
  8
EBENE_1
 62
     7
100
AcDbLine
 10
-26.327936
 20
-64.558333
 30
0.0
 11
-27.005242
 21
-63.711529
 31
0.0
  0
LINE
  5
376
100
AcDbEntity
  8
EBENE_1
 62
     7
100
AcDbLine
 10
-27.005242
 20
-63.711529
 30
0.0
 11
-27.851874
 21
-63.034223
 31
0.0
  0
LINE
  5
375
100
AcDbEntity
  8
EBENE_1
 62
     7
100
AcDbLine
 10
-27.851874
 20
-63.034223
 30
0.0
 11
-28.783256
 21
-62.611165
 31
0.0
  0
LINE
  5
374
100
AcDbEntity
  8
EBENE_1
 62
     7
100
AcDbLine
 10
-28.783256
 20
-62.611165
 30
0.0
 11
-29.883792
 21
-62.526416
 31
0.0
  0
LINE
  5
373
100
AcDbEntity
  8
EBENE_1
 62
     7
100
AcDbLine
 10
-29.883792
 20
-62.526416
 30
0.0
 11
-30.9845
 21
-62.611165
 31
0.0
  0
LINE
  5
372
100
AcDbEntity
  8
EBENE_1
 62
     7
100
AcDbLine
 10
-30.9845
 20
-62.611165
 30
0.0
 11
-31.915881
 21
-63.034223
 31
0.0
  0
LINE
  5
371
100
AcDbEntity
  8
EBENE_1
 62
     7
100
AcDbLine
 10
-31.915881
 20
-63.034223
 30
0.0
 11
-32.762514
 21
-63.711529
 31
0.0
  0
LINE
  5
370
100
AcDbEntity
  8
EBENE_1
 62
     7
100
AcDbLine
 10
-32.762514
 20
-63.711529
 30
0.0
 11
-33.439819
 21
-64.558333
 31
0.0
  0
LINE
  5
36F
100
AcDbEntity
  8
EBENE_1
 62
     7
100
AcDbLine
 10
-33.439819
 20
-64.558333
 30
0.0
 11
-33.863222
 21
-65.574637
 31
0.0
  0
LINE
  5
36E
100
AcDbEntity
  8
EBENE_1
 62
     7
100
AcDbLine
 10
-33.863222
 20
-65.574637
 30
0.0
 11
-34.032548
 21
-66.590251
 31
0.0
  0
LINE
  5
36D
100
AcDbEntity
  8
EBENE_1
 62
     7
100
AcDbLine
 10
-34.032548
 20
-66.590251
 30
0.0
 11
-33.863222
 21
-67.691303
 31
0.0
  0
LINE
  5
36C
100
AcDbEntity
  8
EBENE_1
 62
     7
100
AcDbLine
 10
-33.863222
 20
-67.691303
 30
0.0
 11
-33.439819
 21
-68.706917
 31
0.0
  0
LINE
  5
36B
100
AcDbEntity
  8
EBENE_1
 62
     7
100
AcDbLine
 10
-33.439819
 20
-68.706917
 30
0.0
 11
-32.762514
 21
-69.553722
 31
0.0
  0
LINE
  5
36A
100
AcDbEntity
  8
EBENE_1
 62
     7
100
AcDbLine
 10
-32.762514
 20
-69.553722
 30
0.0
 11
-31.915881
 21
-70.231028
 31
0.0
  0
LINE
  5
369
100
AcDbEntity
  8
EBENE_1
 62
     7
100
AcDbLine
 10
-31.915881
 20
-70.231028
 30
0.0
 11
-30.9845
 21
-70.569336
 31
0.0
  0
LINE
  5
368
100
AcDbEntity
  8
EBENE_1
 62
     7
100
AcDbLine
 10
-30.9845
 20
-70.569336
 30
0.0
 11
-29.883792
 21
-70.738835
 31
0.0
  0
LINE
  5
367
100
AcDbEntity
  8
EBENE_1
 62
     7
100
AcDbLine
 10
-29.883792
 20
-70.738835
 30
0.0
 11
-28.783256
 21
-70.569336
 31
0.0
  0
LINE
  5
366
100
AcDbEntity
  8
EBENE_1
 62
     7
100
AcDbLine
 10
-28.783256
 20
-70.569336
 30
0.0
 11
-27.851874
 21
-70.231028
 31
0.0
  0
LINE
  5
365
100
AcDbEntity
  8
EBENE_1
 62
     7
100
AcDbLine
 10
-27.851874
 20
-70.231028
 30
0.0
 11
-27.005242
 21
-69.553722
 31
0.0
  0
LINE
  5
364
100
AcDbEntity
  8
EBENE_1
 62
     7
100
AcDbLine
 10
-27.005242
 20
-69.553722
 30
0.0
 11
-26.327936
 21
-68.706917
 31
0.0
  0
LINE
  5
363
100
AcDbEntity
  8
EBENE_1
 62
     7
100
AcDbLine
 10
-26.327936
 20
-68.706917
 30
0.0
 11
-25.904534
 21
-67.691303
 31
0.0
  0
LINE
  5
362
100
AcDbEntity
  8
EBENE_1
 62
     7
100
AcDbLine
 10
-25.904534
 20
-67.691303
 30
0.0
 11
-25.735208
 21
-66.590251
 31
0.0
  0
LINE
  5
361
100
AcDbEntity
  8
EBENE_1
 62
     7
100
AcDbLine
 10
-33.355242
 20
-73.532807
 30
0.0
 11
-33.355242
 21
-75.311165
 31
0.0
  0
LINE
  5
360
100
AcDbEntity
  8
EBENE_1
 62
     7
100
AcDbLine
 10
-26.412514
 20
-73.532807
 30
0.0
 11
-26.412514
 21
-75.311165
 31
0.0
  0
LINE
  5
35F
100
AcDbEntity
  8
EBENE_1
 62
     7
100
AcDbLine
 10
-37.249923
 20
-73.532807
 30
0.0
 11
-34.709854
 21
-73.532807
 31
0.0
  0
LINE
  5
35E
100
AcDbEntity
  8
EBENE_1
 62
     7
100
AcDbLine
 10
-33.355242
 20
-73.532807
 30
0.0
 11
-30.56127
 21
-73.532807
 31
0.0
  0
LINE
  5
35D
100
AcDbEntity
  8
EBENE_1
 62
     7
100
AcDbLine
 10
-29.206486
 20
-73.532807
 30
0.0
 11
-26.412514
 21
-73.532807
 31
0.0
  0
LINE
  5
35C
100
AcDbEntity
  8
EBENE_1
 62
     7
100
AcDbLine
 10
-25.057902
 20
-73.532807
 30
0.0
 11
-22.517833
 21
-73.532807
 31
0.0
  0
LINE
  5
35B
100
AcDbEntity
  8
EBENE_1
 62
     7
100
AcDbLine
 10
-22.517833
 20
-73.532807
 30
0.0
 11
-22.517833
 21
-73.532807
 31
0.0
  0
LINE
  5
35A
100
AcDbEntity
  8
EBENE_1
 62
     7
100
AcDbLine
 10
-29.883792
 20
-66.590251
 30
0.0
 11
-35.725812
 21
-66.590251
 31
0.0
  0
LINE
  5
359
100
AcDbEntity
  8
EBENE_1
 62
     7
100
AcDbLine
 10
-27.597799
 20
-66.590251
 30
0.0
 11
-27.767125
 21
-65.743446
 31
0.0
  0
LINE
  5
358
100
AcDbEntity
  8
EBENE_1
 62
     7
100
AcDbLine
 10
-27.767125
 20
-65.743446
 30
0.0
 11
-28.275277
 21
-65.06614
 31
0.0
  0
LINE
  5
357
100
AcDbEntity
  8
EBENE_1
 62
     7
100
AcDbLine
 10
-28.275277
 20
-65.06614
 30
0.0
 11
-29.03716
 21
-64.558333
 31
0.0
  0
LINE
  5
356
100
AcDbEntity
  8
EBENE_1
 62
     7
100
AcDbLine
 10
-29.03716
 20
-64.558333
 30
0.0
 11
-29.883792
 21
-64.388835
 31
0.0
  0
LINE
  5
355
100
AcDbEntity
  8
EBENE_1
 62
     7
100
AcDbLine
 10
-29.883792
 20
-64.388835
 30
0.0
 11
-30.730596
 21
-64.558333
 31
0.0
  0
LINE
  5
354
100
AcDbEntity
  8
EBENE_1
 62
     7
100
AcDbLine
 10
-30.730596
 20
-64.558333
 30
0.0
 11
-31.492479
 21
-65.06614
 31
0.0
  0
LINE
  5
353
100
AcDbEntity
  8
EBENE_1
 62
     7
100
AcDbLine
 10
-31.492479
 20
-65.06614
 30
0.0
 11
-32.000458
 21
-65.743446
 31
0.0
  0
LINE
  5
352
100
AcDbEntity
  8
EBENE_1
 62
     7
100
AcDbLine
 10
-32.000458
 20
-65.743446
 30
0.0
 11
-32.169785
 21
-66.590251
 31
0.0
  0
LINE
  5
351
100
AcDbEntity
  8
EBENE_1
 62
     7
100
AcDbLine
 10
-32.169785
 20
-66.590251
 30
0.0
 11
-32.000458
 21
-67.521804
 31
0.0
  0
LINE
  5
350
100
AcDbEntity
  8
EBENE_1
 62
     7
100
AcDbLine
 10
-32.000458
 20
-67.521804
 30
0.0
 11
-31.492479
 21
-68.19911
 31
0.0
  0
LINE
  5
34F
100
AcDbEntity
  8
EBENE_1
 62
     7
100
AcDbLine
 10
-31.492479
 20
-68.19911
 30
0.0
 11
-30.730596
 21
-68.706917
 31
0.0
  0
LINE
  5
34E
100
AcDbEntity
  8
EBENE_1
 62
     7
100
AcDbLine
 10
-30.730596
 20
-68.706917
 30
0.0
 11
-29.883792
 21
-68.876416
 31
0.0
  0
LINE
  5
34D
100
AcDbEntity
  8
EBENE_1
 62
     7
100
AcDbLine
 10
-29.883792
 20
-68.876416
 30
0.0
 11
-29.03716
 21
-68.706917
 31
0.0
  0
LINE
  5
34C
100
AcDbEntity
  8
EBENE_1
 62
     7
100
AcDbLine
 10
-29.03716
 20
-68.706917
 30
0.0
 11
-28.275277
 21
-68.19911
 31
0.0
  0
LINE
  5
34B
100
AcDbEntity
  8
EBENE_1
 62
     7
100
AcDbLine
 10
-28.275277
 20
-68.19911
 30
0.0
 11
-27.767125
 21
-67.521804
 31
0.0
  0
LINE
  5
34A
100
AcDbEntity
  8
EBENE_1
 62
     7
100
AcDbLine
 10
-27.767125
 20
-67.521804
 30
0.0
 11
-27.597799
 21
-66.590251
 31
0.0
  0
LINE
  5
349
100
AcDbEntity
  8
EBENE_1
 62
     7
100
AcDbLine
 10
-29.883792
 20
-66.590251
 30
0.0
 11
-24.041943
 21
-66.590251
 31
0.0
  0
LINE
  5
348
100
AcDbEntity
  8
EBENE_1
 62
     7
100
AcDbLine
 10
-29.883792
 20
-66.590251
 30
0.0
 11
-29.883792
 21
-72.517193
 31
0.0
  0
LINE
  5
347
100
AcDbEntity
  8
EBENE_1
 62
     7
100
AcDbLine
 10
-29.883792
 20
-44.915777
 30
0.0
 11
-35.725812
 21
-44.915777
 31
0.0
  0
LINE
  5
346
100
AcDbEntity
  8
EBENE_1
 62
     7
100
AcDbLine
 10
-29.883792
 20
-44.915777
 30
0.0
 11
-24.041943
 21
-44.915777
 31
0.0
  0
LINE
  5
345
100
AcDbEntity
  8
EBENE_1
 62
     7
100
AcDbLine
 10
-29.883792
 20
-44.915777
 30
0.0
 11
-29.883792
 21
-50.84203
 31
0.0
  0
LINE
  5
344
100
AcDbEntity
  8
EBENE_1
 62
     7
100
AcDbLine
 10
2.28961
 20
-113.749474
 30
0.0
 11
57.407349
 21
-113.749474
 31
0.0
  0
LINE
  5
343
100
AcDbEntity
  8
EBENE_1
 62
     7
100
AcDbLine
 10
2.28961
 20
-123.825
 30
0.0
 11
57.407349
 21
-123.825
 31
0.0
  0
LINE
  5
342
100
AcDbEntity
  8
EBENE_1
 62
     7
100
AcDbLine
 10
20.662305
 20
-103.25089
 30
0.0
 11
20.662305
 21
-134.323584
 31
0.0
  0
LINE
  5
341
100
AcDbEntity
  8
EBENE_1
 62
     7
100
AcDbLine
 10
20.662305
 20
-134.323584
 30
0.0
 11
57.407349
 21
-134.323584
 31
0.0
  0
LINE
  5
340
100
AcDbEntity
  8
EBENE_1
 62
     7
100
AcDbLine
 10
57.407349
 20
-134.323584
 30
0.0
 11
57.407349
 21
-103.25089
 31
0.0
  0
LINE
  5
33F
100
AcDbEntity
  8
EBENE_1
 62
     7
100
AcDbLine
 10
57.407349
 20
-103.25089
 30
0.0
 11
20.662305
 21
-103.25089
 31
0.0
  0
LINE
  5
33E
100
AcDbEntity
  8
EBENE_1
 62
     7
100
AcDbLine
 10
2.28961
 20
-103.25089
 30
0.0
 11
2.28961
 21
-134.323584
 31
0.0
  0
LINE
  5
33D
100
AcDbEntity
  8
EBENE_1
 62
     7
100
AcDbLine
 10
2.28961
 20
-134.323584
 30
0.0
 11
20.662305
 21
-134.323584
 31
0.0
  0
LINE
  5
33C
100
AcDbEntity
  8
EBENE_1
 62
     7
100
AcDbLine
 10
7.623307
 20
-127.635276
 30
0.0
 11
7.623307
 21
-127.381028
 31
0.0
  0
LINE
  5
33B
100
AcDbEntity
  8
EBENE_1
 62
     7
100
AcDbLine
 10
7.623307
 20
-127.381028
 30
0.0
 11
7.877555
 21
-126.788471
 31
0.0
  0
LINE
  5
33A
100
AcDbEntity
  8
EBENE_1
 62
     7
100
AcDbLine
 10
7.877555
 20
-126.788471
 30
0.0
 11
8.04671
 21
-126.534223
 31
0.0
  0
LINE
  5
339
100
AcDbEntity
  8
EBENE_1
 62
     7
100
AcDbLine
 10
8.04671
 20
-126.534223
 30
0.0
 11
8.470112
 21
-126.195915
 31
0.0
  0
LINE
  5
338
100
AcDbEntity
  8
EBENE_1
 62
     7
100
AcDbLine
 10
8.470112
 20
-126.195915
 30
0.0
 11
9.232167
 21
-126.195915
 31
0.0
  0
LINE
  5
337
100
AcDbEntity
  8
EBENE_1
 62
     7
100
AcDbLine
 10
9.232167
 20
-126.195915
 30
0.0
 11
9.655225
 21
-126.534223
 31
0.0
  0
LINE
  5
336
100
AcDbEntity
  8
EBENE_1
 62
     7
100
AcDbLine
 10
9.655225
 20
-126.534223
 30
0.0
 11
9.824723
 21
-126.788471
 31
0.0
  0
LINE
  5
335
100
AcDbEntity
  8
EBENE_1
 62
     7
100
AcDbLine
 10
9.824723
 20
-126.788471
 30
0.0
 11
9.994222
 21
-127.381028
 31
0.0
  0
LINE
  5
334
100
AcDbEntity
  8
EBENE_1
 62
     7
100
AcDbLine
 10
9.994222
 20
-127.381028
 30
0.0
 11
9.994222
 21
-127.888835
 31
0.0
  0
LINE
  5
333
100
AcDbEntity
  8
EBENE_1
 62
     7
100
AcDbLine
 10
9.994222
 20
-127.888835
 30
0.0
 11
9.824723
 21
-128.481391
 31
0.0
  0
LINE
  5
332
100
AcDbEntity
  8
EBENE_1
 62
     7
100
AcDbLine
 10
9.824723
 20
-128.481391
 30
0.0
 11
9.401666
 21
-129.328196
 31
0.0
  0
LINE
  5
331
100
AcDbEntity
  8
EBENE_1
 62
     7
100
AcDbLine
 10
9.401666
 20
-129.328196
 30
0.0
 11
7.454153
 21
-132.122168
 31
0.0
  0
LINE
  5
330
100
AcDbEntity
  8
EBENE_1
 62
     7
100
AcDbLine
 10
7.454153
 20
-132.122168
 30
0.0
 11
10.248126
 21
-132.122168
 31
0.0
  0
LINE
  5
32F
100
AcDbEntity
  8
EBENE_1
 62
     7
100
AcDbLine
 10
12.026139
 20
-127.381028
 30
0.0
 11
12.364792
 21
-127.04203
 31
0.0
  0
LINE
  5
32E
100
AcDbEntity
  8
EBENE_1
 62
     7
100
AcDbLine
 10
12.364792
 20
-127.04203
 30
0.0
 11
12.957693
 21
-126.195915
 31
0.0
  0
LINE
  5
32D
100
AcDbEntity
  8
EBENE_1
 62
     7
100
AcDbLine
 10
12.957693
 20
-126.195915
 30
0.0
 11
12.957693
 21
-132.122168
 31
0.0
  0
LINE
  5
32C
100
AcDbEntity
  8
EBENE_1
 62
     7
100
AcDbLine
 10
8.04671
 20
-116.882444
 30
0.0
 11
8.470112
 21
-116.543446
 31
0.0
  0
LINE
  5
32B
100
AcDbEntity
  8
EBENE_1
 62
     7
100
AcDbLine
 10
8.470112
 20
-116.543446
 30
0.0
 11
9.062668
 21
-115.697331
 31
0.0
  0
LINE
  5
32A
100
AcDbEntity
  8
EBENE_1
 62
     7
100
AcDbLine
 10
9.062668
 20
-115.697331
 30
0.0
 11
9.062668
 21
-121.623584
 31
0.0
  0
LINE
  5
329
100
AcDbEntity
  8
EBENE_1
 62
     7
100
AcDbLine
 10
13.973307
 20
-117.729248
 30
0.0
 11
13.719404
 21
-118.575363
 31
0.0
  0
LINE
  5
328
100
AcDbEntity
  8
EBENE_1
 62
     7
100
AcDbLine
 10
13.719404
 20
-118.575363
 30
0.0
 11
13.380751
 21
-119.08386
 31
0.0
  0
LINE
  5
327
100
AcDbEntity
  8
EBENE_1
 62
     7
100
AcDbLine
 10
13.380751
 20
-119.08386
 30
0.0
 11
12.788194
 21
-119.337419
 31
0.0
  0
LINE
  5
326
100
AcDbEntity
  8
EBENE_1
 62
     7
100
AcDbLine
 10
12.788194
 20
-119.337419
 30
0.0
 11
12.533946
 21
-119.337419
 31
0.0
  0
LINE
  5
325
100
AcDbEntity
  8
EBENE_1
 62
     7
100
AcDbLine
 10
12.533946
 20
-119.337419
 30
0.0
 11
12.026139
 21
-119.08386
 31
0.0
  0
LINE
  5
324
100
AcDbEntity
  8
EBENE_1
 62
     7
100
AcDbLine
 10
12.026139
 20
-119.08386
 30
0.0
 11
11.602737
 21
-118.575363
 31
0.0
  0
LINE
  5
323
100
AcDbEntity
  8
EBENE_1
 62
     7
100
AcDbLine
 10
11.602737
 20
-118.575363
 30
0.0
 11
11.433583
 21
-117.729248
 31
0.0
  0
LINE
  5
322
100
AcDbEntity
  8
EBENE_1
 62
     7
100
AcDbLine
 10
11.433583
 20
-117.729248
 30
0.0
 11
11.433583
 21
-117.390251
 31
0.0
  0
LINE
  5
321
100
AcDbEntity
  8
EBENE_1
 62
     7
100
AcDbLine
 10
11.433583
 20
-117.390251
 30
0.0
 11
11.602737
 21
-116.543446
 31
0.0
  0
LINE
  5
320
100
AcDbEntity
  8
EBENE_1
 62
     7
100
AcDbLine
 10
11.602737
 20
-116.543446
 30
0.0
 11
12.026139
 21
-116.035639
 31
0.0
  0
LINE
  5
31F
100
AcDbEntity
  8
EBENE_1
 62
     7
100
AcDbLine
 10
12.026139
 20
-116.035639
 30
0.0
 11
12.533946
 21
-115.697331
 31
0.0
  0
LINE
  5
31E
100
AcDbEntity
  8
EBENE_1
 62
     7
100
AcDbLine
 10
12.533946
 20
-115.697331
 30
0.0
 11
12.788194
 21
-115.697331
 31
0.0
  0
LINE
  5
31D
100
AcDbEntity
  8
EBENE_1
 62
     7
100
AcDbLine
 10
12.788194
 20
-115.697331
 30
0.0
 11
13.380751
 21
-116.035639
 31
0.0
  0
LINE
  5
31C
100
AcDbEntity
  8
EBENE_1
 62
     7
100
AcDbLine
 10
13.380751
 20
-116.035639
 30
0.0
 11
13.719404
 21
-116.543446
 31
0.0
  0
LINE
  5
31B
100
AcDbEntity
  8
EBENE_1
 62
     7
100
AcDbLine
 10
13.719404
 20
-116.543446
 30
0.0
 11
13.973307
 21
-117.729248
 31
0.0
  0
LINE
  5
31A
100
AcDbEntity
  8
EBENE_1
 62
     7
100
AcDbLine
 10
13.973307
 20
-117.729248
 30
0.0
 11
13.973307
 21
-119.08386
 31
0.0
  0
LINE
  5
319
100
AcDbEntity
  8
EBENE_1
 62
     7
100
AcDbLine
 10
13.973307
 20
-119.08386
 30
0.0
 11
13.719404
 21
-120.52322
 31
0.0
  0
LINE
  5
318
100
AcDbEntity
  8
EBENE_1
 62
     7
100
AcDbLine
 10
13.719404
 20
-120.52322
 30
0.0
 11
13.380751
 21
-121.369336
 31
0.0
  0
LINE
  5
317
100
AcDbEntity
  8
EBENE_1
 62
     7
100
AcDbLine
 10
13.380751
 20
-121.369336
 30
0.0
 11
12.788194
 21
-121.623584
 31
0.0
  0
LINE
  5
316
100
AcDbEntity
  8
EBENE_1
 62
     7
100
AcDbLine
 10
12.788194
 20
-121.623584
 30
0.0
 11
12.364792
 21
-121.623584
 31
0.0
  0
LINE
  5
315
100
AcDbEntity
  8
EBENE_1
 62
     7
100
AcDbLine
 10
12.364792
 20
-121.623584
 30
0.0
 11
11.771891
 21
-121.369336
 31
0.0
  0
LINE
  5
314
100
AcDbEntity
  8
EBENE_1
 62
     7
100
AcDbLine
 10
11.771891
 20
-121.369336
 30
0.0
 11
11.602737
 21
-120.77678
 31
0.0
  0
LINE
  5
313
100
AcDbEntity
  8
EBENE_1
 62
     7
100
AcDbLine
 10
11.518332
 20
-106.214361
 30
0.0
 11
9.909473
 21
-112.141303
 31
0.0
  0
LINE
  5
312
100
AcDbEntity
  8
EBENE_1
 62
     7
100
AcDbLine
 10
11.518332
 20
-106.214361
 30
0.0
 11
13.042098
 21
-112.141303
 31
0.0
  0
LINE
  5
311
100
AcDbEntity
  8
EBENE_1
 62
     7
100
AcDbLine
 10
10.502029
 20
-110.193446
 30
0.0
 11
12.449542
 21
-110.193446
 31
0.0
  0
LINE
  5
310
100
AcDbEntity
  8
EBENE_1
 62
     7
100
AcDbLine
 10
-20.739819
 20
-127.973584
 30
0.0
 11
-20.739819
 21
-122.385639
 31
0.0
  0
LINE
  5
30F
100
AcDbEntity
  8
EBENE_1
 62
     7
100
AcDbLine
 10
20.662305
 20
-103.25089
 30
0.0
 11
2.28961
 21
-103.25089
 31
0.0
  0
LINE
  5
30E
100
AcDbEntity
  8
EBENE_1
 62
     7
100
AcDbLine
 10
39.034654
 20
-103.25089
 30
0.0
 11
39.034654
 21
-134.323584
 31
0.0
  0
LINE
  5
30D
100
AcDbEntity
  8
EBENE_1
 62
     7
100
AcDbLine
 10
27.77436
 20
-125.941667
 30
0.0
 11
25.826847
 21
-129.836003
 31
0.0
  0
LINE
  5
30C
100
AcDbEntity
  8
EBENE_1
 62
     7
100
AcDbLine
 10
25.826847
 20
-129.836003
 30
0.0
 11
28.789974
 21
-129.836003
 31
0.0
  0
LINE
  5
30B
100
AcDbEntity
  8
EBENE_1
 62
     7
100
AcDbLine
 10
27.77436
 20
-125.941667
 30
0.0
 11
27.77436
 21
-131.78386
 31
0.0
  0
LINE
  5
30A
100
AcDbEntity
  8
EBENE_1
 62
     7
100
AcDbLine
 10
30.398834
 20
-131.529612
 30
0.0
 11
30.14493
 21
-131.78386
 31
0.0
  0
LINE
  5
309
100
AcDbEntity
  8
EBENE_1
 62
     7
100
AcDbLine
 10
30.14493
 20
-131.78386
 30
0.0
 11
29.975431
 21
-131.529612
 31
0.0
  0
LINE
  5
308
100
AcDbEntity
  8
EBENE_1
 62
     7
100
AcDbLine
 10
29.975431
 20
-131.529612
 30
0.0
 11
30.14493
 21
-131.275363
 31
0.0
  0
LINE
  5
307
100
AcDbEntity
  8
EBENE_1
 62
     7
100
AcDbLine
 10
30.14493
 20
-131.275363
 30
0.0
 11
30.398834
 21
-131.529612
 31
0.0
  0
LINE
  5
306
100
AcDbEntity
  8
EBENE_1
 62
     7
100
AcDbLine
 10
30.398834
 20
-131.529612
 30
0.0
 11
30.398834
 21
-132.122168
 31
0.0
  0
LINE
  5
305
100
AcDbEntity
  8
EBENE_1
 62
     7
100
AcDbLine
 10
30.398834
 20
-132.122168
 30
0.0
 11
30.14493
 21
-132.630664
 31
0.0
  0
LINE
  5
304
100
AcDbEntity
  8
EBENE_1
 62
     7
100
AcDbLine
 10
30.14493
 20
-132.630664
 30
0.0
 11
29.975431
 21
-132.968972
 31
0.0
  0
LINE
  5
303
100
AcDbEntity
  8
EBENE_1
 62
     7
100
AcDbLine
 10
34.462668
 20
-125.941667
 30
0.0
 11
32.5155
 21
-131.78386
 31
0.0
  0
LINE
  5
302
100
AcDbEntity
  8
EBENE_1
 62
     7
100
AcDbLine
 10
31.753445
 20
-125.941667
 30
0.0
 11
34.462668
 21
-125.941667
 31
0.0
  0
LINE
  5
301
100
AcDbEntity
  8
EBENE_1
 62
     7
100
AcDbLine
 10
44.453445
 20
-125.941667
 30
0.0
 11
46.570112
 21
-125.941667
 31
0.0
  0
LINE
  5
300
100
AcDbEntity
  8
EBENE_1
 62
     7
100
AcDbLine
 10
46.570112
 20
-125.941667
 30
0.0
 11
45.384654
 21
-128.143083
 31
0.0
  0
LINE
  5
2FF
100
AcDbEntity
  8
EBENE_1
 62
     7
100
AcDbLine
 10
45.384654
 20
-128.143083
 30
0.0
 11
45.977555
 21
-128.143083
 31
0.0
  0
LINE
  5
2FE
100
AcDbEntity
  8
EBENE_1
 62
     7
100
AcDbLine
 10
45.977555
 20
-128.143083
 30
0.0
 11
46.400958
 21
-128.397331
 31
0.0
  0
LINE
  5
2FD
100
AcDbEntity
  8
EBENE_1
 62
     7
100
AcDbLine
 10
46.400958
 20
-128.397331
 30
0.0
 11
46.570112
 21
-128.735639
 31
0.0
  0
LINE
  5
2FC
100
AcDbEntity
  8
EBENE_1
 62
     7
100
AcDbLine
 10
46.570112
 20
-128.735639
 30
0.0
 11
46.73961
 21
-129.582444
 31
0.0
  0
LINE
  5
2FB
100
AcDbEntity
  8
EBENE_1
 62
     7
100
AcDbLine
 10
46.73961
 20
-129.582444
 30
0.0
 11
46.73961
 21
-130.090251
 31
0.0
  0
LINE
  5
2FA
100
AcDbEntity
  8
EBENE_1
 62
     7
100
AcDbLine
 10
46.73961
 20
-130.090251
 30
0.0
 11
46.570112
 21
-130.937055
 31
0.0
  0
LINE
  5
2F9
100
AcDbEntity
  8
EBENE_1
 62
     7
100
AcDbLine
 10
46.570112
 20
-130.937055
 30
0.0
 11
46.14671
 21
-131.529612
 31
0.0
  0
LINE
  5
2F8
100
AcDbEntity
  8
EBENE_1
 62
     7
100
AcDbLine
 10
46.14671
 20
-131.529612
 30
0.0
 11
45.554153
 21
-131.78386
 31
0.0
  0
LINE
  5
2F7
100
AcDbEntity
  8
EBENE_1
 62
     7
100
AcDbLine
 10
45.554153
 20
-131.78386
 30
0.0
 11
45.046002
 21
-131.78386
 31
0.0
  0
LINE
  5
2F6
100
AcDbEntity
  8
EBENE_1
 62
     7
100
AcDbLine
 10
45.046002
 20
-131.78386
 30
0.0
 11
44.453445
 21
-131.529612
 31
0.0
  0
LINE
  5
2F5
100
AcDbEntity
  8
EBENE_1
 62
     7
100
AcDbLine
 10
44.453445
 20
-131.529612
 30
0.0
 11
44.199542
 21
-131.275363
 31
0.0
  0
LINE
  5
2F4
100
AcDbEntity
  8
EBENE_1
 62
     7
100
AcDbLine
 10
44.199542
 20
-131.275363
 30
0.0
 11
44.030043
 21
-130.682807
 31
0.0
  0
LINE
  5
2F3
100
AcDbEntity
  8
EBENE_1
 62
     7
100
AcDbLine
 10
48.517624
 20
-131.529612
 30
0.0
 11
48.348126
 21
-131.78386
 31
0.0
  0
LINE
  5
2F2
100
AcDbEntity
  8
EBENE_1
 62
     7
100
AcDbLine
 10
48.348126
 20
-131.78386
 30
0.0
 11
48.178627
 21
-131.529612
 31
0.0
  0
LINE
  5
2F1
100
AcDbEntity
  8
EBENE_1
 62
     7
100
AcDbLine
 10
48.178627
 20
-131.529612
 30
0.0
 11
48.348126
 21
-131.275363
 31
0.0
  0
LINE
  5
2F0
100
AcDbEntity
  8
EBENE_1
 62
     7
100
AcDbLine
 10
48.348126
 20
-131.275363
 30
0.0
 11
48.517624
 21
-131.529612
 31
0.0
  0
LINE
  5
2EF
100
AcDbEntity
  8
EBENE_1
 62
     7
100
AcDbLine
 10
48.517624
 20
-131.529612
 30
0.0
 11
48.517624
 21
-132.122168
 31
0.0
  0
LINE
  5
2EE
100
AcDbEntity
  8
EBENE_1
 62
     7
100
AcDbLine
 10
48.517624
 20
-132.122168
 30
0.0
 11
48.348126
 21
-132.630664
 31
0.0
  0
LINE
  5
2ED
100
AcDbEntity
  8
EBENE_1
 62
     7
100
AcDbLine
 10
48.348126
 20
-132.630664
 30
0.0
 11
48.178627
 21
-132.968972
 31
0.0
  0
LINE
  5
2EC
100
AcDbEntity
  8
EBENE_1
 62
     7
100
AcDbLine
 10
52.666208
 20
-125.941667
 30
0.0
 11
50.718696
 21
-131.78386
 31
0.0
  0
LINE
  5
2EB
100
AcDbEntity
  8
EBENE_1
 62
     7
100
AcDbLine
 10
49.956641
 20
-125.941667
 30
0.0
 11
52.666208
 21
-125.941667
 31
0.0
  0
LINE
  5
2EA
100
AcDbEntity
  8
EBENE_1
 62
     7
100
AcDbLine
 10
26.25025
 20
-115.697331
 30
0.0
 11
28.366916
 21
-115.697331
 31
0.0
  0
LINE
  5
2E9
100
AcDbEntity
  8
EBENE_1
 62
     7
100
AcDbLine
 10
28.366916
 20
-115.697331
 30
0.0
 11
27.181459
 21
-117.982807
 31
0.0
  0
LINE
  5
2E8
100
AcDbEntity
  8
EBENE_1
 62
     7
100
AcDbLine
 10
27.181459
 20
-117.982807
 30
0.0
 11
27.77436
 21
-117.982807
 31
0.0
  0
LINE
  5
2E7
100
AcDbEntity
  8
EBENE_1
 62
     7
100
AcDbLine
 10
27.77436
 20
-117.982807
 30
0.0
 11
28.197418
 21
-118.237055
 31
0.0
  0
LINE
  5
2E6
100
AcDbEntity
  8
EBENE_1
 62
     7
100
AcDbLine
 10
28.197418
 20
-118.237055
 30
0.0
 11
28.366916
 21
-118.575363
 31
0.0
  0
LINE
  5
2E5
100
AcDbEntity
  8
EBENE_1
 62
     7
100
AcDbLine
 10
28.366916
 20
-118.575363
 30
0.0
 11
28.62082
 21
-119.337419
 31
0.0
  0
LINE
  5
2E4
100
AcDbEntity
  8
EBENE_1
 62
     7
100
AcDbLine
 10
28.62082
 20
-119.337419
 30
0.0
 11
28.62082
 21
-119.930664
 31
0.0
  0
LINE
  5
2E3
100
AcDbEntity
  8
EBENE_1
 62
     7
100
AcDbLine
 10
28.62082
 20
-119.930664
 30
0.0
 11
28.366916
 21
-120.77678
 31
0.0
  0
LINE
  5
2E2
100
AcDbEntity
  8
EBENE_1
 62
     7
100
AcDbLine
 10
28.366916
 20
-120.77678
 30
0.0
 11
28.027919
 21
-121.369336
 31
0.0
  0
LINE
  5
2E1
100
AcDbEntity
  8
EBENE_1
 62
     7
100
AcDbLine
 10
28.027919
 20
-121.369336
 30
0.0
 11
27.435362
 21
-121.623584
 31
0.0
  0
LINE
  5
2E0
100
AcDbEntity
  8
EBENE_1
 62
     7
100
AcDbLine
 10
27.435362
 20
-121.623584
 30
0.0
 11
26.842806
 21
-121.623584
 31
0.0
  0
LINE
  5
2DF
100
AcDbEntity
  8
EBENE_1
 62
     7
100
AcDbLine
 10
26.842806
 20
-121.623584
 30
0.0
 11
26.25025
 21
-121.369336
 31
0.0
  0
LINE
  5
2DE
100
AcDbEntity
  8
EBENE_1
 62
     7
100
AcDbLine
 10
26.25025
 20
-121.369336
 30
0.0
 11
25.996002
 21
-121.031028
 31
0.0
  0
LINE
  5
2DD
100
AcDbEntity
  8
EBENE_1
 62
     7
100
AcDbLine
 10
25.996002
 20
-121.031028
 30
0.0
 11
25.826847
 21
-120.52322
 31
0.0
  0
LINE
  5
2DC
100
AcDbEntity
  8
EBENE_1
 62
     7
100
AcDbLine
 10
30.398834
 20
-121.369336
 30
0.0
 11
30.14493
 21
-121.623584
 31
0.0
  0
LINE
  5
2DB
100
AcDbEntity
  8
EBENE_1
 62
     7
100
AcDbLine
 10
30.14493
 20
-121.623584
 30
0.0
 11
29.975431
 21
-121.369336
 31
0.0
  0
LINE
  5
2DA
100
AcDbEntity
  8
EBENE_1
 62
     7
100
AcDbLine
 10
29.975431
 20
-121.369336
 30
0.0
 11
30.14493
 21
-121.031028
 31
0.0
  0
LINE
  5
2D9
100
AcDbEntity
  8
EBENE_1
 62
     7
100
AcDbLine
 10
30.14493
 20
-121.031028
 30
0.0
 11
30.398834
 21
-121.369336
 31
0.0
  0
LINE
  5
2D8
100
AcDbEntity
  8
EBENE_1
 62
     7
100
AcDbLine
 10
30.398834
 20
-121.369336
 30
0.0
 11
30.398834
 21
-121.877832
 31
0.0
  0
LINE
  5
2D7
100
AcDbEntity
  8
EBENE_1
 62
     7
100
AcDbLine
 10
30.398834
 20
-121.877832
 30
0.0
 11
30.14493
 21
-122.470388
 31
0.0
  0
LINE
  5
2D6
100
AcDbEntity
  8
EBENE_1
 62
     7
100
AcDbLine
 10
30.14493
 20
-122.470388
 30
0.0
 11
29.975431
 21
-122.724637
 31
0.0
  0
LINE
  5
2D5
100
AcDbEntity
  8
EBENE_1
 62
     7
100
AcDbLine
 10
34.462668
 20
-115.697331
 30
0.0
 11
32.5155
 21
-121.623584
 31
0.0
  0
LINE
  5
2D4
100
AcDbEntity
  8
EBENE_1
 62
     7
100
AcDbLine
 10
31.753445
 20
-115.697331
 30
0.0
 11
34.462668
 21
-115.697331
 31
0.0
  0
LINE
  5
2D3
100
AcDbEntity
  8
EBENE_1
 62
     7
100
AcDbLine
 10
28.874723
 20
-106.214361
 30
0.0
 11
28.874723
 21
-112.141303
 31
0.0
  0
LINE
  5
2D2
100
AcDbEntity
  8
EBENE_1
 62
     7
100
AcDbLine
 10
28.874723
 20
-106.214361
 30
0.0
 11
30.652737
 21
-106.214361
 31
0.0
  0
LINE
  5
2D1
100
AcDbEntity
  8
EBENE_1
 62
     7
100
AcDbLine
 10
30.652737
 20
-106.214361
 30
0.0
 11
31.245294
 21
-106.552669
 31
0.0
  0
LINE
  5
2D0
100
AcDbEntity
  8
EBENE_1
 62
     7
100
AcDbLine
 10
31.245294
 20
-106.552669
 30
0.0
 11
31.414792
 21
-106.806917
 31
0.0
  0
LINE
  5
2CF
100
AcDbEntity
  8
EBENE_1
 62
     7
100
AcDbLine
 10
31.414792
 20
-106.806917
 30
0.0
 11
31.668696
 21
-107.314724
 31
0.0
  0
LINE
  5
2CE
100
AcDbEntity
  8
EBENE_1
 62
     7
100
AcDbLine
 10
31.668696
 20
-107.314724
 30
0.0
 11
31.668696
 21
-107.90797
 31
0.0
  0
LINE
  5
2CD
100
AcDbEntity
  8
EBENE_1
 62
     7
100
AcDbLine
 10
31.668696
 20
-107.90797
 30
0.0
 11
31.414792
 21
-108.500526
 31
0.0
  0
LINE
  5
2CC
100
AcDbEntity
  8
EBENE_1
 62
     7
100
AcDbLine
 10
31.414792
 20
-108.500526
 30
0.0
 11
31.245294
 21
-108.754085
 31
0.0
  0
LINE
  5
2CB
100
AcDbEntity
  8
EBENE_1
 62
     7
100
AcDbLine
 10
31.245294
 20
-108.754085
 30
0.0
 11
30.652737
 21
-109.008333
 31
0.0
  0
LINE
  5
2CA
100
AcDbEntity
  8
EBENE_1
 62
     7
100
AcDbLine
 10
28.874723
 20
-109.008333
 30
0.0
 11
30.652737
 21
-109.008333
 31
0.0
  0
LINE
  5
2C9
100
AcDbEntity
  8
EBENE_1
 62
     7
100
AcDbLine
 10
30.652737
 20
-109.008333
 30
0.0
 11
31.245294
 21
-109.347331
 31
0.0
  0
LINE
  5
2C8
100
AcDbEntity
  8
EBENE_1
 62
     7
100
AcDbLine
 10
31.245294
 20
-109.347331
 30
0.0
 11
31.414792
 21
-109.60089
 31
0.0
  0
LINE
  5
2C7
100
AcDbEntity
  8
EBENE_1
 62
     7
100
AcDbLine
 10
31.414792
 20
-109.60089
 30
0.0
 11
31.668696
 21
-110.193446
 31
0.0
  0
LINE
  5
2C6
100
AcDbEntity
  8
EBENE_1
 62
     7
100
AcDbLine
 10
31.668696
 20
-110.193446
 30
0.0
 11
31.668696
 21
-111.040251
 31
0.0
  0
LINE
  5
2C5
100
AcDbEntity
  8
EBENE_1
 62
     7
100
AcDbLine
 10
31.668696
 20
-111.040251
 30
0.0
 11
31.414792
 21
-111.548058
 31
0.0
  0
LINE
  5
2C4
100
AcDbEntity
  8
EBENE_1
 62
     7
100
AcDbLine
 10
31.414792
 20
-111.548058
 30
0.0
 11
31.245294
 21
-111.887055
 31
0.0
  0
LINE
  5
2C3
100
AcDbEntity
  8
EBENE_1
 62
     7
100
AcDbLine
 10
31.245294
 20
-111.887055
 30
0.0
 11
30.652737
 21
-112.141303
 31
0.0
  0
LINE
  5
2C2
100
AcDbEntity
  8
EBENE_1
 62
     7
100
AcDbLine
 10
30.652737
 20
-112.141303
 30
0.0
 11
28.874723
 21
-112.141303
 31
0.0
  0
LINE
  5
2C1
100
AcDbEntity
  8
EBENE_1
 62
     7
100
AcDbLine
 10
44.199542
 20
-117.136003
 30
0.0
 11
44.199542
 21
-116.882444
 31
0.0
  0
LINE
  5
2C0
100
AcDbEntity
  8
EBENE_1
 62
     7
100
AcDbLine
 10
44.199542
 20
-116.882444
 30
0.0
 11
44.453445
 21
-116.289887
 31
0.0
  0
LINE
  5
2BF
100
AcDbEntity
  8
EBENE_1
 62
     7
100
AcDbLine
 10
44.453445
 20
-116.289887
 30
0.0
 11
44.622944
 21
-116.035639
 31
0.0
  0
LINE
  5
2BE
100
AcDbEntity
  8
EBENE_1
 62
     7
100
AcDbLine
 10
44.622944
 20
-116.035639
 30
0.0
 11
45.046002
 21
-115.697331
 31
0.0
  0
LINE
  5
2BD
100
AcDbEntity
  8
EBENE_1
 62
     7
100
AcDbLine
 10
45.046002
 20
-115.697331
 30
0.0
 11
45.808057
 21
-115.697331
 31
0.0
  0
LINE
  5
2BC
100
AcDbEntity
  8
EBENE_1
 62
     7
100
AcDbLine
 10
45.808057
 20
-115.697331
 30
0.0
 11
46.14671
 21
-116.035639
 31
0.0
  0
LINE
  5
2BB
100
AcDbEntity
  8
EBENE_1
 62
     7
100
AcDbLine
 10
46.14671
 20
-116.035639
 30
0.0
 11
46.400958
 21
-116.289887
 31
0.0
  0
LINE
  5
2BA
100
AcDbEntity
  8
EBENE_1
 62
     7
100
AcDbLine
 10
46.400958
 20
-116.289887
 30
0.0
 11
46.570112
 21
-116.882444
 31
0.0
  0
LINE
  5
2B9
100
AcDbEntity
  8
EBENE_1
 62
     7
100
AcDbLine
 10
46.570112
 20
-116.882444
 30
0.0
 11
46.570112
 21
-117.390251
 31
0.0
  0
LINE
  5
2B8
100
AcDbEntity
  8
EBENE_1
 62
     7
100
AcDbLine
 10
46.570112
 20
-117.390251
 30
0.0
 11
46.400958
 21
-117.982807
 31
0.0
  0
LINE
  5
2B7
100
AcDbEntity
  8
EBENE_1
 62
     7
100
AcDbLine
 10
46.400958
 20
-117.982807
 30
0.0
 11
45.977555
 21
-118.829612
 31
0.0
  0
LINE
  5
2B6
100
AcDbEntity
  8
EBENE_1
 62
     7
100
AcDbLine
 10
45.977555
 20
-118.829612
 30
0.0
 11
44.030043
 21
-121.623584
 31
0.0
  0
LINE
  5
2B5
100
AcDbEntity
  8
EBENE_1
 62
     7
100
AcDbLine
 10
44.030043
 20
-121.623584
 30
0.0
 11
46.73961
 21
-121.623584
 31
0.0
  0
LINE
  5
2B4
100
AcDbEntity
  8
EBENE_1
 62
     7
100
AcDbLine
 10
48.517624
 20
-121.369336
 30
0.0
 11
48.348126
 21
-121.623584
 31
0.0
  0
LINE
  5
2B3
100
AcDbEntity
  8
EBENE_1
 62
     7
100
AcDbLine
 10
48.348126
 20
-121.623584
 30
0.0
 11
48.178627
 21
-121.369336
 31
0.0
  0
LINE
  5
2B2
100
AcDbEntity
  8
EBENE_1
 62
     7
100
AcDbLine
 10
48.178627
 20
-121.369336
 30
0.0
 11
48.348126
 21
-121.031028
 31
0.0
  0
LINE
  5
2B1
100
AcDbEntity
  8
EBENE_1
 62
     7
100
AcDbLine
 10
48.348126
 20
-121.031028
 30
0.0
 11
48.517624
 21
-121.369336
 31
0.0
  0
LINE
  5
2B0
100
AcDbEntity
  8
EBENE_1
 62
     7
100
AcDbLine
 10
48.517624
 20
-121.369336
 30
0.0
 11
48.517624
 21
-121.877832
 31
0.0
  0
LINE
  5
2AF
100
AcDbEntity
  8
EBENE_1
 62
     7
100
AcDbLine
 10
48.517624
 20
-121.877832
 30
0.0
 11
48.348126
 21
-122.470388
 31
0.0
  0
LINE
  5
2AE
100
AcDbEntity
  8
EBENE_1
 62
     7
100
AcDbLine
 10
48.348126
 20
-122.470388
 30
0.0
 11
48.178627
 21
-122.724637
 31
0.0
  0
LINE
  5
2AD
100
AcDbEntity
  8
EBENE_1
 62
     7
100
AcDbLine
 10
52.666208
 20
-115.697331
 30
0.0
 11
50.718696
 21
-121.623584
 31
0.0
  0
LINE
  5
2AC
100
AcDbEntity
  8
EBENE_1
 62
     7
100
AcDbLine
 10
49.956641
 20
-115.697331
 30
0.0
 11
52.666208
 21
-115.697331
 31
0.0
  0
LINE
  5
2AB
100
AcDbEntity
  8
EBENE_1
 62
     7
100
AcDbLine
 10
49.787486
 20
-107.653722
 30
0.0
 11
49.617988
 21
-107.061165
 31
0.0
  0
LINE
  5
2AA
100
AcDbEntity
  8
EBENE_1
 62
     7
100
AcDbLine
 10
49.617988
 20
-107.061165
 30
0.0
 11
49.19493
 21
-106.552669
 31
0.0
  0
LINE
  5
2A9
100
AcDbEntity
  8
EBENE_1
 62
     7
100
AcDbLine
 10
49.19493
 20
-106.552669
 30
0.0
 11
48.856277
 21
-106.214361
 31
0.0
  0
LINE
  5
2A8
100
AcDbEntity
  8
EBENE_1
 62
     7
100
AcDbLine
 10
48.856277
 20
-106.214361
 30
0.0
 11
48.094222
 21
-106.214361
 31
0.0
  0
LINE
  5
2A7
100
AcDbEntity
  8
EBENE_1
 62
     7
100
AcDbLine
 10
48.094222
 20
-106.214361
 30
0.0
 11
47.67082
 21
-106.552669
 31
0.0
  0
LINE
  5
2A6
100
AcDbEntity
  8
EBENE_1
 62
     7
100
AcDbLine
 10
47.67082
 20
-106.552669
 30
0.0
 11
47.247418
 21
-107.061165
 31
0.0
  0
LINE
  5
2A5
100
AcDbEntity
  8
EBENE_1
 62
     7
100
AcDbLine
 10
47.247418
 20
-107.061165
 30
0.0
 11
47.078263
 21
-107.653722
 31
0.0
  0
LINE
  5
2A4
100
AcDbEntity
  8
EBENE_1
 62
     7
100
AcDbLine
 10
47.078263
 20
-107.653722
 30
0.0
 11
46.908765
 21
-108.500526
 31
0.0
  0
LINE
  5
2A3
100
AcDbEntity
  8
EBENE_1
 62
     7
100
AcDbLine
 10
46.908765
 20
-108.500526
 30
0.0
 11
46.908765
 21
-109.855138
 31
0.0
  0
LINE
  5
2A2
100
AcDbEntity
  8
EBENE_1
 62
     7
100
AcDbLine
 10
46.908765
 20
-109.855138
 30
0.0
 11
47.078263
 21
-110.701942
 31
0.0
  0
LINE
  5
2A1
100
AcDbEntity
  8
EBENE_1
 62
     7
100
AcDbLine
 10
47.078263
 20
-110.701942
 30
0.0
 11
47.247418
 21
-111.294499
 31
0.0
  0
LINE
  5
2A0
100
AcDbEntity
  8
EBENE_1
 62
     7
100
AcDbLine
 10
47.247418
 20
-111.294499
 30
0.0
 11
47.67082
 21
-111.887055
 31
0.0
  0
LINE
  5
29F
100
AcDbEntity
  8
EBENE_1
 62
     7
100
AcDbLine
 10
47.67082
 20
-111.887055
 30
0.0
 11
48.094222
 21
-112.141303
 31
0.0
  0
LINE
  5
29E
100
AcDbEntity
  8
EBENE_1
 62
     7
100
AcDbLine
 10
48.094222
 20
-112.141303
 30
0.0
 11
48.856277
 21
-112.141303
 31
0.0
  0
LINE
  5
29D
100
AcDbEntity
  8
EBENE_1
 62
     7
100
AcDbLine
 10
48.856277
 20
-112.141303
 30
0.0
 11
49.19493
 21
-111.887055
 31
0.0
  0
LINE
  5
29C
100
AcDbEntity
  8
EBENE_1
 62
     7
100
AcDbLine
 10
49.19493
 20
-111.887055
 30
0.0
 11
49.617988
 21
-111.294499
 31
0.0
  0
LINE
  5
29B
100
AcDbEntity
  8
EBENE_1
 62
     7
100
AcDbLine
 10
49.617988
 20
-111.294499
 30
0.0
 11
49.787486
 21
-110.701942
 31
0.0
  0
LINE
  5
29A
100
AcDbEntity
  8
EBENE_1
 62
     7
100
AcDbLine
 10
41.151321
 20
-75.311165
 30
0.0
 11
41.151321
 21
-73.532807
 31
0.0
  0
LINE
  5
299
100
AcDbEntity
  8
EBENE_1
 62
     7
100
AcDbLine
 10
49.787486
 20
-75.311165
 30
0.0
 11
50.464792
 21
-75.141667
 31
0.0
  0
LINE
  5
298
100
AcDbEntity
  8
EBENE_1
 62
     7
100
AcDbLine
 10
50.464792
 20
-75.141667
 30
0.0
 11
51.057349
 21
-74.802669
 31
0.0
  0
LINE
  5
297
100
AcDbEntity
  8
EBENE_1
 62
     7
100
AcDbLine
 10
51.057349
 20
-74.802669
 30
0.0
 11
51.396002
 21
-74.210113
 31
0.0
  0
LINE
  5
296
100
AcDbEntity
  8
EBENE_1
 62
     7
100
AcDbLine
 10
51.396002
 20
-74.210113
 30
0.0
 11
51.5655
 21
-73.532807
 31
0.0
  0
LINE
  5
295
100
AcDbEntity
  8
EBENE_1
 62
     7
100
AcDbLine
 10
49.787486
 20
-75.311165
 30
0.0
 11
41.151321
 21
-75.311165
 31
0.0
  0
LINE
  5
294
100
AcDbEntity
  8
EBENE_1
 62
     7
100
AcDbLine
 10
49.787486
 20
-73.532807
 30
0.0
 11
47.67082
 21
-73.532807
 31
0.0
  0
LINE
  5
293
100
AcDbEntity
  8
EBENE_1
 62
     7
100
AcDbLine
 10
46.316208
 20
-73.532807
 30
0.0
 11
44.199542
 21
-73.532807
 31
0.0
  0
LINE
  5
292
100
AcDbEntity
  8
EBENE_1
 62
     7
100
AcDbLine
 10
44.199542
 20
-73.532807
 30
0.0
 11
44.199542
 21
-73.532807
 31
0.0
  0
LINE
  5
291
100
AcDbEntity
  8
EBENE_1
 62
     7
100
AcDbLine
 10
41.574723
 20
-66.590251
 30
0.0
 11
45.130751
 21
-66.590251
 31
0.0
  0
LINE
  5
290
100
AcDbEntity
  8
EBENE_1
 62
     7
100
AcDbLine
 10
47.839974
 20
-66.590251
 30
0.0
 11
47.839974
 21
-66.590251
 31
0.0
  0
LINE
  5
28F
100
AcDbEntity
  8
EBENE_1
 62
     7
100
AcDbLine
 10
50.634291
 20
-66.590251
 30
0.0
 11
54.189974
 21
-66.590251
 31
0.0
  0
LINE
  5
28E
100
AcDbEntity
  8
EBENE_1
 62
     7
100
AcDbLine
 10
54.189974
 20
-66.590251
 30
0.0
 11
54.189974
 21
-66.590251
 31
0.0
  0
LINE
  5
28D
100
AcDbEntity
  8
EBENE_1
 62
     7
100
AcDbLine
 10
44.199542
 20
-73.532807
 30
0.0
 11
41.151321
 21
-73.532807
 31
0.0
  0
LINE
  5
28C
100
AcDbEntity
  8
EBENE_1
 62
     7
100
AcDbLine
 10
41.574723
 20
-44.915777
 30
0.0
 11
45.130751
 21
-44.915777
 31
0.0
  0
LINE
  5
28B
100
AcDbEntity
  8
EBENE_1
 62
     7
100
AcDbLine
 10
47.839974
 20
-44.915777
 30
0.0
 11
47.839974
 21
-44.915777
 31
0.0
  0
LINE
  5
28A
100
AcDbEntity
  8
EBENE_1
 62
     7
100
AcDbLine
 10
50.634291
 20
-44.915777
 30
0.0
 11
54.189974
 21
-44.915777
 31
0.0
  0
LINE
  5
289
100
AcDbEntity
  8
EBENE_1
 62
     7
100
AcDbLine
 10
54.189974
 20
-44.915777
 30
0.0
 11
54.189974
 21
-44.915777
 31
0.0
  0
LINE
  5
288
100
AcDbEntity
  8
EBENE_1
 62
     7
100
AcDbLine
 10
49.787486
 20
-35.009749
 30
0.0
 11
51.5655
 21
-35.009749
 31
0.0
  0
LINE
  5
287
100
AcDbEntity
  8
EBENE_1
 62
     7
100
AcDbLine
 10
-39.027936
 20
115.52766
 30
0.0
 11
-20.739819
 21
115.52766
 31
0.0
  0
LINE
  5
286
100
AcDbEntity
  8
EBENE_1
 62
     7
100
AcDbLine
 10
-22.517833
 20
75.141667
 30
0.0
 11
-3.298507
 21
75.141667
 31
0.0
  0
LINE
  5
285
100
AcDbEntity
  8
EBENE_1
 62
     7
100
AcDbLine
 10
-19.300458
 20
115.52766
 30
0.0
 11
-3.298507
 21
115.52766
 31
0.0
  0
LINE
  5
284
100
AcDbEntity
  8
EBENE_1
 62
     7
100
AcDbLine
 10
-3.975812
 20
80.306382
 30
0.0
 11
-3.975812
 21
110.362945
 31
0.0
  0
POLYLINE
  5
27F
100
AcDbEntity
  8
EBENE_1
 62
     7
100
AcDb2dPolyline
 66
     1
 10
0.0
 20
0.0
 30
0.0
 70
     1
  0
VERTEX
  5
280
100
AcDbEntity
  8
EBENE_1
 62
     7
100
AcDbVertex
100
AcDb2dVertex
 10
-4.822617
 20
80.306382
 30
0.0
  0
VERTEX
  5
281
100
AcDbEntity
  8
EBENE_1
 62
     7
100
AcDbVertex
100
AcDb2dVertex
 10
-3.12918
 20
80.306382
 30
0.0
  0
VERTEX
  5
282
100
AcDbEntity
  8
EBENE_1
 62
     7
100
AcDbVertex
100
AcDb2dVertex
 10
-3.975812
 20
75.141667
 30
0.0
  0
SEQEND
  5
283
100
AcDbEntity
  8
EBENE_1
 62
     7
  0
HATCH
  5
27E
100
AcDbEntity
  8
EBENE_1
 62
     7
100
AcDbHatch
 10
0.0
 20
0.0
 30
0.0
210
0.0
220
0.0
230
1.0
  2
SOLID
 70
     1
 71
     0
 91
        1
 92
        3
 72
     0
 73
     1
 93
        3
 10
-4.8226169162326382
 20
80.306381564670133
 10
-3.1291802300347218
 20
80.306381564670133
 10
-3.9758124457465276
 20
75.141666666666666
 97
        0
 75
     0
 76
     1
 98
        1
 10
0.0
 20
0.0
  0
POLYLINE
  5
279
100
AcDbEntity
  8
EBENE_1
 62
     7
100
AcDb2dPolyline
 66
     1
 10
0.0
 20
0.0
 30
0.0
 70
     1
  0
VERTEX
  5
27A
100
AcDbEntity
  8
EBENE_1
 62
     7
100
AcDbVertex
100
AcDb2dVertex
 10
-4.822617
 20
110.362945
 30
0.0
  0
VERTEX
  5
27B
100
AcDbEntity
  8
EBENE_1
 62
     7
100
AcDbVertex
100
AcDb2dVertex
 10
-3.12918
 20
110.362945
 30
0.0
  0
VERTEX
  5
27C
100
AcDbEntity
  8
EBENE_1
 62
     7
100
AcDbVertex
100
AcDb2dVertex
 10
-3.975812
 20
115.52766
 30
0.0
  0
SEQEND
  5
27D
100
AcDbEntity
  8
EBENE_1
 62
     7
  0
HATCH
  5
278
100
AcDbEntity
  8
EBENE_1
 62
     7
100
AcDbHatch
 10
0.0
 20
0.0
 30
0.0
210
0.0
220
0.0
230
1.0
  2
SOLID
 70
     1
 71
     0
 91
        1
 92
        3
 72
     0
 73
     1
 93
        3
 10
-4.8226169162326382
 20
110.36294487847221
 10
-3.1291802300347218
 20
110.36294487847221
 10
-3.9758124457465276
 20
115.52765977647569
 97
        0
 75
     0
 76
     1
 98
        1
 10
0.0
 20
0.0
  0
LINE
  5
277
100
AcDbEntity
  8
EBENE_1
 62
     7
100
AcDbLine
 10
-10.664465
 20
89.958333
 30
0.0
 11
-7.193187
 21
87.503014
 31
0.0
  0
LINE
  5
276
100
AcDbEntity
  8
EBENE_1
 62
     7
100
AcDbLine
 10
-7.193187
 20
87.503014
 30
0.0
 11
-7.193187
 21
91.143618
 31
0.0
  0
LINE
  5
275
100
AcDbEntity
  8
EBENE_1
 62
     7
100
AcDbLine
 10
-10.664465
 20
89.958333
 30
0.0
 11
-5.499923
 21
89.958333
 31
0.0
  0
LINE
  5
274
100
AcDbEntity
  8
EBENE_1
 62
     7
100
AcDbLine
 10
-9.902582
 20
95.292375
 30
0.0
 11
-10.410562
 21
95.123048
 31
0.0
  0
LINE
  5
273
100
AcDbEntity
  8
EBENE_1
 62
     7
100
AcDbLine
 10
-10.410562
 20
95.123048
 30
0.0
 11
-10.664465
 21
94.360993
 31
0.0
  0
LINE
  5
272
100
AcDbEntity
  8
EBENE_1
 62
     7
100
AcDbLine
 10
-10.664465
 20
94.360993
 30
0.0
 11
-10.664465
 21
93.853014
 31
0.0
  0
LINE
  5
271
100
AcDbEntity
  8
EBENE_1
 62
     7
100
AcDbLine
 10
-10.664465
 20
93.853014
 30
0.0
 11
-10.410562
 21
93.090959
 31
0.0
  0
LINE
  5
270
100
AcDbEntity
  8
EBENE_1
 62
     7
100
AcDbLine
 10
-10.410562
 20
93.090959
 30
0.0
 11
-9.648507
 21
92.667729
 31
0.0
  0
LINE
  5
26F
100
AcDbEntity
  8
EBENE_1
 62
     7
100
AcDbLine
 10
-9.648507
 20
92.667729
 30
0.0
 11
-8.463222
 21
92.413653
 31
0.0
  0
LINE
  5
26E
100
AcDbEntity
  8
EBENE_1
 62
     7
100
AcDbLine
 10
-8.463222
 20
92.413653
 30
0.0
 11
-7.193187
 21
92.413653
 31
0.0
  0
LINE
  5
26D
100
AcDbEntity
  8
EBENE_1
 62
     7
100
AcDbLine
 10
-7.193187
 20
92.413653
 30
0.0
 11
-6.177228
 21
92.667729
 31
0.0
  0
LINE
  5
26C
100
AcDbEntity
  8
EBENE_1
 62
     7
100
AcDbLine
 10
-6.177228
 20
92.667729
 30
0.0
 11
-5.753826
 21
93.090959
 31
0.0
  0
LINE
  5
26B
100
AcDbEntity
  8
EBENE_1
 62
     7
100
AcDbLine
 10
-5.753826
 20
93.090959
 30
0.0
 11
-5.499923
 21
93.853014
 31
0.0
  0
LINE
  5
26A
100
AcDbEntity
  8
EBENE_1
 62
     7
100
AcDbLine
 10
-5.499923
 20
93.853014
 30
0.0
 11
-5.499923
 21
94.106917
 31
0.0
  0
LINE
  5
269
100
AcDbEntity
  8
EBENE_1
 62
     7
100
AcDbLine
 10
-5.499923
 20
94.106917
 30
0.0
 11
-5.753826
 21
94.868972
 31
0.0
  0
LINE
  5
268
100
AcDbEntity
  8
EBENE_1
 62
     7
100
AcDbLine
 10
-5.753826
 20
94.868972
 30
0.0
 11
-6.177228
 21
95.292375
 31
0.0
  0
LINE
  5
267
100
AcDbEntity
  8
EBENE_1
 62
     7
100
AcDbLine
 10
-6.177228
 20
95.292375
 30
0.0
 11
-6.939284
 21
95.546278
 31
0.0
  0
LINE
  5
266
100
AcDbEntity
  8
EBENE_1
 62
     7
100
AcDbLine
 10
-6.939284
 20
95.546278
 30
0.0
 11
-7.193187
 21
95.546278
 31
0.0
  0
LINE
  5
265
100
AcDbEntity
  8
EBENE_1
 62
     7
100
AcDbLine
 10
-7.193187
 20
95.546278
 30
0.0
 11
-7.955242
 21
95.292375
 31
0.0
  0
LINE
  5
264
100
AcDbEntity
  8
EBENE_1
 62
     7
100
AcDbLine
 10
-7.955242
 20
95.292375
 30
0.0
 11
-8.463222
 21
94.868972
 31
0.0
  0
LINE
  5
263
100
AcDbEntity
  8
EBENE_1
 62
     7
100
AcDbLine
 10
-8.463222
 20
94.868972
 30
0.0
 11
-8.632548
 21
94.106917
 31
0.0
  0
LINE
  5
262
100
AcDbEntity
  8
EBENE_1
 62
     7
100
AcDbLine
 10
-8.632548
 20
94.106917
 30
0.0
 11
-8.632548
 21
93.853014
 31
0.0
  0
LINE
  5
261
100
AcDbEntity
  8
EBENE_1
 62
     7
100
AcDbLine
 10
-8.632548
 20
93.853014
 30
0.0
 11
-8.463222
 21
93.090959
 31
0.0
  0
LINE
  5
260
100
AcDbEntity
  8
EBENE_1
 62
     7
100
AcDbLine
 10
-8.463222
 20
93.090959
 30
0.0
 11
-7.955242
 21
92.667729
 31
0.0
  0
LINE
  5
25F
100
AcDbEntity
  8
EBENE_1
 62
     7
100
AcDbLine
 10
-7.955242
 20
92.667729
 30
0.0
 11
-7.193187
 21
92.413653
 31
0.0
  0
LINE
  5
25E
100
AcDbEntity
  8
EBENE_1
 62
     7
100
AcDbLine
 10
-7.193187
 20
92.413653
 30
0.0
 11
-7.193187
 21
92.413653
 31
0.0
  0
LINE
  5
25D
100
AcDbEntity
  8
EBENE_1
 62
     7
100
AcDbLine
 10
-6.007902
 20
97.578368
 30
0.0
 11
-5.753826
 21
97.324292
 31
0.0
  0
LINE
  5
25C
100
AcDbEntity
  8
EBENE_1
 62
     7
100
AcDbLine
 10
-5.753826
 20
97.324292
 30
0.0
 11
-5.499923
 21
97.578368
 31
0.0
  0
LINE
  5
25B
100
AcDbEntity
  8
EBENE_1
 62
     7
100
AcDbLine
 10
-5.499923
 20
97.578368
 30
0.0
 11
-5.753826
 21
97.747694
 31
0.0
  0
LINE
  5
25A
100
AcDbEntity
  8
EBENE_1
 62
     7
100
AcDbLine
 10
-10.664465
 20
102.74291
 30
0.0
 11
-10.664465
 21
100.287591
 31
0.0
  0
LINE
  5
259
100
AcDbEntity
  8
EBENE_1
 62
     7
100
AcDbLine
 10
-10.664465
 20
100.287591
 30
0.0
 11
-8.463222
 21
100.033687
 31
0.0
  0
LINE
  5
258
100
AcDbEntity
  8
EBENE_1
 62
     7
100
AcDbLine
 10
-8.463222
 20
100.033687
 30
0.0
 11
-8.632548
 21
100.287591
 31
0.0
  0
LINE
  5
257
100
AcDbEntity
  8
EBENE_1
 62
     7
100
AcDbLine
 10
-8.632548
 20
100.287591
 30
0.0
 11
-8.886624
 21
100.964897
 31
0.0
  0
LINE
  5
256
100
AcDbEntity
  8
EBENE_1
 62
     7
100
AcDbLine
 10
-8.886624
 20
100.964897
 30
0.0
 11
-8.886624
 21
101.726952
 31
0.0
  0
LINE
  5
255
100
AcDbEntity
  8
EBENE_1
 62
     7
100
AcDbLine
 10
-8.886624
 20
101.726952
 30
0.0
 11
-8.632548
 21
102.489007
 31
0.0
  0
LINE
  5
254
100
AcDbEntity
  8
EBENE_1
 62
     7
100
AcDbLine
 10
-8.632548
 20
102.489007
 30
0.0
 11
-8.209146
 21
102.912237
 31
0.0
  0
LINE
  5
253
100
AcDbEntity
  8
EBENE_1
 62
     7
100
AcDbLine
 10
-8.209146
 20
102.912237
 30
0.0
 11
-7.447263
 21
103.166313
 31
0.0
  0
LINE
  5
252
100
AcDbEntity
  8
EBENE_1
 62
     7
100
AcDbLine
 10
-7.447263
 20
103.166313
 30
0.0
 11
-6.939284
 21
103.166313
 31
0.0
  0
LINE
  5
251
100
AcDbEntity
  8
EBENE_1
 62
     7
100
AcDbLine
 10
-6.939284
 20
103.166313
 30
0.0
 11
-6.177228
 21
102.912237
 31
0.0
  0
LINE
  5
250
100
AcDbEntity
  8
EBENE_1
 62
     7
100
AcDbLine
 10
-6.177228
 20
102.912237
 30
0.0
 11
-5.753826
 21
102.489007
 31
0.0
  0
LINE
  5
24F
100
AcDbEntity
  8
EBENE_1
 62
     7
100
AcDbLine
 10
-5.753826
 20
102.489007
 30
0.0
 11
-5.499923
 21
101.726952
 31
0.0
  0
LINE
  5
24E
100
AcDbEntity
  8
EBENE_1
 62
     7
100
AcDbLine
 10
-5.499923
 20
101.726952
 30
0.0
 11
-5.499923
 21
100.964897
 31
0.0
  0
LINE
  5
24D
100
AcDbEntity
  8
EBENE_1
 62
     7
100
AcDbLine
 10
-5.499923
 20
100.964897
 30
0.0
 11
-5.753826
 21
100.287591
 31
0.0
  0
LINE
  5
24C
100
AcDbEntity
  8
EBENE_1
 62
     7
100
AcDbLine
 10
-5.753826
 20
100.287591
 30
0.0
 11
-6.007902
 21
100.033687
 31
0.0
  0
LINE
  5
24B
100
AcDbEntity
  8
EBENE_1
 62
     7
100
AcDbLine
 10
-6.007902
 20
100.033687
 30
0.0
 11
-6.431132
 21
99.779612
 31
0.0
  0
LINE
  5
24A
100
AcDbEntity
  8
EBENE_1
 62
     7
100
AcDbLine
 10
-6.431132
 20
99.779612
 30
0.0
 11
-6.431132
 21
99.779612
 31
0.0
  0
LINE
  5
249
100
AcDbEntity
  8
EBENE_1
 62
     7
100
AcDbLine
 10
-22.517833
 20
38.734931
 30
0.0
 11
-3.298507
 21
38.734931
 31
0.0
  0
LINE
  5
248
100
AcDbEntity
  8
EBENE_1
 62
     7
100
AcDbLine
 10
-22.517833
 20
75.141667
 30
0.0
 11
-3.298507
 21
75.141667
 31
0.0
  0
LINE
  5
247
100
AcDbEntity
  8
EBENE_1
 62
     7
100
AcDbLine
 10
-3.975812
 20
43.899646
 30
0.0
 11
-3.975812
 21
69.976952
 31
0.0
  0
POLYLINE
  5
242
100
AcDbEntity
  8
EBENE_1
 62
     7
100
AcDb2dPolyline
 66
     1
 10
0.0
 20
0.0
 30
0.0
 70
     1
  0
VERTEX
  5
243
100
AcDbEntity
  8
EBENE_1
 62
     7
100
AcDbVertex
100
AcDb2dVertex
 10
-4.822617
 20
43.899646
 30
0.0
  0
VERTEX
  5
244
100
AcDbEntity
  8
EBENE_1
 62
     7
100
AcDbVertex
100
AcDb2dVertex
 10
-3.12918
 20
43.899646
 30
0.0
  0
VERTEX
  5
245
100
AcDbEntity
  8
EBENE_1
 62
     7
100
AcDbVertex
100
AcDb2dVertex
 10
-3.975812
 20
38.734931
 30
0.0
  0
SEQEND
  5
246
100
AcDbEntity
  8
EBENE_1
 62
     7
  0
HATCH
  5
241
100
AcDbEntity
  8
EBENE_1
 62
     7
100
AcDbHatch
 10
0.0
 20
0.0
 30
0.0
210
0.0
220
0.0
230
1.0
  2
SOLID
 70
     1
 71
     0
 91
        1
 92
        3
 72
     0
 73
     1
 93
        3
 10
-4.8226169162326382
 20
43.899645996093746
 10
-3.1291802300347218
 20
43.899645996093746
 10
-3.9758124457465276
 20
38.734931098090271
 97
        0
 75
     0
 76
     1
 98
        1
 10
0.0
 20
0.0
  0
POLYLINE
  5
23C
100
AcDbEntity
  8
EBENE_1
 62
     7
100
AcDb2dPolyline
 66
     1
 10
0.0
 20
0.0
 30
0.0
 70
     1
  0
VERTEX
  5
23D
100
AcDbEntity
  8
EBENE_1
 62
     7
100
AcDbVertex
100
AcDb2dVertex
 10
-4.822617
 20
69.976952
 30
0.0
  0
VERTEX
  5
23E
100
AcDbEntity
  8
EBENE_1
 62
     7
100
AcDbVertex
100
AcDb2dVertex
 10
-3.12918
 20
69.976952
 30
0.0
  0
VERTEX
  5
23F
100
AcDbEntity
  8
EBENE_1
 62
     7
100
AcDbVertex
100
AcDb2dVertex
 10
-3.975812
 20
75.141667
 30
0.0
  0
SEQEND
  5
240
100
AcDbEntity
  8
EBENE_1
 62
     7
  0
HATCH
  5
23B
100
AcDbEntity
  8
EBENE_1
 62
     7
100
AcDbHatch
 10
0.0
 20
0.0
 30
0.0
210
0.0
220
0.0
230
1.0
  2
SOLID
 70
     1
 71
     0
 91
        1
 92
        3
 72
     0
 73
     1
 93
        3
 10
-4.8226169162326382
 20
69.976951768663184
 10
-3.1291802300347218
 20
69.976951768663184
 10
-3.9758124457465276
 20
75.141666666666666
 97
        0
 75
     0
 76
     1
 98
        1
 10
0.0
 20
0.0
  0
LINE
  5
23A
100
AcDbEntity
  8
EBENE_1
 62
     7
100
AcDbLine
 10
-10.664465
 20
55.245034
 30
0.0
 11
-7.193187
 21
52.789715
 31
0.0
  0
LINE
  5
239
100
AcDbEntity
  8
EBENE_1
 62
     7
100
AcDbLine
 10
-7.193187
 20
52.789715
 30
0.0
 11
-7.193187
 21
56.43032
 31
0.0
  0
LINE
  5
238
100
AcDbEntity
  8
EBENE_1
 62
     7
100
AcDbLine
 10
-10.664465
 20
55.245034
 30
0.0
 11
-5.499923
 21
55.245034
 31
0.0
  0
LINE
  5
237
100
AcDbEntity
  8
EBENE_1
 62
     7
100
AcDbLine
 10
-9.394603
 20
57.954258
 30
0.0
 11
-9.648507
 21
57.954258
 31
0.0
  0
LINE
  5
236
100
AcDbEntity
  8
EBENE_1
 62
     7
100
AcDbLine
 10
-9.648507
 20
57.954258
 30
0.0
 11
-10.156486
 21
58.208333
 31
0.0
  0
LINE
  5
235
100
AcDbEntity
  8
EBENE_1
 62
     7
100
AcDbLine
 10
-10.156486
 20
58.208333
 30
0.0
 11
-10.410562
 21
58.462409
 31
0.0
  0
LINE
  5
234
100
AcDbEntity
  8
EBENE_1
 62
     7
100
AcDbLine
 10
-10.410562
 20
58.462409
 30
0.0
 11
-10.664465
 21
58.885639
 31
0.0
  0
LINE
  5
233
100
AcDbEntity
  8
EBENE_1
 62
     7
100
AcDbLine
 10
-10.664465
 20
58.885639
 30
0.0
 11
-10.664465
 21
59.901598
 31
0.0
  0
LINE
  5
232
100
AcDbEntity
  8
EBENE_1
 62
     7
100
AcDbLine
 10
-10.664465
 20
59.901598
 30
0.0
 11
-10.410562
 21
60.409577
 31
0.0
  0
LINE
  5
231
100
AcDbEntity
  8
EBENE_1
 62
     7
100
AcDbLine
 10
-10.410562
 20
60.409577
 30
0.0
 11
-10.156486
 21
60.663653
 31
0.0
  0
LINE
  5
230
100
AcDbEntity
  8
EBENE_1
 62
     7
100
AcDbLine
 10
-10.156486
 20
60.663653
 30
0.0
 11
-9.648507
 21
60.917729
 31
0.0
  0
LINE
  5
22F
100
AcDbEntity
  8
EBENE_1
 62
     7
100
AcDbLine
 10
-9.648507
 20
60.917729
 30
0.0
 11
-9.140527
 21
60.917729
 31
0.0
  0
LINE
  5
22E
100
AcDbEntity
  8
EBENE_1
 62
     7
100
AcDbLine
 10
-9.140527
 20
60.917729
 30
0.0
 11
-8.632548
 21
60.663653
 31
0.0
  0
LINE
  5
22D
100
AcDbEntity
  8
EBENE_1
 62
     7
100
AcDbLine
 10
-8.632548
 20
60.663653
 30
0.0
 11
-7.955242
 21
60.155674
 31
0.0
  0
LINE
  5
22C
100
AcDbEntity
  8
EBENE_1
 62
     7
100
AcDbLine
 10
-7.955242
 20
60.155674
 30
0.0
 11
-5.499923
 21
57.700354
 31
0.0
  0
LINE
  5
22B
100
AcDbEntity
  8
EBENE_1
 62
     7
100
AcDbLine
 10
-5.499923
 20
57.700354
 30
0.0
 11
-5.499923
 21
61.171632
 31
0.0
  0
LINE
  5
22A
100
AcDbEntity
  8
EBENE_1
 62
     7
100
AcDbLine
 10
-22.517833
 20
1.481563
 30
0.0
 11
-3.298507
 21
1.481563
 31
0.0
  0
LINE
  5
229
100
AcDbEntity
  8
EBENE_1
 62
     7
100
AcDbLine
 10
-22.517833
 20
38.734931
 30
0.0
 11
-3.298507
 21
38.734931
 31
0.0
  0
LINE
  5
228
100
AcDbEntity
  8
EBENE_1
 62
     7
100
AcDbLine
 10
-3.975812
 20
6.646278
 30
0.0
 11
-3.975812
 21
33.570388
 31
0.0
  0
POLYLINE
  5
223
100
AcDbEntity
  8
EBENE_1
 62
     7
100
AcDb2dPolyline
 66
     1
 10
0.0
 20
0.0
 30
0.0
 70
     1
  0
VERTEX
  5
224
100
AcDbEntity
  8
EBENE_1
 62
     7
100
AcDbVertex
100
AcDb2dVertex
 10
-4.822617
 20
6.646278
 30
0.0
  0
VERTEX
  5
225
100
AcDbEntity
  8
EBENE_1
 62
     7
100
AcDbVertex
100
AcDb2dVertex
 10
-3.12918
 20
6.646278
 30
0.0
  0
VERTEX
  5
226
100
AcDbEntity
  8
EBENE_1
 62
     7
100
AcDbVertex
100
AcDb2dVertex
 10
-3.975812
 20
1.481563
 30
0.0
  0
SEQEND
  5
227
100
AcDbEntity
  8
EBENE_1
 62
     7
  0
HATCH
  5
222
100
AcDbEntity
  8
EBENE_1
 62
     7
100
AcDbHatch
 10
0.0
 20
0.0
 30
0.0
210
0.0
220
0.0
230
1.0
  2
SOLID
 70
     1
 71
     0
 91
        1
 92
        3
 72
     0
 73
     1
 93
        3
 10
-4.8226169162326382
 20
6.646278211805555
 10
-3.1291802300347218
 20
6.646278211805555
 10
-3.9758124457465276
 20
1.4815633138020832
 97
        0
 75
     0
 76
     1
 98
        1
 10
0.0
 20
0.0
  0
POLYLINE
  5
21D
100
AcDbEntity
  8
EBENE_1
 62
     7
100
AcDb2dPolyline
 66
     1
 10
0.0
 20
0.0
 30
0.0
 70
     1
  0
VERTEX
  5
21E
100
AcDbEntity
  8
EBENE_1
 62
     7
100
AcDbVertex
100
AcDb2dVertex
 10
-4.822617
 20
33.570388
 30
0.0
  0
VERTEX
  5
21F
100
AcDbEntity
  8
EBENE_1
 62
     7
100
AcDbVertex
100
AcDb2dVertex
 10
-3.12918
 20
33.570388
 30
0.0
  0
VERTEX
  5
220
100
AcDbEntity
  8
EBENE_1
 62
     7
100
AcDbVertex
100
AcDb2dVertex
 10
-3.975812
 20
38.734931
 30
0.0
  0
SEQEND
  5
221
100
AcDbEntity
  8
EBENE_1
 62
     7
  0
HATCH
  5
21C
100
AcDbEntity
  8
EBENE_1
 62
     7
100
AcDbHatch
 10
0.0
 20
0.0
 30
0.0
210
0.0
220
0.0
230
1.0
  2
SOLID
 70
     1
 71
     0
 91
        1
 92
        3
 72
     0
 73
     1
 93
        3
 10
-4.8226169162326382
 20
33.57038845486111
 10
-3.1291802300347218
 20
33.57038845486111
 10
-3.9758124457465276
 20
38.734931098090271
 97
        0
 75
     0
 76
     1
 98
        1
 10
0.0
 20
0.0
  0
LINE
  5
21B
100
AcDbEntity
  8
EBENE_1
 62
     7
100
AcDbLine
 10
-10.664465
 20
18.414897
 30
0.0
 11
-7.193187
 21
15.959577
 31
0.0
  0
LINE
  5
21A
100
AcDbEntity
  8
EBENE_1
 62
     7
100
AcDbLine
 10
-7.193187
 20
15.959577
 30
0.0
 11
-7.193187
 21
19.600354
 31
0.0
  0
LINE
  5
219
100
AcDbEntity
  8
EBENE_1
 62
     7
100
AcDbLine
 10
-10.664465
 20
18.414897
 30
0.0
 11
-5.499923
 21
18.414897
 31
0.0
  0
LINE
  5
218
100
AcDbEntity
  8
EBENE_1
 62
     7
100
AcDbLine
 10
-10.664465
 20
21.293618
 30
0.0
 11
-10.664465
 21
24.003014
 31
0.0
  0
LINE
  5
217
100
AcDbEntity
  8
EBENE_1
 62
     7
100
AcDbLine
 10
-10.664465
 20
24.003014
 30
0.0
 11
-8.632548
 21
22.563653
 31
0.0
  0
LINE
  5
216
100
AcDbEntity
  8
EBENE_1
 62
     7
100
AcDbLine
 10
-8.632548
 20
22.563653
 30
0.0
 11
-8.632548
 21
23.325708
 31
0.0
  0
LINE
  5
215
100
AcDbEntity
  8
EBENE_1
 62
     7
100
AcDbLine
 10
-8.632548
 20
23.325708
 30
0.0
 11
-8.463222
 21
23.748938
 31
0.0
  0
LINE
  5
214
100
AcDbEntity
  8
EBENE_1
 62
     7
100
AcDbLine
 10
-8.463222
 20
23.748938
 30
0.0
 11
-8.209146
 21
24.003014
 31
0.0
  0
LINE
  5
213
100
AcDbEntity
  8
EBENE_1
 62
     7
100
AcDbLine
 10
-8.209146
 20
24.003014
 30
0.0
 11
-7.447263
 21
24.256917
 31
0.0
  0
LINE
  5
212
100
AcDbEntity
  8
EBENE_1
 62
     7
100
AcDbLine
 10
-7.447263
 20
24.256917
 30
0.0
 11
-6.939284
 21
24.256917
 31
0.0
  0
LINE
  5
211
100
AcDbEntity
  8
EBENE_1
 62
     7
100
AcDbLine
 10
-6.939284
 20
24.256917
 30
0.0
 11
-6.177228
 21
24.003014
 31
0.0
  0
LINE
  5
210
100
AcDbEntity
  8
EBENE_1
 62
     7
100
AcDbLine
 10
-6.177228
 20
24.003014
 30
0.0
 11
-5.753826
 21
23.579612
 31
0.0
  0
LINE
  5
20F
100
AcDbEntity
  8
EBENE_1
 62
     7
100
AcDbLine
 10
-5.753826
 20
23.579612
 30
0.0
 11
-5.499923
 21
22.817729
 31
0.0
  0
LINE
  5
20E
100
AcDbEntity
  8
EBENE_1
 62
     7
100
AcDbLine
 10
-5.499923
 20
22.817729
 30
0.0
 11
-5.499923
 21
22.055674
 31
0.0
  0
LINE
  5
20D
100
AcDbEntity
  8
EBENE_1
 62
     7
100
AcDbLine
 10
-5.499923
 20
22.055674
 30
0.0
 11
-5.753826
 21
21.293618
 31
0.0
  0
LINE
  5
20C
100
AcDbEntity
  8
EBENE_1
 62
     7
100
AcDbLine
 10
-5.753826
 20
21.293618
 30
0.0
 11
-6.007902
 21
21.039715
 31
0.0
  0
LINE
  5
20B
100
AcDbEntity
  8
EBENE_1
 62
     7
100
AcDbLine
 10
-6.007902
 20
21.039715
 30
0.0
 11
-6.431132
 21
20.870388
 31
0.0
  0
LINE
  5
20A
100
AcDbEntity
  8
EBENE_1
 62
     7
100
AcDbLine
 10
-23.957194
 20
76.665605
 30
0.0
 11
-23.957194
 21
128.396986
 31
0.0
  0
LINE
  5
209
100
AcDbEntity
  8
EBENE_1
 62
     7
100
AcDbLine
 10
-20.739819
 20
116.967021
 30
0.0
 11
-20.739819
 21
128.396986
 31
0.0
  0
LINE
  5
208
100
AcDbEntity
  8
EBENE_1
 62
     7
100
AcDbLine
 10
-29.121909
 20
127.634931
 30
0.0
 11
-34.286624
 21
127.634931
 31
0.0
  0
LINE
  5
207
100
AcDbEntity
  8
EBENE_1
 62
     7
100
AcDbLine
 10
-15.575277
 20
127.634931
 30
0.0
 11
-10.410562
 21
127.634931
 31
0.0
  0
LINE
  5
206
100
AcDbEntity
  8
EBENE_1
 62
     7
100
AcDbLine
 10
-23.957194
 20
127.634931
 30
0.0
 11
-20.739819
 21
127.634931
 31
0.0
  0
POLYLINE
  5
201
100
AcDbEntity
  8
EBENE_1
 62
     7
100
AcDb2dPolyline
 66
     1
 10
0.0
 20
0.0
 30
0.0
 70
     1
  0
VERTEX
  5
202
100
AcDbEntity
  8
EBENE_1
 62
     7
100
AcDbVertex
100
AcDb2dVertex
 10
-29.121909
 20
128.481563
 30
0.0
  0
VERTEX
  5
203
100
AcDbEntity
  8
EBENE_1
 62
     7
100
AcDbVertex
100
AcDb2dVertex
 10
-29.121909
 20
126.788299
 30
0.0
  0
VERTEX
  5
204
100
AcDbEntity
  8
EBENE_1
 62
     7
100
AcDbVertex
100
AcDb2dVertex
 10
-23.957194
 20
127.634931
 30
0.0
  0
SEQEND
  5
205
100
AcDbEntity
  8
EBENE_1
 62
     7
  0
HATCH
  5
200
100
AcDbEntity
  8
EBENE_1
 62
     7
100
AcDbHatch
 10
0.0
 20
0.0
 30
0.0
210
0.0
220
0.0
230
1.0
  2
SOLID
 70
     1
 71
     0
 91
        1
 92
        3
 72
     0
 73
     1
 93
        3
 10
-29.121908908420135
 20
128.48156331380207
 10
-29.121908908420135
 20
126.78829888237846
 10
-23.957194010416664
 20
127.63493109809026
 97
        0
 75
     0
 76
     1
 98
        1
 10
0.0
 20
0.0
  0
POLYLINE
  5
1FB
100
AcDbEntity
  8
EBENE_1
 62
     7
100
AcDb2dPolyline
 66
     1
 10
0.0
 20
0.0
 30
0.0
 70
     1
  0
VERTEX
  5
1FC
100
AcDbEntity
  8
EBENE_1
 62
     7
100
AcDbVertex
100
AcDb2dVertex
 10
-15.575277
 20
128.481563
 30
0.0
  0
VERTEX
  5
1FD
100
AcDbEntity
  8
EBENE_1
 62
     7
100
AcDbVertex
100
AcDb2dVertex
 10
-15.575277
 20
126.788299
 30
0.0
  0
VERTEX
  5
1FE
100
AcDbEntity
  8
EBENE_1
 62
     7
100
AcDbVertex
100
AcDb2dVertex
 10
-20.739819
 20
127.634931
 30
0.0
  0
SEQEND
  5
1FF
100
AcDbEntity
  8
EBENE_1
 62
     7
  0
HATCH
  5
1FA
100
AcDbEntity
  8
EBENE_1
 62
     7
100
AcDbHatch
 10
0.0
 20
0.0
 30
0.0
210
0.0
220
0.0
230
1.0
  2
SOLID
 70
     1
 71
     0
 91
        1
 92
        3
 72
     0
 73
     1
 93
        3
 10
-15.575276692708332
 20
128.48156331380207
 10
-15.575276692708332
 20
126.78829888237846
 10
-20.739819335937497
 20
127.63493109809026
 97
        0
 75
     0
 76
     1
 98
        1
 10
0.0
 20
0.0
  0
LINE
  5
1F9
100
AcDbEntity
  8
EBENE_1
 62
     7
100
AcDbLine
 10
-20.570493
 20
133.053722
 30
0.0
 11
-20.739819
 21
133.561701
 31
0.0
  0
LINE
  5
1F8
100
AcDbEntity
  8
EBENE_1
 62
     7
100
AcDbLine
 10
-20.739819
 20
133.561701
 30
0.0
 11
-21.247799
 21
134.06968
 31
0.0
  0
LINE
  5
1F7
100
AcDbEntity
  8
EBENE_1
 62
     7
100
AcDbLine
 10
-21.247799
 20
134.06968
 30
0.0
 11
-21.75595
 21
134.323584
 31
0.0
  0
LINE
  5
1F6
100
AcDbEntity
  8
EBENE_1
 62
     7
100
AcDbLine
 10
-21.75595
 20
134.323584
 30
0.0
 11
-22.771909
 21
134.323584
 31
0.0
  0
LINE
  5
1F5
100
AcDbEntity
  8
EBENE_1
 62
     7
100
AcDbLine
 10
-22.771909
 20
134.323584
 30
0.0
 11
-23.195139
 21
134.06968
 31
0.0
  0
LINE
  5
1F4
100
AcDbEntity
  8
EBENE_1
 62
     7
100
AcDbLine
 10
-23.195139
 20
134.06968
 30
0.0
 11
-23.70329
 21
133.561701
 31
0.0
  0
LINE
  5
1F3
100
AcDbEntity
  8
EBENE_1
 62
     7
100
AcDbLine
 10
-23.70329
 20
133.561701
 30
0.0
 11
-23.957194
 21
133.053722
 31
0.0
  0
LINE
  5
1F2
100
AcDbEntity
  8
EBENE_1
 62
     7
100
AcDbLine
 10
-23.957194
 20
133.053722
 30
0.0
 11
-24.21127
 21
132.291667
 31
0.0
  0
LINE
  5
1F1
100
AcDbEntity
  8
EBENE_1
 62
     7
100
AcDbLine
 10
-24.21127
 20
132.291667
 30
0.0
 11
-24.21127
 21
131.106382
 31
0.0
  0
LINE
  5
1F0
100
AcDbEntity
  8
EBENE_1
 62
     7
100
AcDbLine
 10
-24.21127
 20
131.106382
 30
0.0
 11
-23.957194
 21
130.344326
 31
0.0
  0
LINE
  5
1EF
100
AcDbEntity
  8
EBENE_1
 62
     7
100
AcDbLine
 10
-23.957194
 20
130.344326
 30
0.0
 11
-23.70329
 21
129.836347
 31
0.0
  0
LINE
  5
1EE
100
AcDbEntity
  8
EBENE_1
 62
     7
100
AcDbLine
 10
-23.70329
 20
129.836347
 30
0.0
 11
-23.195139
 21
129.412945
 31
0.0
  0
LINE
  5
1ED
100
AcDbEntity
  8
EBENE_1
 62
     7
100
AcDbLine
 10
-23.195139
 20
129.412945
 30
0.0
 11
-22.771909
 21
129.159041
 31
0.0
  0
LINE
  5
1EC
100
AcDbEntity
  8
EBENE_1
 62
     7
100
AcDbLine
 10
-22.771909
 20
129.159041
 30
0.0
 11
-21.75595
 21
129.159041
 31
0.0
  0
LINE
  5
1EB
100
AcDbEntity
  8
EBENE_1
 62
     7
100
AcDbLine
 10
-21.75595
 20
129.159041
 30
0.0
 11
-21.247799
 21
129.412945
 31
0.0
  0
LINE
  5
1EA
100
AcDbEntity
  8
EBENE_1
 62
     7
100
AcDbLine
 10
-21.247799
 20
129.412945
 30
0.0
 11
-20.739819
 21
129.836347
 31
0.0
  0
LINE
  5
1E9
100
AcDbEntity
  8
EBENE_1
 62
     7
100
AcDbLine
 10
-20.739819
 20
129.836347
 30
0.0
 11
-20.570493
 21
130.344326
 31
0.0
  0
LINE
  5
1E8
100
AcDbEntity
  8
EBENE_1
 62
     7
100
AcDbLine
 10
-34.87918
 20
37.295742
 30
0.0
 11
-34.87918
 21
27.812945
 31
0.0
  0
LINE
  5
1E7
100
AcDbEntity
  8
EBENE_1
 62
     7
100
AcDbLine
 10
-23.957194
 20
37.295742
 30
0.0
 11
-23.957194
 21
27.812945
 31
0.0
  0
LINE
  5
1E6
100
AcDbEntity
  8
EBENE_1
 62
     7
100
AcDbLine
 10
-40.043895
 20
28.575
 30
0.0
 11
-45.20861
 21
28.575
 31
0.0
  0
LINE
  5
1E5
100
AcDbEntity
  8
EBENE_1
 62
     7
100
AcDbLine
 10
-18.792479
 20
28.575
 30
0.0
 11
-13.627936
 21
28.575
 31
0.0
  0
LINE
  5
1E4
100
AcDbEntity
  8
EBENE_1
 62
     7
100
AcDbLine
 10
-38.689284
 20
34.925
 30
0.0
 11
-38.265881
 21
35.179076
 31
0.0
  0
LINE
  5
1E3
100
AcDbEntity
  8
EBENE_1
 62
     7
100
AcDbLine
 10
-38.265881
 20
35.179076
 30
0.0
 11
-37.503826
 21
35.856382
 31
0.0
  0
LINE
  5
1E2
100
AcDbEntity
  8
EBENE_1
 62
     7
100
AcDbLine
 10
-37.503826
 20
35.856382
 30
0.0
 11
-37.503826
 21
30.691667
 31
0.0
  0
LINE
  5
1E1
100
AcDbEntity
  8
EBENE_1
 62
     7
100
AcDbLine
 10
-34.540527
 20
34.670924
 30
0.0
 11
-34.540527
 21
34.925
 31
0.0
  0
LINE
  5
1E0
100
AcDbEntity
  8
EBENE_1
 62
     7
100
AcDbLine
 10
-34.540527
 20
34.925
 30
0.0
 11
-34.286624
 21
35.432979
 31
0.0
  0
LINE
  5
1DF
100
AcDbEntity
  8
EBENE_1
 62
     7
100
AcDbLine
 10
-34.286624
 20
35.432979
 30
0.0
 11
-34.032548
 21
35.602306
 31
0.0
  0
LINE
  5
1DE
100
AcDbEntity
  8
EBENE_1
 62
     7
100
AcDbLine
 10
-34.032548
 20
35.602306
 30
0.0
 11
-33.609146
 21
35.856382
 31
0.0
  0
LINE
  5
1DD
100
AcDbEntity
  8
EBENE_1
 62
     7
100
AcDbLine
 10
-33.609146
 20
35.856382
 30
0.0
 11
-32.593187
 21
35.856382
 31
0.0
  0
LINE
  5
1DC
100
AcDbEntity
  8
EBENE_1
 62
     7
100
AcDbLine
 10
-32.593187
 20
35.856382
 30
0.0
 11
-32.085208
 21
35.602306
 31
0.0
  0
LINE
  5
1DB
100
AcDbEntity
  8
EBENE_1
 62
     7
100
AcDbLine
 10
-32.085208
 20
35.602306
 30
0.0
 11
-31.831132
 21
35.432979
 31
0.0
  0
LINE
  5
1DA
100
AcDbEntity
  8
EBENE_1
 62
     7
100
AcDbLine
 10
-31.831132
 20
35.432979
 30
0.0
 11
-31.577228
 21
34.925
 31
0.0
  0
LINE
  5
1D9
100
AcDbEntity
  8
EBENE_1
 62
     7
100
AcDbLine
 10
-31.577228
 20
34.925
 30
0.0
 11
-31.577228
 21
34.417021
 31
0.0
  0
LINE
  5
1D8
100
AcDbEntity
  8
EBENE_1
 62
     7
100
AcDbLine
 10
-31.577228
 20
34.417021
 30
0.0
 11
-31.831132
 21
33.909041
 31
0.0
  0
LINE
  5
1D7
100
AcDbEntity
  8
EBENE_1
 62
     7
100
AcDbLine
 10
-31.831132
 20
33.909041
 30
0.0
 11
-32.339284
 21
33.146986
 31
0.0
  0
LINE
  5
1D6
100
AcDbEntity
  8
EBENE_1
 62
     7
100
AcDbLine
 10
-32.339284
 20
33.146986
 30
0.0
 11
-34.794603
 21
30.691667
 31
0.0
  0
LINE
  5
1D5
100
AcDbEntity
  8
EBENE_1
 62
     7
100
AcDbLine
 10
-34.794603
 20
30.691667
 30
0.0
 11
-31.323153
 21
30.691667
 31
0.0
  0
LINE
  5
1D4
100
AcDbEntity
  8
EBENE_1
 62
     7
100
AcDbLine
 10
-29.629888
 20
31.199646
 30
0.0
 11
-29.883792
 21
30.945742
 31
0.0
  0
LINE
  5
1D3
100
AcDbEntity
  8
EBENE_1
 62
     7
100
AcDbLine
 10
-29.883792
 20
30.945742
 30
0.0
 11
-29.629888
 21
30.691667
 31
0.0
  0
LINE
  5
1D2
100
AcDbEntity
  8
EBENE_1
 62
     7
100
AcDbLine
 10
-29.629888
 20
30.691667
 30
0.0
 11
-29.375812
 21
30.945742
 31
0.0
  0
LINE
  5
1D1
100
AcDbEntity
  8
EBENE_1
 62
     7
100
AcDbLine
 10
-24.465173
 20
35.179076
 30
0.0
 11
-24.719249
 21
35.602306
 31
0.0
  0
LINE
  5
1D0
100
AcDbEntity
  8
EBENE_1
 62
     7
100
AcDbLine
 10
-24.719249
 20
35.602306
 30
0.0
 11
-25.481132
 21
35.856382
 31
0.0
  0
LINE
  5
1CF
100
AcDbEntity
  8
EBENE_1
 62
     7
100
AcDbLine
 10
-25.481132
 20
35.856382
 30
0.0
 11
-25.989284
 21
35.856382
 31
0.0
  0
LINE
  5
1CE
100
AcDbEntity
  8
EBENE_1
 62
     7
100
AcDbLine
 10
-25.989284
 20
35.856382
 30
0.0
 11
-26.666589
 21
35.602306
 31
0.0
  0
LINE
  5
1CD
100
AcDbEntity
  8
EBENE_1
 62
     7
100
AcDbLine
 10
-26.666589
 20
35.602306
 30
0.0
 11
-27.174569
 21
34.925
 31
0.0
  0
LINE
  5
1CC
100
AcDbEntity
  8
EBENE_1
 62
     7
100
AcDbLine
 10
-27.174569
 20
34.925
 30
0.0
 11
-27.428472
 21
33.654966
 31
0.0
  0
LINE
  5
1CB
100
AcDbEntity
  8
EBENE_1
 62
     7
100
AcDbLine
 10
-27.428472
 20
33.654966
 30
0.0
 11
-27.428472
 21
32.46968
 31
0.0
  0
LINE
  5
1CA
100
AcDbEntity
  8
EBENE_1
 62
     7
100
AcDbLine
 10
-27.428472
 20
32.46968
 30
0.0
 11
-27.174569
 21
31.453722
 31
0.0
  0
LINE
  5
1C9
100
AcDbEntity
  8
EBENE_1
 62
     7
100
AcDbLine
 10
-27.174569
 20
31.453722
 30
0.0
 11
-26.666589
 21
30.945742
 31
0.0
  0
LINE
  5
1C8
100
AcDbEntity
  8
EBENE_1
 62
     7
100
AcDbLine
 10
-26.666589
 20
30.945742
 30
0.0
 11
-25.989284
 21
30.691667
 31
0.0
  0
LINE
  5
1C7
100
AcDbEntity
  8
EBENE_1
 62
     7
100
AcDbLine
 10
-25.989284
 20
30.691667
 30
0.0
 11
-25.735208
 21
30.691667
 31
0.0
  0
LINE
  5
1C6
100
AcDbEntity
  8
EBENE_1
 62
     7
100
AcDbLine
 10
-25.735208
 20
30.691667
 30
0.0
 11
-24.973153
 21
30.945742
 31
0.0
  0
LINE
  5
1C5
100
AcDbEntity
  8
EBENE_1
 62
     7
100
AcDbLine
 10
-24.973153
 20
30.945742
 30
0.0
 11
-24.465173
 21
31.453722
 31
0.0
  0
LINE
  5
1C4
100
AcDbEntity
  8
EBENE_1
 62
     7
100
AcDbLine
 10
-24.465173
 20
31.453722
 30
0.0
 11
-24.21127
 21
32.215605
 31
0.0
  0
LINE
  5
1C3
100
AcDbEntity
  8
EBENE_1
 62
     7
100
AcDbLine
 10
-24.21127
 20
32.215605
 30
0.0
 11
-24.21127
 21
32.46968
 31
0.0
  0
LINE
  5
1C2
100
AcDbEntity
  8
EBENE_1
 62
     7
100
AcDbLine
 10
-24.21127
 20
32.46968
 30
0.0
 11
-24.465173
 21
33.146986
 31
0.0
  0
LINE
  5
1C1
100
AcDbEntity
  8
EBENE_1
 62
     7
100
AcDbLine
 10
-24.465173
 20
33.146986
 30
0.0
 11
-24.973153
 21
33.654966
 31
0.0
  0
LINE
  5
1C0
100
AcDbEntity
  8
EBENE_1
 62
     7
100
AcDbLine
 10
-24.973153
 20
33.654966
 30
0.0
 11
-25.735208
 21
33.909041
 31
0.0
  0
LINE
  5
1BF
100
AcDbEntity
  8
EBENE_1
 62
     7
100
AcDbLine
 10
-25.735208
 20
33.909041
 30
0.0
 11
-25.989284
 21
33.909041
 31
0.0
  0
LINE
  5
1BE
100
AcDbEntity
  8
EBENE_1
 62
     7
100
AcDbLine
 10
-25.989284
 20
33.909041
 30
0.0
 11
-26.666589
 21
33.654966
 31
0.0
  0
LINE
  5
1BD
100
AcDbEntity
  8
EBENE_1
 62
     7
100
AcDbLine
 10
-26.666589
 20
33.654966
 30
0.0
 11
-27.174569
 21
33.146986
 31
0.0
  0
LINE
  5
1BC
100
AcDbEntity
  8
EBENE_1
 62
     7
100
AcDbLine
 10
-27.174569
 20
33.146986
 30
0.0
 11
-27.428472
 21
32.46968
 31
0.0
  0
LINE
  5
1BB
100
AcDbEntity
  8
EBENE_1
 62
     7
100
AcDbLine
 10
-27.428472
 20
32.46968
 30
0.0
 11
-27.428472
 21
32.46968
 31
0.0
  0
LINE
  5
1BA
100
AcDbEntity
  8
EBENE_1
 62
     7
100
AcDbLine
 10
-34.87918
 20
28.575
 30
0.0
 11
-23.957194
 21
28.575
 31
0.0
  0
LINE
  5
1B9
100
AcDbEntity
  8
EBENE_1
 62
     7
100
AcDbLine
 10
-34.87918
 20
28.575
 30
0.0
 11
-23.957194
 21
28.575
 31
0.0
  0
POLYLINE
  5
1B4
100
AcDbEntity
  8
EBENE_1
 62
     7
100
AcDb2dPolyline
 66
     1
 10
0.0
 20
0.0
 30
0.0
 70
     1
  0
VERTEX
  5
1B5
100
AcDbEntity
  8
EBENE_1
 62
     7
100
AcDbVertex
100
AcDb2dVertex
 10
-40.043895
 20
29.421632
 30
0.0
  0
VERTEX
  5
1B6
100
AcDbEntity
  8
EBENE_1
 62
     7
100
AcDbVertex
100
AcDb2dVertex
 10
-40.043895
 20
27.728368
 30
0.0
  0
VERTEX
  5
1B7
100
AcDbEntity
  8
EBENE_1
 62
     7
100
AcDbVertex
100
AcDb2dVertex
 10
-34.87918
 20
28.575
 30
0.0
  0
SEQEND
  5
1B8
100
AcDbEntity
  8
EBENE_1
 62
     7
  0
HATCH
  5
1B3
100
AcDbEntity
  8
EBENE_1
 62
     7
100
AcDbHatch
 10
0.0
 20
0.0
 30
0.0
210
0.0
220
0.0
230
1.0
  2
SOLID
 70
     1
 71
     0
 91
        1
 92
        3
 72
     0
 73
     1
 93
        3
 10
-40.043895128038194
 20
29.421632215711803
 10
-40.043895128038194
 20
27.728367784288192
 10
-34.87918023003472
 20
28.574999999999996
 97
        0
 75
     0
 76
     1
 98
        1
 10
0.0
 20
0.0
  0
POLYLINE
  5
1AE
100
AcDbEntity
  8
EBENE_1
 62
     7
100
AcDb2dPolyline
 66
     1
 10
0.0
 20
0.0
 30
0.0
 70
     1
  0
VERTEX
  5
1AF
100
AcDbEntity
  8
EBENE_1
 62
     7
100
AcDbVertex
100
AcDb2dVertex
 10
-18.792479
 20
29.421632
 30
0.0
  0
VERTEX
  5
1B0
100
AcDbEntity
  8
EBENE_1
 62
     7
100
AcDbVertex
100
AcDb2dVertex
 10
-18.792479
 20
27.728368
 30
0.0
  0
VERTEX
  5
1B1
100
AcDbEntity
  8
EBENE_1
 62
     7
100
AcDbVertex
100
AcDb2dVertex
 10
-23.957194
 20
28.575
 30
0.0
  0
SEQEND
  5
1B2
100
AcDbEntity
  8
EBENE_1
 62
     7
  0
HATCH
  5
1AD
100
AcDbEntity
  8
EBENE_1
 62
     7
100
AcDbHatch
 10
0.0
 20
0.0
 30
0.0
210
0.0
220
0.0
230
1.0
  2
SOLID
 70
     1
 71
     0
 91
        1
 92
        3
 72
     0
 73
     1
 93
        3
 10
-18.792479112413194
 20
29.421632215711803
 10
-18.792479112413194
 20
27.728367784288192
 10
-23.957194010416664
 20
28.574999999999996
 97
        0
 75
     0
 76
     1
 98
        1
 10
0.0
 20
0.0
  0
LINE
  5
1AC
100
AcDbEntity
  8
EBENE_1
 62
     7
100
AcDbLine
 10
-37.249923
 20
20.108333
 30
0.0
 11
-55.791943
 21
20.108333
 31
0.0
  0
LINE
  5
1AB
100
AcDbEntity
  8
EBENE_1
 62
     7
100
AcDbLine
 10
-37.249923
 20
85.132271
 30
0.0
 11
-55.791943
 21
85.132271
 31
0.0
  0
LINE
  5
1AA
100
AcDbEntity
  8
EBENE_1
 62
     7
100
AcDbLine
 10
-55.029888
 20
25.273048
 30
0.0
 11
-55.029888
 21
79.967729
 31
0.0
  0
POLYLINE
  5
1A5
100
AcDbEntity
  8
EBENE_1
 62
     7
100
AcDb2dPolyline
 66
     1
 10
0.0
 20
0.0
 30
0.0
 70
     1
  0
VERTEX
  5
1A6
100
AcDbEntity
  8
EBENE_1
 62
     7
100
AcDbVertex
100
AcDb2dVertex
 10
-55.96127
 20
25.273048
 30
0.0
  0
VERTEX
  5
1A7
100
AcDbEntity
  8
EBENE_1
 62
     7
100
AcDbVertex
100
AcDb2dVertex
 10
-54.183256
 20
25.273048
 30
0.0
  0
VERTEX
  5
1A8
100
AcDbEntity
  8
EBENE_1
 62
     7
100
AcDbVertex
100
AcDb2dVertex
 10
-55.029888
 20
20.108333
 30
0.0
  0
SEQEND
  5
1A9
100
AcDbEntity
  8
EBENE_1
 62
     7
  0
HATCH
  5
1A4
100
AcDbEntity
  8
EBENE_1
 62
     7
100
AcDbHatch
 10
0.0
 20
0.0
 30
0.0
210
0.0
220
0.0
230
1.0
  2
SOLID
 70
     1
 71
     0
 91
        1
 92
        3
 72
     0
 73
     1
 93
        3
 10
-55.961269802517357
 20
25.273048231336805
 10
-54.18325602213541
 20
25.273048231336805
 10
-55.029888237847217
 20
20.108333333333331
 97
        0
 75
     0
 76
     1
 98
        1
 10
0.0
 20
0.0
  0
POLYLINE
  5
19F
100
AcDbEntity
  8
EBENE_1
 62
     7
100
AcDb2dPolyline
 66
     1
 10
0.0
 20
0.0
 30
0.0
 70
     1
  0
VERTEX
  5
1A0
100
AcDbEntity
  8
EBENE_1
 62
     7
100
AcDbVertex
100
AcDb2dVertex
 10
-55.96127
 20
79.967729
 30
0.0
  0
VERTEX
  5
1A1
100
AcDbEntity
  8
EBENE_1
 62
     7
100
AcDbVertex
100
AcDb2dVertex
 10
-54.183256
 20
79.967729
 30
0.0
  0
VERTEX
  5
1A2
100
AcDbEntity
  8
EBENE_1
 62
     7
100
AcDbVertex
100
AcDb2dVertex
 10
-55.029888
 20
85.132271
 30
0.0
  0
SEQEND
  5
1A3
100
AcDbEntity
  8
EBENE_1
 62
     7
  0
HATCH
  5
19E
100
AcDbEntity
  8
EBENE_1
 62
     7
100
AcDbHatch
 10
0.0
 20
0.0
 30
0.0
210
0.0
220
0.0
230
1.0
  2
SOLID
 70
     1
 71
     0
 91
        1
 92
        3
 72
     0
 73
     1
 93
        3
 10
-55.961269802517357
 20
79.967728678385413
 10
-54.18325602213541
 20
79.967728678385413
 10
-55.029888237847217
 20
85.132271321614581
 97
        0
 75
     0
 76
     1
 98
        1
 10
0.0
 20
0.0
  0
LINE
  5
19D
100
AcDbEntity
  8
EBENE_1
 62
     7
100
AcDbLine
 10
-61.718541
 20
48.471632
 30
0.0
 11
-61.718541
 21
51.858333
 31
0.0
  0
LINE
  5
19C
100
AcDbEntity
  8
EBENE_1
 62
     7
100
AcDbLine
 10
-61.718541
 20
51.858333
 30
0.0
 11
-56.553826
 21
49.403014
 31
0.0
  0
LINE
  5
19B
100
AcDbEntity
  8
EBENE_1
 62
     7
100
AcDbLine
 10
-56.553826
 20
49.403014
 30
0.0
 11
-56.553826
 21
49.403014
 31
0.0
  0
LINE
  5
19A
100
AcDbEntity
  8
EBENE_1
 62
     7
100
AcDbLine
 10
-61.718541
 20
56.345742
 30
0.0
 11
-61.718541
 21
53.890251
 31
0.0
  0
LINE
  5
199
100
AcDbEntity
  8
EBENE_1
 62
     7
100
AcDbLine
 10
-61.718541
 20
53.890251
 30
0.0
 11
-59.517125
 21
53.636347
 31
0.0
  0
LINE
  5
198
100
AcDbEntity
  8
EBENE_1
 62
     7
100
AcDbLine
 10
-59.517125
 20
53.636347
 30
0.0
 11
-59.771201
 21
53.890251
 31
0.0
  0
LINE
  5
197
100
AcDbEntity
  8
EBENE_1
 62
     7
100
AcDbLine
 10
-59.771201
 20
53.890251
 30
0.0
 11
-59.940527
 21
54.567729
 31
0.0
  0
LINE
  5
196
100
AcDbEntity
  8
EBENE_1
 62
     7
100
AcDbLine
 10
-59.940527
 20
54.567729
 30
0.0
 11
-59.940527
 21
55.329612
 31
0.0
  0
LINE
  5
195
100
AcDbEntity
  8
EBENE_1
 62
     7
100
AcDbLine
 10
-59.940527
 20
55.329612
 30
0.0
 11
-59.771201
 21
56.091667
 31
0.0
  0
LINE
  5
194
100
AcDbEntity
  8
EBENE_1
 62
     7
100
AcDbLine
 10
-59.771201
 20
56.091667
 30
0.0
 11
-59.263222
 21
56.514897
 31
0.0
  0
LINE
  5
193
100
AcDbEntity
  8
EBENE_1
 62
     7
100
AcDbLine
 10
-59.263222
 20
56.514897
 30
0.0
 11
-58.501166
 21
56.768972
 31
0.0
  0
LINE
  5
192
100
AcDbEntity
  8
EBENE_1
 62
     7
100
AcDbLine
 10
-58.501166
 20
56.768972
 30
0.0
 11
-57.993187
 21
56.768972
 31
0.0
  0
LINE
  5
191
100
AcDbEntity
  8
EBENE_1
 62
     7
100
AcDbLine
 10
-57.993187
 20
56.768972
 30
0.0
 11
-57.231132
 21
56.514897
 31
0.0
  0
LINE
  5
190
100
AcDbEntity
  8
EBENE_1
 62
     7
100
AcDbLine
 10
-57.231132
 20
56.514897
 30
0.0
 11
-56.807902
 21
56.091667
 31
0.0
  0
LINE
  5
18F
100
AcDbEntity
  8
EBENE_1
 62
     7
100
AcDbLine
 10
-56.807902
 20
56.091667
 30
0.0
 11
-56.553826
 21
55.329612
 31
0.0
  0
LINE
  5
18E
100
AcDbEntity
  8
EBENE_1
 62
     7
100
AcDbLine
 10
-56.553826
 20
55.329612
 30
0.0
 11
-56.553826
 21
54.567729
 31
0.0
  0
LINE
  5
18D
100
AcDbEntity
  8
EBENE_1
 62
     7
100
AcDbLine
 10
-56.553826
 20
54.567729
 30
0.0
 11
-56.807902
 21
53.890251
 31
0.0
  0
LINE
  5
18C
100
AcDbEntity
  8
EBENE_1
 62
     7
100
AcDbLine
 10
-56.807902
 20
53.890251
 30
0.0
 11
-57.061806
 21
53.636347
 31
0.0
  0
LINE
  5
18B
100
AcDbEntity
  8
EBENE_1
 62
     7
100
AcDbLine
 10
-57.061806
 20
53.636347
 30
0.0
 11
-57.485208
 21
53.382271
 31
0.0
  0
LINE
  5
18A
100
AcDbEntity
  8
EBENE_1
 62
     7
100
AcDbLine
 10
-57.485208
 20
53.382271
 30
0.0
 11
-57.485208
 21
53.382271
 31
0.0
  0
LINE
  5
189
100
AcDbEntity
  8
EBENE_1
 62
     7
100
AcDbLine
 10
-39.027936
 20
116.967021
 30
0.0
 11
-39.027936
 21
128.396986
 31
0.0
  0
LINE
  5
188
100
AcDbEntity
  8
EBENE_1
 62
     7
100
AcDbLine
 10
-34.87918
 20
76.665605
 30
0.0
 11
-34.87918
 21
128.396986
 31
0.0
  0
LINE
  5
187
100
AcDbEntity
  8
EBENE_1
 62
     7
100
AcDbLine
 10
-44.107902
 20
127.634931
 30
0.0
 11
-49.272617
 21
127.634931
 31
0.0
  0
LINE
  5
186
100
AcDbEntity
  8
EBENE_1
 62
     7
100
AcDbLine
 10
-29.714465
 20
127.634931
 30
0.0
 11
-24.549923
 21
127.634931
 31
0.0
  0
LINE
  5
185
100
AcDbEntity
  8
EBENE_1
 62
     7
100
AcDbLine
 10
-39.027936
 20
127.634931
 30
0.0
 11
-34.87918
 21
127.634931
 31
0.0
  0
POLYLINE
  5
180
100
AcDbEntity
  8
EBENE_1
 62
     7
100
AcDb2dPolyline
 66
     1
 10
0.0
 20
0.0
 30
0.0
 70
     1
  0
VERTEX
  5
181
100
AcDbEntity
  8
EBENE_1
 62
     7
100
AcDbVertex
100
AcDb2dVertex
 10
-44.107902
 20
128.481563
 30
0.0
  0
VERTEX
  5
182
100
AcDbEntity
  8
EBENE_1
 62
     7
100
AcDbVertex
100
AcDb2dVertex
 10
-44.107902
 20
126.788299
 30
0.0
  0
VERTEX
  5
183
100
AcDbEntity
  8
EBENE_1
 62
     7
100
AcDbVertex
100
AcDb2dVertex
 10
-39.027936
 20
127.634931
 30
0.0
  0
SEQEND
  5
184
100
AcDbEntity
  8
EBENE_1
 62
     7
  0
HATCH
  5
17F
100
AcDbEntity
  8
EBENE_1
 62
     7
100
AcDbHatch
 10
0.0
 20
0.0
 30
0.0
210
0.0
220
0.0
230
1.0
  2
SOLID
 70
     1
 71
     0
 91
        1
 92
        3
 72
     0
 73
     1
 93
        3
 10
-44.107902018229161
 20
128.48156331380207
 10
-44.107902018229161
 20
126.78829888237846
 10
-39.027936469184027
 20
127.63493109809026
 97
        0
 75
     0
 76
     1
 98
        1
 10
0.0
 20
0.0
  0
POLYLINE
  5
17A
100
AcDbEntity
  8
EBENE_1
 62
     7
100
AcDb2dPolyline
 66
     1
 10
0.0
 20
0.0
 30
0.0
 70
     1
  0
VERTEX
  5
17B
100
AcDbEntity
  8
EBENE_1
 62
     7
100
AcDbVertex
100
AcDb2dVertex
 10
-29.714465
 20
128.481563
 30
0.0
  0
VERTEX
  5
17C
100
AcDbEntity
  8
EBENE_1
 62
     7
100
AcDbVertex
100
AcDb2dVertex
 10
-29.714465
 20
126.788299
 30
0.0
  0
VERTEX
  5
17D
100
AcDbEntity
  8
EBENE_1
 62
     7
100
AcDbVertex
100
AcDb2dVertex
 10
-34.87918
 20
127.634931
 30
0.0
  0
SEQEND
  5
17E
100
AcDbEntity
  8
EBENE_1
 62
     7
  0
HATCH
  5
179
100
AcDbEntity
  8
EBENE_1
 62
     7
100
AcDbHatch
 10
0.0
 20
0.0
 30
0.0
210
0.0
220
0.0
230
1.0
  2
SOLID
 70
     1
 71
     0
 91
        1
 92
        3
 72
     0
 73
     1
 93
        3
 10
-29.714465332031246
 20
128.48156331380207
 10
-29.714465332031246
 20
126.78829888237846
 10
-34.87918023003472
 20
127.63493109809026
 97
        0
 75
     0
 76
     1
 98
        1
 10
0.0
 20
0.0
  0
LINE
  5
178
100
AcDbEntity
  8
EBENE_1
 62
     7
100
AcDbLine
 10
-38.689284
 20
129.159041
 30
0.0
 11
-38.689284
 21
134.323584
 31
0.0
  0
LINE
  5
177
100
AcDbEntity
  8
EBENE_1
 62
     7
100
AcDbLine
 10
-38.689284
 20
134.323584
 30
0.0
 11
-36.487868
 21
134.323584
 31
0.0
  0
LINE
  5
176
100
AcDbEntity
  8
EBENE_1
 62
     7
100
AcDbLine
 10
-36.487868
 20
134.323584
 30
0.0
 11
-35.725812
 21
134.06968
 31
0.0
  0
LINE
  5
175
100
AcDbEntity
  8
EBENE_1
 62
     7
100
AcDbLine
 10
-35.725812
 20
134.06968
 30
0.0
 11
-35.471909
 21
133.815605
 31
0.0
  0
LINE
  5
174
100
AcDbEntity
  8
EBENE_1
 62
     7
100
AcDbLine
 10
-35.471909
 20
133.815605
 30
0.0
 11
-35.217833
 21
133.307625
 31
0.0
  0
LINE
  5
173
100
AcDbEntity
  8
EBENE_1
 62
     7
100
AcDbLine
 10
-35.217833
 20
133.307625
 30
0.0
 11
-35.217833
 21
132.799646
 31
0.0
  0
LINE
  5
172
100
AcDbEntity
  8
EBENE_1
 62
     7
100
AcDbLine
 10
-35.217833
 20
132.799646
 30
0.0
 11
-35.471909
 21
132.291667
 31
0.0
  0
LINE
  5
171
100
AcDbEntity
  8
EBENE_1
 62
     7
100
AcDbLine
 10
-35.471909
 20
132.291667
 30
0.0
 11
-35.725812
 21
132.037591
 31
0.0
  0
LINE
  5
170
100
AcDbEntity
  8
EBENE_1
 62
     7
100
AcDbLine
 10
-35.725812
 20
132.037591
 30
0.0
 11
-36.487868
 21
131.868264
 31
0.0
  0
LINE
  5
16F
100
AcDbEntity
  8
EBENE_1
 62
     7
100
AcDbLine
 10
-38.689284
 20
131.868264
 30
0.0
 11
-36.487868
 21
131.868264
 31
0.0
  0
LINE
  5
16E
100
AcDbEntity
  8
EBENE_1
 62
     7
100
AcDbLine
 10
-36.487868
 20
131.868264
 30
0.0
 11
-35.725812
 21
131.614361
 31
0.0
  0
LINE
  5
16D
100
AcDbEntity
  8
EBENE_1
 62
     7
100
AcDbLine
 10
-35.725812
 20
131.614361
 30
0.0
 11
-35.471909
 21
131.360285
 31
0.0
  0
LINE
  5
16C
100
AcDbEntity
  8
EBENE_1
 62
     7
100
AcDbLine
 10
-35.471909
 20
131.360285
 30
0.0
 11
-35.217833
 21
130.852306
 31
0.0
  0
LINE
  5
16B
100
AcDbEntity
  8
EBENE_1
 62
     7
100
AcDbLine
 10
-35.217833
 20
130.852306
 30
0.0
 11
-35.217833
 21
130.090251
 31
0.0
  0
LINE
  5
16A
100
AcDbEntity
  8
EBENE_1
 62
     7
100
AcDbLine
 10
-35.217833
 20
130.090251
 30
0.0
 11
-35.471909
 21
129.582271
 31
0.0
  0
LINE
  5
169
100
AcDbEntity
  8
EBENE_1
 62
     7
100
AcDbLine
 10
-35.471909
 20
129.582271
 30
0.0
 11
-35.725812
 21
129.412945
 31
0.0
  0
LINE
  5
168
100
AcDbEntity
  8
EBENE_1
 62
     7
100
AcDbLine
 10
-35.725812
 20
129.412945
 30
0.0
 11
-36.487868
 21
129.159041
 31
0.0
  0
LINE
  5
167
100
AcDbEntity
  8
EBENE_1
 62
     7
100
AcDbLine
 10
-36.487868
 20
129.159041
 30
0.0
 11
-38.689284
 21
129.159041
 31
0.0
  0
LINE
  5
166
100
AcDbEntity
  8
EBENE_1
 62
     7
100
AcDbLine
 10
-29.883792
 20
20.108333
 30
0.0
 11
-29.883792
 21
14.266313
 31
0.0
  0
LINE
  5
165
100
AcDbEntity
  8
EBENE_1
 62
     7
100
AcDbLine
 10
-25.735208
 20
20.108333
 30
0.0
 11
-25.904534
 21
21.124292
 31
0.0
  0
LINE
  5
164
100
AcDbEntity
  8
EBENE_1
 62
     7
100
AcDbLine
 10
-25.904534
 20
21.124292
 30
0.0
 11
-26.327936
 21
22.140251
 31
0.0
  0
LINE
  5
163
100
AcDbEntity
  8
EBENE_1
 62
     7
100
AcDbLine
 10
-26.327936
 20
22.140251
 30
0.0
 11
-27.005242
 21
22.987055
 31
0.0
  0
LINE
  5
162
100
AcDbEntity
  8
EBENE_1
 62
     7
100
AcDbLine
 10
-27.005242
 20
22.987055
 30
0.0
 11
-27.851874
 21
23.664361
 31
0.0
  0
LINE
  5
161
100
AcDbEntity
  8
EBENE_1
 62
     7
100
AcDbLine
 10
-27.851874
 20
23.664361
 30
0.0
 11
-28.783256
 21
24.087591
 31
0.0
  0
LINE
  5
160
100
AcDbEntity
  8
EBENE_1
 62
     7
100
AcDbLine
 10
-28.783256
 20
24.087591
 30
0.0
 11
-29.883792
 21
24.256917
 31
0.0
  0
LINE
  5
15F
100
AcDbEntity
  8
EBENE_1
 62
     7
100
AcDbLine
 10
-29.883792
 20
24.256917
 30
0.0
 11
-30.9845
 21
24.087591
 31
0.0
  0
LINE
  5
15E
100
AcDbEntity
  8
EBENE_1
 62
     7
100
AcDbLine
 10
-30.9845
 20
24.087591
 30
0.0
 11
-31.915881
 21
23.664361
 31
0.0
  0
LINE
  5
15D
100
AcDbEntity
  8
EBENE_1
 62
     7
100
AcDbLine
 10
-31.915881
 20
23.664361
 30
0.0
 11
-32.762514
 21
22.987055
 31
0.0
  0
LINE
  5
15C
100
AcDbEntity
  8
EBENE_1
 62
     7
100
AcDbLine
 10
-32.762514
 20
22.987055
 30
0.0
 11
-33.439819
 21
22.140251
 31
0.0
  0
LINE
  5
15B
100
AcDbEntity
  8
EBENE_1
 62
     7
100
AcDbLine
 10
-33.439819
 20
22.140251
 30
0.0
 11
-33.863222
 21
21.124292
 31
0.0
  0
LINE
  5
15A
100
AcDbEntity
  8
EBENE_1
 62
     7
100
AcDbLine
 10
-33.863222
 20
21.124292
 30
0.0
 11
-34.032548
 21
20.108333
 31
0.0
  0
LINE
  5
159
100
AcDbEntity
  8
EBENE_1
 62
     7
100
AcDbLine
 10
-34.032548
 20
20.108333
 30
0.0
 11
-33.863222
 21
19.007625
 31
0.0
  0
LINE
  5
158
100
AcDbEntity
  8
EBENE_1
 62
     7
100
AcDbLine
 10
-33.863222
 20
19.007625
 30
0.0
 11
-33.439819
 21
18.076244
 31
0.0
  0
LINE
  5
157
100
AcDbEntity
  8
EBENE_1
 62
     7
100
AcDbLine
 10
-33.439819
 20
18.076244
 30
0.0
 11
-32.762514
 21
17.145034
 31
0.0
  0
LINE
  5
156
100
AcDbEntity
  8
EBENE_1
 62
     7
100
AcDbLine
 10
-32.762514
 20
17.145034
 30
0.0
 11
-31.915881
 21
16.552306
 31
0.0
  0
LINE
  5
155
100
AcDbEntity
  8
EBENE_1
 62
     7
100
AcDbLine
 10
-31.915881
 20
16.552306
 30
0.0
 11
-30.9845
 21
16.129076
 31
0.0
  0
LINE
  5
154
100
AcDbEntity
  8
EBENE_1
 62
     7
100
AcDbLine
 10
-30.9845
 20
16.129076
 30
0.0
 11
-29.883792
 21
15.959577
 31
0.0
  0
LINE
  5
153
100
AcDbEntity
  8
EBENE_1
 62
     7
100
AcDbLine
 10
-29.883792
 20
15.959577
 30
0.0
 11
-28.783256
 21
16.129076
 31
0.0
  0
LINE
  5
152
100
AcDbEntity
  8
EBENE_1
 62
     7
100
AcDbLine
 10
-28.783256
 20
16.129076
 30
0.0
 11
-27.851874
 21
16.552306
 31
0.0
  0
LINE
  5
151
100
AcDbEntity
  8
EBENE_1
 62
     7
100
AcDbLine
 10
-27.851874
 20
16.552306
 30
0.0
 11
-27.005242
 21
17.145034
 31
0.0
  0
LINE
  5
150
100
AcDbEntity
  8
EBENE_1
 62
     7
100
AcDbLine
 10
-27.005242
 20
17.145034
 30
0.0
 11
-26.327936
 21
18.076244
 31
0.0
  0
LINE
  5
14F
100
AcDbEntity
  8
EBENE_1
 62
     7
100
AcDbLine
 10
-26.327936
 20
18.076244
 30
0.0
 11
-25.904534
 21
19.007625
 31
0.0
  0
LINE
  5
14E
100
AcDbEntity
  8
EBENE_1
 62
     7
100
AcDbLine
 10
-25.904534
 20
19.007625
 30
0.0
 11
-25.735208
 21
20.108333
 31
0.0
  0
LINE
  5
14D
100
AcDbEntity
  8
EBENE_1
 62
     7
100
AcDbLine
 10
-29.883792
 20
20.108333
 30
0.0
 11
-35.725812
 21
20.108333
 31
0.0
  0
LINE
  5
14C
100
AcDbEntity
  8
EBENE_1
 62
     7
100
AcDbLine
 10
-27.597799
 20
20.108333
 30
0.0
 11
-27.767125
 21
20.954966
 31
0.0
  0
LINE
  5
14B
100
AcDbEntity
  8
EBENE_1
 62
     7
100
AcDbLine
 10
-27.767125
 20
20.954966
 30
0.0
 11
-28.275277
 21
21.717021
 31
0.0
  0
LINE
  5
14A
100
AcDbEntity
  8
EBENE_1
 62
     7
100
AcDbLine
 10
-28.275277
 20
21.717021
 30
0.0
 11
-29.03716
 21
22.140251
 31
0.0
  0
LINE
  5
149
100
AcDbEntity
  8
EBENE_1
 62
     7
100
AcDbLine
 10
-29.03716
 20
22.140251
 30
0.0
 11
-29.883792
 21
22.394326
 31
0.0
  0
LINE
  5
148
100
AcDbEntity
  8
EBENE_1
 62
     7
100
AcDbLine
 10
-29.883792
 20
22.394326
 30
0.0
 11
-30.730596
 21
22.140251
 31
0.0
  0
LINE
  5
147
100
AcDbEntity
  8
EBENE_1
 62
     7
100
AcDbLine
 10
-30.730596
 20
22.140251
 30
0.0
 11
-31.492479
 21
21.717021
 31
0.0
  0
LINE
  5
146
100
AcDbEntity
  8
EBENE_1
 62
     7
100
AcDbLine
 10
-31.492479
 20
21.717021
 30
0.0
 11
-32.000458
 21
20.954966
 31
0.0
  0
LINE
  5
145
100
AcDbEntity
  8
EBENE_1
 62
     7
100
AcDbLine
 10
-32.000458
 20
20.954966
 30
0.0
 11
-32.169785
 21
20.108333
 31
0.0
  0
LINE
  5
144
100
AcDbEntity
  8
EBENE_1
 62
     7
100
AcDbLine
 10
-32.169785
 20
20.108333
 30
0.0
 11
-32.000458
 21
19.261701
 31
0.0
  0
LINE
  5
143
100
AcDbEntity
  8
EBENE_1
 62
     7
100
AcDbLine
 10
-32.000458
 20
19.261701
 30
0.0
 11
-31.492479
 21
18.499646
 31
0.0
  0
LINE
  5
142
100
AcDbEntity
  8
EBENE_1
 62
     7
100
AcDbLine
 10
-31.492479
 20
18.499646
 30
0.0
 11
-30.730596
 21
17.991667
 31
0.0
  0
LINE
  5
141
100
AcDbEntity
  8
EBENE_1
 62
     7
100
AcDbLine
 10
-30.730596
 20
17.991667
 30
0.0
 11
-29.883792
 21
17.82234
 31
0.0
  0
LINE
  5
140
100
AcDbEntity
  8
EBENE_1
 62
     7
100
AcDbLine
 10
-29.883792
 20
17.82234
 30
0.0
 11
-29.03716
 21
17.991667
 31
0.0
  0
LINE
  5
13F
100
AcDbEntity
  8
EBENE_1
 62
     7
100
AcDbLine
 10
-29.03716
 20
17.991667
 30
0.0
 11
-28.275277
 21
18.499646
 31
0.0
  0
LINE
  5
13E
100
AcDbEntity
  8
EBENE_1
 62
     7
100
AcDbLine
 10
-28.275277
 20
18.499646
 30
0.0
 11
-27.767125
 21
19.261701
 31
0.0
  0
LINE
  5
13D
100
AcDbEntity
  8
EBENE_1
 62
     7
100
AcDbLine
 10
-27.767125
 20
19.261701
 30
0.0
 11
-27.597799
 21
20.108333
 31
0.0
  0
LINE
  5
13C
100
AcDbEntity
  8
EBENE_1
 62
     7
100
AcDbLine
 10
-29.883792
 20
20.108333
 30
0.0
 11
-24.041943
 21
20.108333
 31
0.0
  0
LINE
  5
13B
100
AcDbEntity
  8
EBENE_1
 62
     7
100
AcDbLine
 10
-29.883792
 20
20.108333
 30
0.0
 11
-29.883792
 21
25.950354
 31
0.0
  0
LINE
  5
13A
100
AcDbEntity
  8
EBENE_1
 62
     7
100
AcDbLine
 10
-34.87918
 20
75.141667
 30
0.0
 11
-34.87918
 21
38.734931
 31
0.0
  0
LINE
  5
139
100
AcDbEntity
  8
EBENE_1
 62
     7
100
AcDbLine
 10
-34.87918
 20
38.734931
 30
0.0
 11
-23.957194
 21
38.734931
 31
0.0
  0
LINE
  5
138
100
AcDbEntity
  8
EBENE_1
 62
     7
100
AcDbLine
 10
-23.957194
 20
38.734931
 30
0.0
 11
-23.957194
 21
75.141667
 31
0.0
  0
LINE
  5
137
100
AcDbEntity
  8
EBENE_1
 62
     7
100
AcDbLine
 10
-23.957194
 20
75.141667
 30
0.0
 11
-34.87918
 21
75.141667
 31
0.0
  0
LINE
  5
136
100
AcDbEntity
  8
EBENE_1
 62
     7
100
AcDbLine
 10
-37.249923
 20
106.806917
 30
0.0
 11
-55.791943
 21
106.806917
 31
0.0
  0
LINE
  5
135
100
AcDbEntity
  8
EBENE_1
 62
     7
100
AcDbLine
 10
-40.467125
 20
115.52766
 30
0.0
 11
-55.791943
 21
115.52766
 31
0.0
  0
LINE
  5
134
100
AcDbEntity
  8
EBENE_1
 62
     7
100
AcDbLine
 10
-55.029888
 20
101.642375
 30
0.0
 11
-55.029888
 21
96.47766
 31
0.0
  0
LINE
  5
133
100
AcDbEntity
  8
EBENE_1
 62
     7
100
AcDbLine
 10
-55.029888
 20
120.692375
 30
0.0
 11
-55.029888
 21
125.856917
 31
0.0
  0
LINE
  5
132
100
AcDbEntity
  8
EBENE_1
 62
     7
100
AcDbLine
 10
-55.029888
 20
106.806917
 30
0.0
 11
-55.029888
 21
115.52766
 31
0.0
  0
POLYLINE
  5
12D
100
AcDbEntity
  8
EBENE_1
 62
     7
100
AcDb2dPolyline
 66
     1
 10
0.0
 20
0.0
 30
0.0
 70
     1
  0
VERTEX
  5
12E
100
AcDbEntity
  8
EBENE_1
 62
     7
100
AcDbVertex
100
AcDb2dVertex
 10
-55.96127
 20
101.642375
 30
0.0
  0
VERTEX
  5
12F
100
AcDbEntity
  8
EBENE_1
 62
     7
100
AcDbVertex
100
AcDb2dVertex
 10
-54.183256
 20
101.642375
 30
0.0
  0
VERTEX
  5
130
100
AcDbEntity
  8
EBENE_1
 62
     7
100
AcDbVertex
100
AcDb2dVertex
 10
-55.029888
 20
106.806917
 30
0.0
  0
SEQEND
  5
131
100
AcDbEntity
  8
EBENE_1
 62
     7
  0
HATCH
  5
12C
100
AcDbEntity
  8
EBENE_1
 62
     7
100
AcDbHatch
 10
0.0
 20
0.0
 30
0.0
210
0.0
220
0.0
230
1.0
  2
SOLID
 70
     1
 71
     0
 91
        1
 92
        3
 72
     0
 73
     1
 93
        3
 10
-55.961269802517357
 20
101.64237467447916
 10
-54.18325602213541
 20
101.64237467447916
 10
-55.029888237847217
 20
106.80691731770833
 97
        0
 75
     0
 76
     1
 98
        1
 10
0.0
 20
0.0
  0
POLYLINE
  5
127
100
AcDbEntity
  8
EBENE_1
 62
     7
100
AcDb2dPolyline
 66
     1
 10
0.0
 20
0.0
 30
0.0
 70
     1
  0
VERTEX
  5
128
100
AcDbEntity
  8
EBENE_1
 62
     7
100
AcDbVertex
100
AcDb2dVertex
 10
-55.96127
 20
120.692375
 30
0.0
  0
VERTEX
  5
129
100
AcDbEntity
  8
EBENE_1
 62
     7
100
AcDbVertex
100
AcDb2dVertex
 10
-54.183256
 20
120.692375
 30
0.0
  0
VERTEX
  5
12A
100
AcDbEntity
  8
EBENE_1
 62
     7
100
AcDbVertex
100
AcDb2dVertex
 10
-55.029888
 20
115.52766
 30
0.0
  0
SEQEND
  5
12B
100
AcDbEntity
  8
EBENE_1
 62
     7
  0
HATCH
  5
126
100
AcDbEntity
  8
EBENE_1
 62
     7
100
AcDbHatch
 10
0.0
 20
0.0
 30
0.0
210
0.0
220
0.0
230
1.0
  2
SOLID
 70
     1
 71
     0
 91
        1
 92
        3
 72
     0
 73
     1
 93
        3
 10
-55.961269802517357
 20
120.69237467447915
 10
-54.18325602213541
 20
120.69237467447915
 10
-55.029888237847217
 20
115.52765977647569
 97
        0
 75
     0
 76
     1
 98
        1
 10
0.0
 20
0.0
  0
LINE
  5
125
100
AcDbEntity
  8
EBENE_1
 62
     7
100
AcDbLine
 10
-60.702582
 20
107.484395
 30
0.0
 11
-60.956486
 21
107.992375
 31
0.0
  0
LINE
  5
124
100
AcDbEntity
  8
EBENE_1
 62
     7
100
AcDbLine
 10
-60.956486
 20
107.992375
 30
0.0
 11
-61.718541
 21
108.66968
 31
0.0
  0
LINE
  5
123
100
AcDbEntity
  8
EBENE_1
 62
     7
100
AcDbLine
 10
-61.718541
 20
108.66968
 30
0.0
 11
-56.553826
 21
108.66968
 31
0.0
  0
LINE
  5
122
100
AcDbEntity
  8
EBENE_1
 62
     7
100
AcDbLine
 10
-61.718541
 20
112.903014
 30
0.0
 11
-61.464465
 21
112.140959
 31
0.0
  0
LINE
  5
121
100
AcDbEntity
  8
EBENE_1
 62
     7
100
AcDbLine
 10
-61.464465
 20
112.140959
 30
0.0
 11
-60.702582
 21
111.632979
 31
0.0
  0
LINE
  5
120
100
AcDbEntity
  8
EBENE_1
 62
     7
100
AcDbLine
 10
-60.702582
 20
111.632979
 30
0.0
 11
-59.517125
 21
111.378904
 31
0.0
  0
LINE
  5
11F
100
AcDbEntity
  8
EBENE_1
 62
     7
100
AcDbLine
 10
-59.517125
 20
111.378904
 30
0.0
 11
-58.755242
 21
111.378904
 31
0.0
  0
LINE
  5
11E
100
AcDbEntity
  8
EBENE_1
 62
     7
100
AcDbLine
 10
-58.755242
 20
111.378904
 30
0.0
 11
-57.485208
 21
111.632979
 31
0.0
  0
LINE
  5
11D
100
AcDbEntity
  8
EBENE_1
 62
     7
100
AcDbLine
 10
-57.485208
 20
111.632979
 30
0.0
 11
-56.807902
 21
112.140959
 31
0.0
  0
LINE
  5
11C
100
AcDbEntity
  8
EBENE_1
 62
     7
100
AcDbLine
 10
-56.807902
 20
112.140959
 30
0.0
 11
-56.553826
 21
112.903014
 31
0.0
  0
LINE
  5
11B
100
AcDbEntity
  8
EBENE_1
 62
     7
100
AcDbLine
 10
-56.553826
 20
112.903014
 30
0.0
 11
-56.553826
 21
113.410993
 31
0.0
  0
LINE
  5
11A
100
AcDbEntity
  8
EBENE_1
 62
     7
100
AcDbLine
 10
-56.553826
 20
113.410993
 30
0.0
 11
-56.807902
 21
114.088299
 31
0.0
  0
LINE
  5
119
100
AcDbEntity
  8
EBENE_1
 62
     7
100
AcDbLine
 10
-56.807902
 20
114.088299
 30
0.0
 11
-57.485208
 21
114.596278
 31
0.0
  0
LINE
  5
118
100
AcDbEntity
  8
EBENE_1
 62
     7
100
AcDbLine
 10
-57.485208
 20
114.596278
 30
0.0
 11
-58.755242
 21
114.850354
 31
0.0
  0
LINE
  5
117
100
AcDbEntity
  8
EBENE_1
 62
     7
100
AcDbLine
 10
-58.755242
 20
114.850354
 30
0.0
 11
-59.517125
 21
114.850354
 31
0.0
  0
LINE
  5
116
100
AcDbEntity
  8
EBENE_1
 62
     7
100
AcDbLine
 10
-59.517125
 20
114.850354
 30
0.0
 11
-60.702582
 21
114.596278
 31
0.0
  0
LINE
  5
115
100
AcDbEntity
  8
EBENE_1
 62
     7
100
AcDbLine
 10
-60.702582
 20
114.596278
 30
0.0
 11
-61.464465
 21
114.088299
 31
0.0
  0
LINE
  5
114
100
AcDbEntity
  8
EBENE_1
 62
     7
100
AcDbLine
 10
-61.464465
 20
114.088299
 30
0.0
 11
-61.718541
 21
113.410993
 31
0.0
  0
LINE
  5
113
100
AcDbEntity
  8
EBENE_1
 62
     7
100
AcDbLine
 10
-61.718541
 20
113.410993
 30
0.0
 11
-61.718541
 21
112.903014
 31
0.0
  0
LINE
  5
112
100
AcDbEntity
  8
EBENE_1
 62
     7
100
AcDbLine
 10
-61.718541
 20
112.903014
 30
0.0
 11
-61.718541
 21
112.903014
 31
0.0
  0
LINE
  5
111
100
AcDbEntity
  8
EBENE_1
 62
     7
100
AcDbLine
 10
-37.249923
 20
85.132271
 30
0.0
 11
-55.791943
 21
85.132271
 31
0.0
  0
LINE
  5
110
100
AcDbEntity
  8
EBENE_1
 62
     7
100
AcDbLine
 10
-37.249923
 20
106.806917
 30
0.0
 11
-55.791943
 21
106.806917
 31
0.0
  0
LINE
  5
10F
100
AcDbEntity
  8
EBENE_1
 62
     7
100
AcDbLine
 10
-55.029888
 20
90.296986
 30
0.0
 11
-55.029888
 21
101.642375
 31
0.0
  0
POLYLINE
  5
10A
100
AcDbEntity
  8
EBENE_1
 62
     7
100
AcDb2dPolyline
 66
     1
 10
0.0
 20
0.0
 30
0.0
 70
     1
  0
VERTEX
  5
10B
100
AcDbEntity
  8
EBENE_1
 62
     7
100
AcDbVertex
100
AcDb2dVertex
 10
-55.96127
 20
90.296986
 30
0.0
  0
VERTEX
  5
10C
100
AcDbEntity
  8
EBENE_1
 62
     7
100
AcDbVertex
100
AcDb2dVertex
 10
-54.183256
 20
90.296986
 30
0.0
  0
VERTEX
  5
10D
100
AcDbEntity
  8
EBENE_1
 62
     7
100
AcDbVertex
100
AcDb2dVertex
 10
-55.029888
 20
85.132271
 30
0.0
  0
SEQEND
  5
10E
100
AcDbEntity
  8
EBENE_1
 62
     7
  0
HATCH
  5
109
100
AcDbEntity
  8
EBENE_1
 62
     7
100
AcDbHatch
 10
0.0
 20
0.0
 30
0.0
210
0.0
220
0.0
230
1.0
  2
SOLID
 70
     1
 71
     0
 91
        1
 92
        3
 72
     0
 73
     1
 93
        3
 10
-55.961269802517357
 20
90.296986219618049
 10
-54.18325602213541
 20
90.296986219618049
 10
-55.029888237847217
 20
85.132271321614581
 97
        0
 75
     0
 76
     1
 98
        1
 10
0.0
 20
0.0
  0
POLYLINE
  5
104
100
AcDbEntity
  8
EBENE_1
 62
     7
100
AcDb2dPolyline
 66
     1
 10
0.0
 20
0.0
 30
0.0
 70
     1
  0
VERTEX
  5
105
100
AcDbEntity
  8
EBENE_1
 62
     7
100
AcDbVertex
100
AcDb2dVertex
 10
-55.96127
 20
101.642375
 30
0.0
  0
VERTEX
  5
106
100
AcDbEntity
  8
EBENE_1
 62
     7
100
AcDbVertex
100
AcDb2dVertex
 10
-54.183256
 20
101.642375
 30
0.0
  0
VERTEX
  5
107
100
AcDbEntity
  8
EBENE_1
 62
     7
100
AcDbVertex
100
AcDb2dVertex
 10
-55.029888
 20
106.806917
 30
0.0
  0
SEQEND
  5
108
100
AcDbEntity
  8
EBENE_1
 62
     7
  0
HATCH
  5
103
100
AcDbEntity
  8
EBENE_1
 62
     7
100
AcDbHatch
 10
0.0
 20
0.0
 30
0.0
210
0.0
220
0.0
230
1.0
  2
SOLID
 70
     1
 71
     0
 91
        1
 92
        3
 72
     0
 73
     1
 93
        3
 10
-55.961269802517357
 20
101.64237467447916
 10
-54.18325602213541
 20
101.64237467447916
 10
-55.029888237847217
 20
106.80691731770833
 97
        0
 75
     0
 76
     1
 98
        1
 10
0.0
 20
0.0
  0
LINE
  5
102
100
AcDbEntity
  8
EBENE_1
 62
     7
100
AcDbLine
 10
-60.448507
 20
92.075
 30
0.0
 11
-60.702582
 21
92.075
 31
0.0
  0
LINE
  5
101
100
AcDbEntity
  8
EBENE_1
 62
     7
100
AcDbLine
 10
-60.702582
 20
92.075
 30
0.0
 11
-61.210562
 21
92.328904
 31
0.0
  0
LINE
  5
100
100
AcDbEntity
  8
EBENE_1
 62
     7
100
AcDbLine
 10
-61.210562
 20
92.328904
 30
0.0
 11
-61.464465
 21
92.582979
 31
0.0
  0
LINE
  5
FF
100
AcDbEntity
  8
EBENE_1
 62
     7
100
AcDbLine
 10
-61.464465
 20
92.582979
 30
0.0
 11
-61.718541
 21
93.006382
 31
0.0
  0
LINE
  5
FE
100
AcDbEntity
  8
EBENE_1
 62
     7
100
AcDbLine
 10
-61.718541
 20
93.006382
 30
0.0
 11
-61.718541
 21
94.02234
 31
0.0
  0
LINE
  5
FD
100
AcDbEntity
  8
EBENE_1
 62
     7
100
AcDbLine
 10
-61.718541
 20
94.02234
 30
0.0
 11
-61.464465
 21
94.53032
 31
0.0
  0
LINE
  5
FC
100
AcDbEntity
  8
EBENE_1
 62
     7
100
AcDbLine
 10
-61.464465
 20
94.53032
 30
0.0
 11
-61.210562
 21
94.784395
 31
0.0
  0
LINE
  5
FB
100
AcDbEntity
  8
EBENE_1
 62
     7
100
AcDbLine
 10
-61.210562
 20
94.784395
 30
0.0
 11
-60.702582
 21
95.038299
 31
0.0
  0
LINE
  5
FA
100
AcDbEntity
  8
EBENE_1
 62
     7
100
AcDbLine
 10
-60.702582
 20
95.038299
 30
0.0
 11
-60.194603
 21
95.038299
 31
0.0
  0
LINE
  5
F9
100
AcDbEntity
  8
EBENE_1
 62
     7
100
AcDbLine
 10
-60.194603
 20
95.038299
 30
0.0
 11
-59.771201
 21
94.784395
 31
0.0
  0
LINE
  5
F8
100
AcDbEntity
  8
EBENE_1
 62
     7
100
AcDbLine
 10
-59.771201
 20
94.784395
 30
0.0
 11
-59.009146
 21
94.276244
 31
0.0
  0
LINE
  5
F7
100
AcDbEntity
  8
EBENE_1
 62
     7
100
AcDbLine
 10
-59.009146
 20
94.276244
 30
0.0
 11
-56.553826
 21
91.820924
 31
0.0
  0
LINE
  5
F6
100
AcDbEntity
  8
EBENE_1
 62
     7
100
AcDbLine
 10
-56.553826
 20
91.820924
 30
0.0
 11
-56.553826
 21
95.207625
 31
0.0
  0
LINE
  5
F5
100
AcDbEntity
  8
EBENE_1
 62
     7
100
AcDbLine
 10
-61.718541
 20
99.695034
 30
0.0
 11
-61.718541
 21
97.239715
 31
0.0
  0
LINE
  5
F4
100
AcDbEntity
  8
EBENE_1
 62
     7
100
AcDbLine
 10
-61.718541
 20
97.239715
 30
0.0
 11
-59.517125
 21
96.985639
 31
0.0
  0
LINE
  5
F3
100
AcDbEntity
  8
EBENE_1
 62
     7
100
AcDbLine
 10
-59.517125
 20
96.985639
 30
0.0
 11
-59.771201
 21
97.239715
 31
0.0
  0
LINE
  5
F2
100
AcDbEntity
  8
EBENE_1
 62
     7
100
AcDbLine
 10
-59.771201
 20
97.239715
 30
0.0
 11
-59.940527
 21
97.917021
 31
0.0
  0
LINE
  5
F1
100
AcDbEntity
  8
EBENE_1
 62
     7
100
AcDbLine
 10
-59.940527
 20
97.917021
 30
0.0
 11
-59.940527
 21
98.678904
 31
0.0
  0
LINE
  5
F0
100
AcDbEntity
  8
EBENE_1
 62
     7
100
AcDbLine
 10
-59.940527
 20
98.678904
 30
0.0
 11
-59.771201
 21
99.440959
 31
0.0
  0
LINE
  5
EF
100
AcDbEntity
  8
EBENE_1
 62
     7
100
AcDbLine
 10
-59.771201
 20
99.440959
 30
0.0
 11
-59.263222
 21
99.948938
 31
0.0
  0
LINE
  5
EE
100
AcDbEntity
  8
EBENE_1
 62
     7
100
AcDbLine
 10
-59.263222
 20
99.948938
 30
0.0
 11
-58.501166
 21
100.118264
 31
0.0
  0
LINE
  5
ED
100
AcDbEntity
  8
EBENE_1
 62
     7
100
AcDbLine
 10
-58.501166
 20
100.118264
 30
0.0
 11
-57.993187
 21
100.118264
 31
0.0
  0
LINE
  5
EC
100
AcDbEntity
  8
EBENE_1
 62
     7
100
AcDbLine
 10
-57.993187
 20
100.118264
 30
0.0
 11
-57.231132
 21
99.948938
 31
0.0
  0
LINE
  5
EB
100
AcDbEntity
  8
EBENE_1
 62
     7
100
AcDbLine
 10
-57.231132
 20
99.948938
 30
0.0
 11
-56.807902
 21
99.440959
 31
0.0
  0
LINE
  5
EA
100
AcDbEntity
  8
EBENE_1
 62
     7
100
AcDbLine
 10
-56.807902
 20
99.440959
 30
0.0
 11
-56.553826
 21
98.678904
 31
0.0
  0
LINE
  5
E9
100
AcDbEntity
  8
EBENE_1
 62
     7
100
AcDbLine
 10
-56.553826
 20
98.678904
 30
0.0
 11
-56.553826
 21
97.917021
 31
0.0
  0
LINE
  5
E8
100
AcDbEntity
  8
EBENE_1
 62
     7
100
AcDbLine
 10
-56.553826
 20
97.917021
 30
0.0
 11
-56.807902
 21
97.239715
 31
0.0
  0
LINE
  5
E7
100
AcDbEntity
  8
EBENE_1
 62
     7
100
AcDbLine
 10
-56.807902
 20
97.239715
 30
0.0
 11
-57.061806
 21
96.985639
 31
0.0
  0
LINE
  5
E6
100
AcDbEntity
  8
EBENE_1
 62
     7
100
AcDbLine
 10
-57.061806
 20
96.985639
 30
0.0
 11
-57.485208
 21
96.731563
 31
0.0
  0
LINE
  5
E5
100
AcDbEntity
  8
EBENE_1
 62
     7
100
AcDbLine
 10
-57.485208
 20
96.731563
 30
0.0
 11
-57.485208
 21
96.731563
 31
0.0
  0
LINE
  5
E4
100
AcDbEntity
  8
EBENE_1
 62
     7
100
AcDbLine
 10
-29.883792
 20
85.132271
 30
0.0
 11
-29.883792
 21
90.974292
 31
0.0
  0
LINE
  5
E3
100
AcDbEntity
  8
EBENE_1
 62
     7
100
AcDbLine
 10
-25.735208
 20
85.132271
 30
0.0
 11
-25.904534
 21
86.232979
 31
0.0
  0
LINE
  5
E2
100
AcDbEntity
  8
EBENE_1
 62
     7
100
AcDbLine
 10
-25.904534
 20
86.232979
 30
0.0
 11
-26.327936
 21
87.164361
 31
0.0
  0
LINE
  5
E1
100
AcDbEntity
  8
EBENE_1
 62
     7
100
AcDbLine
 10
-26.327936
 20
87.164361
 30
0.0
 11
-27.005242
 21
88.09557
 31
0.0
  0
LINE
  5
E0
100
AcDbEntity
  8
EBENE_1
 62
     7
100
AcDbLine
 10
-27.005242
 20
88.09557
 30
0.0
 11
-27.851874
 21
88.688299
 31
0.0
  0
LINE
  5
DF
100
AcDbEntity
  8
EBENE_1
 62
     7
100
AcDbLine
 10
-27.851874
 20
88.688299
 30
0.0
 11
-28.783256
 21
89.111701
 31
0.0
  0
LINE
  5
DE
100
AcDbEntity
  8
EBENE_1
 62
     7
100
AcDbLine
 10
-28.783256
 20
89.111701
 30
0.0
 11
-29.883792
 21
89.281028
 31
0.0
  0
LINE
  5
DD
100
AcDbEntity
  8
EBENE_1
 62
     7
100
AcDbLine
 10
-29.883792
 20
89.281028
 30
0.0
 11
-30.9845
 21
89.111701
 31
0.0
  0
LINE
  5
DC
100
AcDbEntity
  8
EBENE_1
 62
     7
100
AcDbLine
 10
-30.9845
 20
89.111701
 30
0.0
 11
-31.915881
 21
88.688299
 31
0.0
  0
LINE
  5
DB
100
AcDbEntity
  8
EBENE_1
 62
     7
100
AcDbLine
 10
-31.915881
 20
88.688299
 30
0.0
 11
-32.762514
 21
88.09557
 31
0.0
  0
LINE
  5
DA
100
AcDbEntity
  8
EBENE_1
 62
     7
100
AcDbLine
 10
-32.762514
 20
88.09557
 30
0.0
 11
-33.439819
 21
87.164361
 31
0.0
  0
LINE
  5
D9
100
AcDbEntity
  8
EBENE_1
 62
     7
100
AcDbLine
 10
-33.439819
 20
87.164361
 30
0.0
 11
-33.863222
 21
86.232979
 31
0.0
  0
LINE
  5
D8
100
AcDbEntity
  8
EBENE_1
 62
     7
100
AcDbLine
 10
-33.863222
 20
86.232979
 30
0.0
 11
-34.032548
 21
85.132271
 31
0.0
  0
LINE
  5
D7
100
AcDbEntity
  8
EBENE_1
 62
     7
100
AcDbLine
 10
-34.032548
 20
85.132271
 30
0.0
 11
-33.863222
 21
84.116313
 31
0.0
  0
LINE
  5
D6
100
AcDbEntity
  8
EBENE_1
 62
     7
100
AcDbLine
 10
-33.863222
 20
84.116313
 30
0.0
 11
-33.439819
 21
83.100354
 31
0.0
  0
LINE
  5
D5
100
AcDbEntity
  8
EBENE_1
 62
     7
100
AcDbLine
 10
-33.439819
 20
83.100354
 30
0.0
 11
-32.762514
 21
82.253722
 31
0.0
  0
LINE
  5
D4
100
AcDbEntity
  8
EBENE_1
 62
     7
100
AcDbLine
 10
-32.762514
 20
82.253722
 30
0.0
 11
-31.915881
 21
81.576244
 31
0.0
  0
LINE
  5
D3
100
AcDbEntity
  8
EBENE_1
 62
     7
100
AcDbLine
 10
-31.915881
 20
81.576244
 30
0.0
 11
-30.9845
 21
81.153014
 31
0.0
  0
LINE
  5
D2
100
AcDbEntity
  8
EBENE_1
 62
     7
100
AcDbLine
 10
-30.9845
 20
81.153014
 30
0.0
 11
-29.883792
 21
80.983687
 31
0.0
  0
LINE
  5
D1
100
AcDbEntity
  8
EBENE_1
 62
     7
100
AcDbLine
 10
-29.883792
 20
80.983687
 30
0.0
 11
-28.783256
 21
81.153014
 31
0.0
  0
LINE
  5
D0
100
AcDbEntity
  8
EBENE_1
 62
     7
100
AcDbLine
 10
-28.783256
 20
81.153014
 30
0.0
 11
-27.851874
 21
81.576244
 31
0.0
  0
LINE
  5
CF
100
AcDbEntity
  8
EBENE_1
 62
     7
100
AcDbLine
 10
-27.851874
 20
81.576244
 30
0.0
 11
-27.005242
 21
82.253722
 31
0.0
  0
LINE
  5
CE
100
AcDbEntity
  8
EBENE_1
 62
     7
100
AcDbLine
 10
-27.005242
 20
82.253722
 30
0.0
 11
-26.327936
 21
83.100354
 31
0.0
  0
LINE
  5
CD
100
AcDbEntity
  8
EBENE_1
 62
     7
100
AcDbLine
 10
-26.327936
 20
83.100354
 30
0.0
 11
-25.904534
 21
84.116313
 31
0.0
  0
LINE
  5
CC
100
AcDbEntity
  8
EBENE_1
 62
     7
100
AcDbLine
 10
-25.904534
 20
84.116313
 30
0.0
 11
-25.735208
 21
85.132271
 31
0.0
  0
LINE
  5
CB
100
AcDbEntity
  8
EBENE_1
 62
     7
100
AcDbLine
 10
-29.883792
 20
85.132271
 30
0.0
 11
-35.725812
 21
85.132271
 31
0.0
  0
LINE
  5
CA
100
AcDbEntity
  8
EBENE_1
 62
     7
100
AcDbLine
 10
-27.597799
 20
85.132271
 30
0.0
 11
-27.767125
 21
85.978904
 31
0.0
  0
LINE
  5
C9
100
AcDbEntity
  8
EBENE_1
 62
     7
100
AcDbLine
 10
-27.767125
 20
85.978904
 30
0.0
 11
-28.275277
 21
86.740959
 31
0.0
  0
LINE
  5
C8
100
AcDbEntity
  8
EBENE_1
 62
     7
100
AcDbLine
 10
-28.275277
 20
86.740959
 30
0.0
 11
-29.03716
 21
87.248938
 31
0.0
  0
LINE
  5
C7
100
AcDbEntity
  8
EBENE_1
 62
     7
100
AcDbLine
 10
-29.03716
 20
87.248938
 30
0.0
 11
-29.883792
 21
87.418264
 31
0.0
  0
LINE
  5
C6
100
AcDbEntity
  8
EBENE_1
 62
     7
100
AcDbLine
 10
-29.883792
 20
87.418264
 30
0.0
 11
-30.730596
 21
87.248938
 31
0.0
  0
LINE
  5
C5
100
AcDbEntity
  8
EBENE_1
 62
     7
100
AcDbLine
 10
-30.730596
 20
87.248938
 30
0.0
 11
-31.492479
 21
86.740959
 31
0.0
  0
LINE
  5
C4
100
AcDbEntity
  8
EBENE_1
 62
     7
100
AcDbLine
 10
-31.492479
 20
86.740959
 30
0.0
 11
-32.000458
 21
85.978904
 31
0.0
  0
LINE
  5
C3
100
AcDbEntity
  8
EBENE_1
 62
     7
100
AcDbLine
 10
-32.000458
 20
85.978904
 30
0.0
 11
-32.169785
 21
85.132271
 31
0.0
  0
LINE
  5
C2
100
AcDbEntity
  8
EBENE_1
 62
     7
100
AcDbLine
 10
-32.169785
 20
85.132271
 30
0.0
 11
-32.000458
 21
84.285639
 31
0.0
  0
LINE
  5
C1
100
AcDbEntity
  8
EBENE_1
 62
     7
100
AcDbLine
 10
-32.000458
 20
84.285639
 30
0.0
 11
-31.492479
 21
83.523584
 31
0.0
  0
LINE
  5
C0
100
AcDbEntity
  8
EBENE_1
 62
     7
100
AcDbLine
 10
-31.492479
 20
83.523584
 30
0.0
 11
-30.730596
 21
83.100354
 31
0.0
  0
LINE
  5
BF
100
AcDbEntity
  8
EBENE_1
 62
     7
100
AcDbLine
 10
-30.730596
 20
83.100354
 30
0.0
 11
-29.883792
 21
82.846278
 31
0.0
  0
LINE
  5
BE
100
AcDbEntity
  8
EBENE_1
 62
     7
100
AcDbLine
 10
-29.883792
 20
82.846278
 30
0.0
 11
-29.03716
 21
83.100354
 31
0.0
  0
LINE
  5
BD
100
AcDbEntity
  8
EBENE_1
 62
     7
100
AcDbLine
 10
-29.03716
 20
83.100354
 30
0.0
 11
-28.275277
 21
83.523584
 31
0.0
  0
LINE
  5
BC
100
AcDbEntity
  8
EBENE_1
 62
     7
100
AcDbLine
 10
-28.275277
 20
83.523584
 30
0.0
 11
-27.767125
 21
84.285639
 31
0.0
  0
LINE
  5
BB
100
AcDbEntity
  8
EBENE_1
 62
     7
100
AcDbLine
 10
-27.767125
 20
84.285639
 30
0.0
 11
-27.597799
 21
85.132271
 31
0.0
  0
LINE
  5
BA
100
AcDbEntity
  8
EBENE_1
 62
     7
100
AcDbLine
 10
-29.883792
 20
85.132271
 30
0.0
 11
-24.041943
 21
85.132271
 31
0.0
  0
LINE
  5
B9
100
AcDbEntity
  8
EBENE_1
 62
     7
100
AcDbLine
 10
-29.883792
 20
85.132271
 30
0.0
 11
-29.883792
 21
79.290251
 31
0.0
  0
LINE
  5
B8
100
AcDbEntity
  8
EBENE_1
 62
     7
100
AcDbLine
 10
-29.883792
 20
106.806917
 30
0.0
 11
-29.883792
 21
112.648938
 31
0.0
  0
LINE
  5
B7
100
AcDbEntity
  8
EBENE_1
 62
     7
100
AcDbLine
 10
-27.597799
 20
106.806917
 30
0.0
 11
-27.767125
 21
107.653722
 31
0.0
  0
LINE
  5
B6
100
AcDbEntity
  8
EBENE_1
 62
     7
100
AcDbLine
 10
-27.767125
 20
107.653722
 30
0.0
 11
-28.275277
 21
108.415605
 31
0.0
  0
LINE
  5
B5
100
AcDbEntity
  8
EBENE_1
 62
     7
100
AcDbLine
 10
-28.275277
 20
108.415605
 30
0.0
 11
-29.03716
 21
108.923584
 31
0.0
  0
LINE
  5
B4
100
AcDbEntity
  8
EBENE_1
 62
     7
100
AcDbLine
 10
-29.03716
 20
108.923584
 30
0.0
 11
-29.883792
 21
109.09291
 31
0.0
  0
LINE
  5
B3
100
AcDbEntity
  8
EBENE_1
 62
     7
100
AcDbLine
 10
-29.883792
 20
109.09291
 30
0.0
 11
-30.730596
 21
108.923584
 31
0.0
  0
LINE
  5
B2
100
AcDbEntity
  8
EBENE_1
 62
     7
100
AcDbLine
 10
-30.730596
 20
108.923584
 30
0.0
 11
-31.492479
 21
108.415605
 31
0.0
  0
LINE
  5
B1
100
AcDbEntity
  8
EBENE_1
 62
     7
100
AcDbLine
 10
-31.492479
 20
108.415605
 30
0.0
 11
-32.000458
 21
107.653722
 31
0.0
  0
LINE
  5
B0
100
AcDbEntity
  8
EBENE_1
 62
     7
100
AcDbLine
 10
-32.000458
 20
107.653722
 30
0.0
 11
-32.169785
 21
106.806917
 31
0.0
  0
LINE
  5
AF
100
AcDbEntity
  8
EBENE_1
 62
     7
100
AcDbLine
 10
-32.169785
 20
106.806917
 30
0.0
 11
-32.000458
 21
105.960285
 31
0.0
  0
LINE
  5
AE
100
AcDbEntity
  8
EBENE_1
 62
     7
100
AcDbLine
 10
-32.000458
 20
105.960285
 30
0.0
 11
-31.492479
 21
105.19823
 31
0.0
  0
LINE
  5
AD
100
AcDbEntity
  8
EBENE_1
 62
     7
100
AcDbLine
 10
-31.492479
 20
105.19823
 30
0.0
 11
-30.730596
 21
104.775
 31
0.0
  0
LINE
  5
AC
100
AcDbEntity
  8
EBENE_1
 62
     7
100
AcDbLine
 10
-30.730596
 20
104.775
 30
0.0
 11
-29.883792
 21
104.605674
 31
0.0
  0
LINE
  5
AB
100
AcDbEntity
  8
EBENE_1
 62
     7
100
AcDbLine
 10
-29.883792
 20
104.605674
 30
0.0
 11
-29.03716
 21
104.775
 31
0.0
  0
LINE
  5
AA
100
AcDbEntity
  8
EBENE_1
 62
     7
100
AcDbLine
 10
-29.03716
 20
104.775
 30
0.0
 11
-28.275277
 21
105.19823
 31
0.0
  0
LINE
  5
A9
100
AcDbEntity
  8
EBENE_1
 62
     7
100
AcDbLine
 10
-28.275277
 20
105.19823
 30
0.0
 11
-27.767125
 21
105.960285
 31
0.0
  0
LINE
  5
A8
100
AcDbEntity
  8
EBENE_1
 62
     7
100
AcDbLine
 10
-27.767125
 20
105.960285
 30
0.0
 11
-27.597799
 21
106.806917
 31
0.0
  0
LINE
  5
A7
100
AcDbEntity
  8
EBENE_1
 62
     7
100
AcDbLine
 10
-25.735208
 20
106.806917
 30
0.0
 11
-25.904534
 21
107.907625
 31
0.0
  0
LINE
  5
A6
100
AcDbEntity
  8
EBENE_1
 62
     7
100
AcDbLine
 10
-25.904534
 20
107.907625
 30
0.0
 11
-26.327936
 21
108.923584
 31
0.0
  0
LINE
  5
A5
100
AcDbEntity
  8
EBENE_1
 62
     7
100
AcDbLine
 10
-26.327936
 20
108.923584
 30
0.0
 11
-27.005242
 21
109.770388
 31
0.0
  0
LINE
  5
A4
100
AcDbEntity
  8
EBENE_1
 62
     7
100
AcDbLine
 10
-27.005242
 20
109.770388
 30
0.0
 11
-27.851874
 21
110.362945
 31
0.0
  0
LINE
  5
A3
100
AcDbEntity
  8
EBENE_1
 62
     7
100
AcDbLine
 10
-27.851874
 20
110.362945
 30
0.0
 11
-28.783256
 21
110.786347
 31
0.0
  0
LINE
  5
A2
100
AcDbEntity
  8
EBENE_1
 62
     7
100
AcDbLine
 10
-28.783256
 20
110.786347
 30
0.0
 11
-29.883792
 21
110.955674
 31
0.0
  0
LINE
  5
A1
100
AcDbEntity
  8
EBENE_1
 62
     7
100
AcDbLine
 10
-29.883792
 20
110.955674
 30
0.0
 11
-30.9845
 21
110.786347
 31
0.0
  0
LINE
  5
A0
100
AcDbEntity
  8
EBENE_1
 62
     7
100
AcDbLine
 10
-30.9845
 20
110.786347
 30
0.0
 11
-31.915881
 21
110.362945
 31
0.0
  0
LINE
  5
9F
100
AcDbEntity
  8
EBENE_1
 62
     7
100
AcDbLine
 10
-31.915881
 20
110.362945
 30
0.0
 11
-32.762514
 21
109.770388
 31
0.0
  0
LINE
  5
9E
100
AcDbEntity
  8
EBENE_1
 62
     7
100
AcDbLine
 10
-32.762514
 20
109.770388
 30
0.0
 11
-33.439819
 21
108.923584
 31
0.0
  0
LINE
  5
9D
100
AcDbEntity
  8
EBENE_1
 62
     7
100
AcDbLine
 10
-33.439819
 20
108.923584
 30
0.0
 11
-33.863222
 21
107.907625
 31
0.0
  0
LINE
  5
9C
100
AcDbEntity
  8
EBENE_1
 62
     7
100
AcDbLine
 10
-33.863222
 20
107.907625
 30
0.0
 11
-34.032548
 21
106.806917
 31
0.0
  0
LINE
  5
9B
100
AcDbEntity
  8
EBENE_1
 62
     7
100
AcDbLine
 10
-34.032548
 20
106.806917
 30
0.0
 11
-33.863222
 21
105.790959
 31
0.0
  0
LINE
  5
9A
100
AcDbEntity
  8
EBENE_1
 62
     7
100
AcDbLine
 10
-33.863222
 20
105.790959
 30
0.0
 11
-33.439819
 21
104.775
 31
0.0
  0
LINE
  5
99
100
AcDbEntity
  8
EBENE_1
 62
     7
100
AcDbLine
 10
-33.439819
 20
104.775
 30
0.0
 11
-32.762514
 21
103.928368
 31
0.0
  0
LINE
  5
98
100
AcDbEntity
  8
EBENE_1
 62
     7
100
AcDbLine
 10
-32.762514
 20
103.928368
 30
0.0
 11
-31.915881
 21
103.251062
 31
0.0
  0
LINE
  5
97
100
AcDbEntity
  8
EBENE_1
 62
     7
100
AcDbLine
 10
-31.915881
 20
103.251062
 30
0.0
 11
-30.9845
 21
102.82766
 31
0.0
  0
LINE
  5
96
100
AcDbEntity
  8
EBENE_1
 62
     7
100
AcDbLine
 10
-30.9845
 20
102.82766
 30
0.0
 11
-29.883792
 21
102.74291
 31
0.0
  0
LINE
  5
95
100
AcDbEntity
  8
EBENE_1
 62
     7
100
AcDbLine
 10
-29.883792
 20
102.74291
 30
0.0
 11
-28.783256
 21
102.82766
 31
0.0
  0
LINE
  5
94
100
AcDbEntity
  8
EBENE_1
 62
     7
100
AcDbLine
 10
-28.783256
 20
102.82766
 30
0.0
 11
-27.851874
 21
103.251062
 31
0.0
  0
LINE
  5
93
100
AcDbEntity
  8
EBENE_1
 62
     7
100
AcDbLine
 10
-27.851874
 20
103.251062
 30
0.0
 11
-27.005242
 21
103.928368
 31
0.0
  0
LINE
  5
92
100
AcDbEntity
  8
EBENE_1
 62
     7
100
AcDbLine
 10
-27.005242
 20
103.928368
 30
0.0
 11
-26.327936
 21
104.775
 31
0.0
  0
LINE
  5
91
100
AcDbEntity
  8
EBENE_1
 62
     7
100
AcDbLine
 10
-26.327936
 20
104.775
 30
0.0
 11
-25.904534
 21
105.790959
 31
0.0
  0
LINE
  5
90
100
AcDbEntity
  8
EBENE_1
 62
     7
100
AcDbLine
 10
-25.904534
 20
105.790959
 30
0.0
 11
-25.735208
 21
106.806917
 31
0.0
  0
LINE
  5
8F
100
AcDbEntity
  8
EBENE_1
 62
     7
100
AcDbLine
 10
-29.883792
 20
106.806917
 30
0.0
 11
-35.725812
 21
106.806917
 31
0.0
  0
LINE
  5
8E
100
AcDbEntity
  8
EBENE_1
 62
     7
100
AcDbLine
 10
-29.883792
 20
106.806917
 30
0.0
 11
-24.041943
 21
106.806917
 31
0.0
  0
LINE
  5
8D
100
AcDbEntity
  8
EBENE_1
 62
     7
100
AcDbLine
 10
-29.883792
 20
106.806917
 30
0.0
 11
-29.883792
 21
100.964897
 31
0.0
  0
LINE
  5
8C
100
AcDbEntity
  8
EBENE_1
 62
     7
100
AcDbLine
 10
-37.249923
 20
113.749646
 30
0.0
 11
-34.709854
 21
113.749646
 31
0.0
  0
LINE
  5
8B
100
AcDbEntity
  8
EBENE_1
 62
     7
100
AcDbLine
 10
-33.355242
 20
113.749646
 30
0.0
 11
-30.56127
 21
113.749646
 31
0.0
  0
LINE
  5
8A
100
AcDbEntity
  8
EBENE_1
 62
     7
100
AcDbLine
 10
-29.206486
 20
113.749646
 30
0.0
 11
-26.412514
 21
113.749646
 31
0.0
  0
LINE
  5
89
100
AcDbEntity
  8
EBENE_1
 62
     7
100
AcDbLine
 10
-25.057902
 20
113.749646
 30
0.0
 11
-22.517833
 21
113.749646
 31
0.0
  0
LINE
  5
88
100
AcDbEntity
  8
EBENE_1
 62
     7
100
AcDbLine
 10
-22.517833
 20
113.749646
 30
0.0
 11
-22.517833
 21
113.749646
 31
0.0
  0
LINE
  5
87
100
AcDbEntity
  8
EBENE_1
 62
     7
100
AcDbLine
 10
-33.355242
 20
115.52766
 30
0.0
 11
-33.355242
 21
113.749646
 31
0.0
  0
LINE
  5
86
100
AcDbEntity
  8
EBENE_1
 62
     7
100
AcDbLine
 10
-26.412514
 20
115.52766
 30
0.0
 11
-26.412514
 21
113.749646
 31
0.0
  0
LINE
  5
85
100
AcDbEntity
  8
EBENE_1
 62
     7
100
AcDbLine
 10
49.787486
 20
1.481563
 30
0.0
 11
51.5655
 21
1.481563
 31
0.0
  0
LINE
  5
84
100
AcDbEntity
  8
EBENE_1
 62
     7
100
AcDbLine
 10
41.574723
 20
20.108333
 30
0.0
 11
45.130751
 21
20.108333
 31
0.0
  0
LINE
  5
83
100
AcDbEntity
  8
EBENE_1
 62
     7
100
AcDbLine
 10
47.839974
 20
20.108333
 30
0.0
 11
47.839974
 21
20.108333
 31
0.0
  0
LINE
  5
82
100
AcDbEntity
  8
EBENE_1
 62
     7
100
AcDbLine
 10
50.634291
 20
20.108333
 30
0.0
 11
54.189974
 21
20.108333
 31
0.0
  0
LINE
  5
81
100
AcDbEntity
  8
EBENE_1
 62
     7
100
AcDbLine
 10
54.189974
 20
20.108333
 30
0.0
 11
54.189974
 21
20.108333
 31
0.0
  0
LINE
  5
80
100
AcDbEntity
  8
EBENE_1
 62
     7
100
AcDbLine
 10
49.787486
 20
38.734931
 30
0.0
 11
51.5655
 21
38.734931
 31
0.0
  0
LINE
  5
7F
100
AcDbEntity
  8
EBENE_1
 62
     7
100
AcDbLine
 10
49.787486
 20
75.141667
 30
0.0
 11
51.5655
 21
75.141667
 31
0.0
  0
LINE
  5
7E
100
AcDbEntity
  8
EBENE_1
 62
     7
100
AcDbLine
 10
44.199542
 20
116.967021
 30
0.0
 11
44.199542
 21
128.396986
 31
0.0
  0
LINE
  5
7D
100
AcDbEntity
  8
EBENE_1
 62
     7
100
AcDbLine
 10
51.5655
 20
115.273584
 30
0.0
 11
51.5655
 21
128.396986
 31
0.0
  0
LINE
  5
7C
100
AcDbEntity
  8
EBENE_1
 62
     7
100
AcDbLine
 10
39.034654
 20
127.634931
 30
0.0
 11
33.870112
 21
127.634931
 31
0.0
  0
LINE
  5
7B
100
AcDbEntity
  8
EBENE_1
 62
     7
100
AcDbLine
 10
56.730043
 20
127.634931
 30
0.0
 11
61.89493
 21
127.634931
 31
0.0
  0
LINE
  5
7A
100
AcDbEntity
  8
EBENE_1
 62
     7
100
AcDbLine
 10
44.199542
 20
127.634931
 30
0.0
 11
51.5655
 21
127.634931
 31
0.0
  0
POLYLINE
  5
75
100
AcDbEntity
  8
EBENE_1
 62
     7
100
AcDb2dPolyline
 66
     1
 10
0.0
 20
0.0
 30
0.0
 70
     1
  0
VERTEX
  5
76
100
AcDbEntity
  8
EBENE_1
 62
     7
100
AcDbVertex
100
AcDb2dVertex
 10
39.034654
 20
128.481563
 30
0.0
  0
VERTEX
  5
77
100
AcDbEntity
  8
EBENE_1
 62
     7
100
AcDbVertex
100
AcDb2dVertex
 10
39.034654
 20
126.788299
 30
0.0
  0
VERTEX
  5
78
100
AcDbEntity
  8
EBENE_1
 62
     7
100
AcDbVertex
100
AcDb2dVertex
 10
44.199542
 20
127.634931
 30
0.0
  0
SEQEND
  5
79
100
AcDbEntity
  8
EBENE_1
 62
     7
  0
HATCH
  5
74
100
AcDbEntity
  8
EBENE_1
 62
     7
100
AcDbHatch
 10
0.0
 20
0.0
 30
0.0
210
0.0
220
0.0
230
1.0
  2
SOLID
 70
     1
 71
     0
 91
        1
 92
        3
 72
     0
 73
     1
 93
        3
 10
39.034654405381943
 20
128.48156331380207
 10
39.034654405381943
 20
126.78829888237846
 10
44.199541558159716
 20
127.63493109809026
 97
        0
 75
     0
 76
     1
 98
        1
 10
0.0
 20
0.0
  0
POLYLINE
  5
6F
100
AcDbEntity
  8
EBENE_1
 62
     7
100
AcDb2dPolyline
 66
     1
 10
0.0
 20
0.0
 30
0.0
 70
     1
  0
VERTEX
  5
70
100
AcDbEntity
  8
EBENE_1
 62
     7
100
AcDbVertex
100
AcDb2dVertex
 10
56.730043
 20
128.481563
 30
0.0
  0
VERTEX
  5
71
100
AcDbEntity
  8
EBENE_1
 62
     7
100
AcDbVertex
100
AcDb2dVertex
 10
56.730043
 20
126.788299
 30
0.0
  0
VERTEX
  5
72
100
AcDbEntity
  8
EBENE_1
 62
     7
100
AcDbVertex
100
AcDb2dVertex
 10
51.5655
 20
127.634931
 30
0.0
  0
SEQEND
  5
73
100
AcDbEntity
  8
EBENE_1
 62
     7
  0
HATCH
  5
6E
100
AcDbEntity
  8
EBENE_1
 62
     7
100
AcDbHatch
 10
0.0
 20
0.0
 30
0.0
210
0.0
220
0.0
230
1.0
  2
SOLID
 70
     1
 71
     0
 91
        1
 92
        3
 72
     0
 73
     1
 93
        3
 10
56.730042860243053
 20
128.48156331380207
 10
56.730042860243053
 20
126.78829888237846
 10
51.565500217013884
 20
127.63493109809026
 97
        0
 75
     0
 76
     1
 98
        1
 10
0.0
 20
0.0
  0
LINE
  5
6D
100
AcDbEntity
  8
EBENE_1
 62
     7
100
AcDbLine
 10
43.69139
 20
134.323584
 30
0.0
 11
42.929335
 21
134.06968
 31
0.0
  0
LINE
  5
6C
100
AcDbEntity
  8
EBENE_1
 62
     7
100
AcDbLine
 10
42.929335
 20
134.06968
 30
0.0
 11
42.675431
 21
133.561701
 31
0.0
  0
LINE
  5
6B
100
AcDbEntity
  8
EBENE_1
 62
     7
100
AcDbLine
 10
42.675431
 20
133.561701
 30
0.0
 11
42.675431
 21
133.053722
 31
0.0
  0
LINE
  5
6A
100
AcDbEntity
  8
EBENE_1
 62
     7
100
AcDbLine
 10
42.675431
 20
133.053722
 30
0.0
 11
42.929335
 21
132.54557
 31
0.0
  0
LINE
  5
69
100
AcDbEntity
  8
EBENE_1
 62
     7
100
AcDbLine
 10
42.929335
 20
132.54557
 30
0.0
 11
43.437486
 21
132.291667
 31
0.0
  0
LINE
  5
68
100
AcDbEntity
  8
EBENE_1
 62
     7
100
AcDbLine
 10
43.437486
 20
132.291667
 30
0.0
 11
44.453445
 21
132.037591
 31
0.0
  0
LINE
  5
67
100
AcDbEntity
  8
EBENE_1
 62
     7
100
AcDbLine
 10
44.453445
 20
132.037591
 30
0.0
 11
45.130751
 21
131.868264
 31
0.0
  0
LINE
  5
66
100
AcDbEntity
  8
EBENE_1
 62
     7
100
AcDbLine
 10
45.130751
 20
131.868264
 30
0.0
 11
45.638902
 21
131.360285
 31
0.0
  0
LINE
  5
65
100
AcDbEntity
  8
EBENE_1
 62
     7
100
AcDbLine
 10
45.638902
 20
131.360285
 30
0.0
 11
45.892806
 21
130.852306
 31
0.0
  0
LINE
  5
64
100
AcDbEntity
  8
EBENE_1
 62
     7
100
AcDbLine
 10
45.892806
 20
130.852306
 30
0.0
 11
45.892806
 21
130.090251
 31
0.0
  0
LINE
  5
63
100
AcDbEntity
  8
EBENE_1
 62
     7
100
AcDbLine
 10
45.892806
 20
130.090251
 30
0.0
 11
45.638902
 21
129.582271
 31
0.0
  0
LINE
  5
62
100
AcDbEntity
  8
EBENE_1
 62
     7
100
AcDbLine
 10
45.638902
 20
129.582271
 30
0.0
 11
45.384654
 21
129.412945
 31
0.0
  0
LINE
  5
61
100
AcDbEntity
  8
EBENE_1
 62
     7
100
AcDbLine
 10
45.384654
 20
129.412945
 30
0.0
 11
44.707349
 21
129.159041
 31
0.0
  0
LINE
  5
60
100
AcDbEntity
  8
EBENE_1
 62
     7
100
AcDbLine
 10
44.707349
 20
129.159041
 30
0.0
 11
43.69139
 21
129.159041
 31
0.0
  0
LINE
  5
5F
100
AcDbEntity
  8
EBENE_1
 62
     7
100
AcDbLine
 10
43.69139
 20
129.159041
 30
0.0
 11
42.929335
 21
129.412945
 31
0.0
  0
LINE
  5
5E
100
AcDbEntity
  8
EBENE_1
 62
     7
100
AcDbLine
 10
42.929335
 20
129.412945
 30
0.0
 11
42.675431
 21
129.582271
 31
0.0
  0
LINE
  5
5D
100
AcDbEntity
  8
EBENE_1
 62
     7
100
AcDbLine
 10
42.675431
 20
129.582271
 30
0.0
 11
42.421528
 21
130.090251
 31
0.0
  0
LINE
  5
5C
100
AcDbEntity
  8
EBENE_1
 62
     7
100
AcDbLine
 10
42.421528
 20
130.090251
 30
0.0
 11
42.421528
 21
130.852306
 31
0.0
  0
LINE
  5
5B
100
AcDbEntity
  8
EBENE_1
 62
     7
100
AcDbLine
 10
42.421528
 20
130.852306
 30
0.0
 11
42.675431
 21
131.360285
 31
0.0
  0
LINE
  5
5A
100
AcDbEntity
  8
EBENE_1
 62
     7
100
AcDbLine
 10
42.675431
 20
131.360285
 30
0.0
 11
43.183583
 21
131.868264
 31
0.0
  0
LINE
  5
59
100
AcDbEntity
  8
EBENE_1
 62
     7
100
AcDbLine
 10
43.183583
 20
131.868264
 30
0.0
 11
43.945294
 21
132.037591
 31
0.0
  0
LINE
  5
58
100
AcDbEntity
  8
EBENE_1
 62
     7
100
AcDbLine
 10
43.945294
 20
132.037591
 30
0.0
 11
44.876847
 21
132.291667
 31
0.0
  0
LINE
  5
57
100
AcDbEntity
  8
EBENE_1
 62
     7
100
AcDbLine
 10
44.876847
 20
132.291667
 30
0.0
 11
45.384654
 21
132.54557
 31
0.0
  0
LINE
  5
56
100
AcDbEntity
  8
EBENE_1
 62
     7
100
AcDbLine
 10
45.384654
 20
132.54557
 30
0.0
 11
45.638902
 21
133.053722
 31
0.0
  0
LINE
  5
55
100
AcDbEntity
  8
EBENE_1
 62
     7
100
AcDbLine
 10
45.638902
 20
133.053722
 30
0.0
 11
45.638902
 21
133.561701
 31
0.0
  0
LINE
  5
54
100
AcDbEntity
  8
EBENE_1
 62
     7
100
AcDbLine
 10
45.638902
 20
133.561701
 30
0.0
 11
45.384654
 21
134.06968
 31
0.0
  0
LINE
  5
53
100
AcDbEntity
  8
EBENE_1
 62
     7
100
AcDbLine
 10
45.384654
 20
134.06968
 30
0.0
 11
44.707349
 21
134.323584
 31
0.0
  0
LINE
  5
52
100
AcDbEntity
  8
EBENE_1
 62
     7
100
AcDbLine
 10
44.707349
 20
134.323584
 30
0.0
 11
43.69139
 21
134.323584
 31
0.0
  0
LINE
  5
51
100
AcDbEntity
  8
EBENE_1
 62
     7
100
AcDbLine
 10
47.58607
 20
129.582271
 30
0.0
 11
47.332167
 21
129.412945
 31
0.0
  0
LINE
  5
50
100
AcDbEntity
  8
EBENE_1
 62
     7
100
AcDbLine
 10
47.332167
 20
129.412945
 30
0.0
 11
47.58607
 21
129.159041
 31
0.0
  0
LINE
  5
4F
100
AcDbEntity
  8
EBENE_1
 62
     7
100
AcDbLine
 10
47.58607
 20
129.159041
 30
0.0
 11
47.839974
 21
129.412945
 31
0.0
  0
LINE
  5
4E
100
AcDbEntity
  8
EBENE_1
 62
     7
100
AcDbLine
 10
52.750958
 20
134.323584
 30
0.0
 11
50.295294
 21
134.323584
 31
0.0
  0
LINE
  5
4D
100
AcDbEntity
  8
EBENE_1
 62
     7
100
AcDbLine
 10
50.295294
 20
134.323584
 30
0.0
 11
50.04139
 21
132.037591
 31
0.0
  0
LINE
  5
4C
100
AcDbEntity
  8
EBENE_1
 62
     7
100
AcDbLine
 10
50.04139
 20
132.037591
 30
0.0
 11
50.295294
 21
132.291667
 31
0.0
  0
LINE
  5
4B
100
AcDbEntity
  8
EBENE_1
 62
     7
100
AcDbLine
 10
50.295294
 20
132.291667
 30
0.0
 11
51.057349
 21
132.54557
 31
0.0
  0
LINE
  5
4A
100
AcDbEntity
  8
EBENE_1
 62
     7
100
AcDbLine
 10
51.057349
 20
132.54557
 30
0.0
 11
51.819404
 21
132.54557
 31
0.0
  0
LINE
  5
49
100
AcDbEntity
  8
EBENE_1
 62
     7
100
AcDbLine
 10
51.819404
 20
132.54557
 30
0.0
 11
52.49671
 21
132.291667
 31
0.0
  0
LINE
  5
48
100
AcDbEntity
  8
EBENE_1
 62
     7
100
AcDbLine
 10
52.49671
 20
132.291667
 30
0.0
 11
53.004861
 21
131.868264
 31
0.0
  0
LINE
  5
47
100
AcDbEntity
  8
EBENE_1
 62
     7
100
AcDbLine
 10
53.004861
 20
131.868264
 30
0.0
 11
53.258765
 21
131.106382
 31
0.0
  0
LINE
  5
46
100
AcDbEntity
  8
EBENE_1
 62
     7
100
AcDbLine
 10
53.258765
 20
131.106382
 30
0.0
 11
53.258765
 21
130.59823
 31
0.0
  0
LINE
  5
45
100
AcDbEntity
  8
EBENE_1
 62
     7
100
AcDbLine
 10
53.258765
 20
130.59823
 30
0.0
 11
53.004861
 21
129.836347
 31
0.0
  0
LINE
  5
44
100
AcDbEntity
  8
EBENE_1
 62
     7
100
AcDbLine
 10
53.004861
 20
129.836347
 30
0.0
 11
52.49671
 21
129.412945
 31
0.0
  0
LINE
  5
43
100
AcDbEntity
  8
EBENE_1
 62
     7
100
AcDbLine
 10
52.49671
 20
129.412945
 30
0.0
 11
51.819404
 21
129.159041
 31
0.0
  0
LINE
  5
42
100
AcDbEntity
  8
EBENE_1
 62
     7
100
AcDbLine
 10
51.819404
 20
129.159041
 30
0.0
 11
51.057349
 21
129.159041
 31
0.0
  0
LINE
  5
41
100
AcDbEntity
  8
EBENE_1
 62
     7
100
AcDbLine
 10
51.057349
 20
129.159041
 30
0.0
 11
50.295294
 21
129.412945
 31
0.0
  0
LINE
  5
40
100
AcDbEntity
  8
EBENE_1
 62
     7
100
AcDbLine
 10
50.295294
 20
129.412945
 30
0.0
 11
50.04139
 21
129.582271
 31
0.0
  0
LINE
  5
3F
100
AcDbEntity
  8
EBENE_1
 62
     7
100
AcDbLine
 10
50.04139
 20
129.582271
 30
0.0
 11
49.787486
 21
130.090251
 31
0.0
  0
LINE
  5
3E
100
AcDbEntity
  8
EBENE_1
 62
     7
100
AcDbLine
 10
49.787486
 20
130.090251
 30
0.0
 11
49.787486
 21
130.090251
 31
0.0
  0
LINE
  5
3D
100
AcDbEntity
  8
EBENE_1
 62
     7
100
AcDbLine
 10
41.574723
 20
85.132271
 30
0.0
 11
45.130751
 21
85.132271
 31
0.0
  0
LINE
  5
3C
100
AcDbEntity
  8
EBENE_1
 62
     7
100
AcDbLine
 10
47.839974
 20
85.132271
 30
0.0
 11
47.839974
 21
85.132271
 31
0.0
  0
LINE
  5
3B
100
AcDbEntity
  8
EBENE_1
 62
     7
100
AcDbLine
 10
50.634291
 20
85.132271
 30
0.0
 11
54.189974
 21
85.132271
 31
0.0
  0
LINE
  5
3A
100
AcDbEntity
  8
EBENE_1
 62
     7
100
AcDbLine
 10
54.189974
 20
85.132271
 30
0.0
 11
54.189974
 21
85.132271
 31
0.0
  0
LINE
  5
39
100
AcDbEntity
  8
EBENE_1
 62
     7
100
AcDbLine
 10
41.574723
 20
106.806917
 30
0.0
 11
45.130751
 21
106.806917
 31
0.0
  0
LINE
  5
38
100
AcDbEntity
  8
EBENE_1
 62
     7
100
AcDbLine
 10
47.839974
 20
106.806917
 30
0.0
 11
47.839974
 21
106.806917
 31
0.0
  0
LINE
  5
37
100
AcDbEntity
  8
EBENE_1
 62
     7
100
AcDbLine
 10
50.634291
 20
106.806917
 30
0.0
 11
54.189974
 21
106.806917
 31
0.0
  0
LINE
  5
36
100
AcDbEntity
  8
EBENE_1
 62
     7
100
AcDbLine
 10
54.189974
 20
106.806917
 30
0.0
 11
54.189974
 21
106.806917
 31
0.0
  0
LINE
  5
35
100
AcDbEntity
  8
EBENE_1
 62
     7
100
AcDbLine
 10
49.787486
 20
113.749646
 30
0.0
 11
47.67082
 21
113.749646
 31
0.0
  0
LINE
  5
34
100
AcDbEntity
  8
EBENE_1
 62
     7
100
AcDbLine
 10
46.316208
 20
113.749646
 30
0.0
 11
44.199542
 21
113.749646
 31
0.0
  0
LINE
  5
33
100
AcDbEntity
  8
EBENE_1
 62
     7
100
AcDbLine
 10
44.199542
 20
113.749646
 30
0.0
 11
44.199542
 21
113.749646
 31
0.0
  0
LINE
  5
32
100
AcDbEntity
  8
EBENE_1
 62
     7
100
AcDbLine
 10
49.787486
 20
115.52766
 30
0.0
 11
41.151321
 21
115.52766
 31
0.0
  0
LINE
  5
31
100
AcDbEntity
  8
EBENE_1
 62
     7
100
AcDbLine
 10
41.151321
 20
113.749646
 30
0.0
 11
41.151321
 21
115.52766
 31
0.0
  0
LINE
  5
30
100
AcDbEntity
  8
EBENE_1
 62
     7
100
AcDbLine
 10
44.199542
 20
113.749646
 30
0.0
 11
41.151321
 21
113.749646
 31
0.0
  0
LINE
  5
2F
100
AcDbEntity
  8
EBENE_1
 62
     7
100
AcDbLine
 10
51.5655
 20
113.749646
 30
0.0
 11
51.396002
 21
114.426952
 31
0.0
  0
LINE
  5
2E
100
AcDbEntity
  8
EBENE_1
 62
     7
100
AcDbLine
 10
51.396002
 20
114.426952
 30
0.0
 11
51.057349
 21
115.01968
 31
0.0
  0
LINE
  5
2D
100
AcDbEntity
  8
EBENE_1
 62
     7
100
AcDbLine
 10
51.057349
 20
115.01968
 30
0.0
 11
50.464792
 21
115.358333
 31
0.0
  0
LINE
  5
2C
100
AcDbEntity
  8
EBENE_1
 62
     7
100
AcDbLine
 10
50.464792
 20
115.358333
 30
0.0
 11
49.787486
 21
115.52766
 31
0.0
  0
ENDBLK
  5
5D7
100
AcDbEntity
  8
EBENE_1
100
AcDbBlockEnd
  0
ENDSEC
  0
SECTION
  2
ENTITIES
  0
INSERT
  5
2A
100
AcDbEntity
  8
EBENE_1
 62
     7
100
AcDbBlockReference
  2
AI9-BLK1
 10
104.799805
 20
148.209041
 30
0.0
  0
ENDSEC
  0
SECTION
  2
OBJECTS
  0
DICTIONARY
  5
19
100
AcDbDictionary
280
     0
281
     1
  3
ACAD_GROUP
350
1A
  3
ACAD_MLINESTYLE
350
1B
  3
ACAD_LAYOUT
350
1E
  3
ACAD_PLOTSETTINGS
350
22
  3
ACAD_PLOTSTYLENAME
350
1F
  3
ACAD_WIPEOUT_VARS
350
23
  0
DICTIONARY
  5
1A
102
{ACAD_REACTORS
330
19
102
}
100
AcDbDictionary
280
     0
281
     1
  0
DICTIONARY
  5
1B
102
{ACAD_REACTORS
330
19
102
}
100
AcDbDictionary
280
     0
281
     1
  3
Standard
350
1C
  0
MLINESTYLE
  5
1C
102
{ACAD_REACTORS
330
1B
102
}
100
AcDbMlineStyle
  2
Standard
 70
     0
  3

 62
     0
 51
90.0
 52
90.0
 71
     2
 49
0.5
 62
   256
  6
ByLayer
 49
-0.5
 62
   256
  6
ByLayer
  0
ACDBDICTIONARYWDFLT
  5
1F
102
{ACAD_REACTORS
330
19
102
}
100
AcDbDictionary
281
     1
  3
Normal
350
1D
100
AcDbDictionaryWithDefault
340
1D
  0
ACDBPLACEHOLDER
  5
1D
102
{ACAD_REACTORS
330
1F
102
}
  0
LAYOUT
  5
20
102
{ACAD_REACTORS
330
1E
102
}
100
AcDbPlotSettings
  1

  2

  4

  6

 40
0.0
 41
0.0
 42
0.0
 43
0.0
 44
0.0
 45
0.0
 46
0.0
 47
0.0
 48
0.0
 49
0.0
140
0.0
141
0.0
142
1.0
143
1.0
 70
  1024
 72
     0
 73
     0
 74
     0
  7

 75
     0
147
1.0
148
0.0
149
0.0
100
AcDbLayout
  1
Model
 70
     0
 71
     0
 10
0.0
 20
0.0
 11
0.0
 21
0.0
 12
0.0
 22
0.0
 32
0.0
 14
0.0
 24
0.0
 34
0.0
 15
0.0
 25
0.0
 35
0.0
146
0.0
 13
0.0
 23
0.0
 33
0.0
 16
0.0
 26
0.0
 36
0.0
 17
0.0
 27
0.0
 37
0.0
 76
     0
330
A
331
0
345
0
346
0
  0
LAYOUT
  5
21
102
{ACAD_REACTORS
330
1E
102
}
100
AcDbPlotSettings
  1

  2

  4

  6

 40
0.0
 41
0.0
 42
0.0
 43
0.0
 44
0.0
 45
0.0
 46
0.0
 47
0.0
 48
0.0
 49
0.0
140
0.0
141
0.0
142
1.0
143
1.0
 70
     0
 72
     0
 73
     0
 74
     0
  7

 75
     0
147
1.0
148
0.0
149
0.0
100
AcDbLayout
  1
Layout1
 70
     0
 71
     0
 10
0.0
 20
0.0
 11
0.0
 21
0.0
 12
0.0
 22
0.0
 32
0.0
 14
0.0
 24
0.0
 34
0.0
 15
0.0
 25
0.0
 35
0.0
146
0.0
 13
0.0
 23
0.0
 33
0.0
 16
0.0
 26
0.0
 36
0.0
 17
0.0
 27
0.0
 37
0.0
 76
     0
330
B
331
0
345
0
346
0
  0
DICTIONARY
  5
1E
102
{ACAD_REACTORS
330
19
102
}
100
AcDbDictionary
280
     0
281
     1
  3
Layout1
350
21
  3
Model
350
20
  0
DICTIONARY
  5
22
102
{ACAD_REACTORS
330
19
102
}
100
AcDbDictionary
280
     0
281
     1
  0
WIPEOUTVARIABLES
  5
23
100
AcDbWipeoutVariables
 70
     1
  0
ENDSEC
  0
EOF
