  0
SECTION
  2
HEADER
  9
$ACADVER
  1
AC1015
  9
$ACADMAINTVER
 70
     6
  9
$DWGCODEPAGE
  3
ANSI_932
  9
$INSBASE
 10
0.0
 20
0.0
 30
0.0
  9
$EXTMIN
 10
47.138208
 20
13.365937
 30
1.000000E+20
  9
$EXTMAX
 10
162.376308
 20
283.41457
 30
-1.000000E+20
  9
$LIMMIN
 10
47.138208
 20
13.365937
  9
$LIMMAX
 10
162.376308
 20
283.41457
  9
$ORTHOMODE
 70
     0
  9
$REGENMODE
 70
     1
  9
$FILLMODE
 70
     1
  9
$QTEXTMODE
 70
     0
  9
$MIRRTEXT
 70
     1
  9
$LTSCALE
 40
1.0
  9
$ATTMODE
 70
     1
  9
$TEXTSIZE
 40
0.2
  9
$TRACEWID
 40
0.05
  9
$TEXTSTYLE
  7
Standard
  9
$CLAYER
  8
0
  9
$CELTYPE
  6
Continuous
  9
$CECOLOR
 62
   256
  9
$CELTSCALE
 40
1.0
  9
$DISPSILH
 70
     0
  9
$DIMSCALE
 40
1.0
  9
$DIMASZ
 40
0.18
  9
$DIMEXO
 40
0.0625
  9
$DIMDLI
 40
0.38
  9
$DIMRND
 40
0.0
  9
$DIMDLE
 40
0.0
  9
$DIMEXE
 40
0.18
  9
$DIMTP
 40
0.0
  9
$DIMTM
 40
0.0
  9
$DIMTXT
 40
0.18
  9
$DIMCEN
 40
0.09
  9
$DIMTSZ
 40
0.0
  9
$DIMTOL
 70
     0
  9
$DIMLIM
 70
     0
  9
$DIMTIH
 70
     1
  9
$DIMTOH
 70
     1
  9
$DIMSE1
 70
     0
  9
$DIMSE2
 70
     0
  9
$DIMTAD
 70
     0
  9
$DIMZIN
 70
     0
  9
$DIMBLK
  1

  9
$DIMASO
 70
     1
  9
$DIMSHO
 70
     1
  9
$DIMPOST
  1

  9
$DIMAPOST
  1

  9
$DIMALT
 70
     0
  9
$DIMALTD
 70
     2
  9
$DIMALTF
 40
25.4
  9
$DIMLFAC
 40
1.0
  9
$DIMTOFL
 70
     0
  9
$DIMTVP
 40
0.0
  9
$DIMTIX
 70
     0
  9
$DIMSOXD
 70
     0
  9
$DIMSAH
 70
     0
  9
$DIMBLK1
  1

  9
$DIMBLK2
  1

  9
$DIMSTYLE
  2
Standard
  9
$DIMCLRD
 70
     0
  9
$DIMCLRE
 70
     0
  9
$DIMCLRT
 70
     0
  9
$DIMTFAC
 40
1.0
  9
$DIMGAP
 40
0.09
  9
$DIMJUST
 70
     0
  9
$DIMSD1
 70
     0
  9
$DIMSD2
 70
     0
  9
$DIMTOLJ
 70
     1
  9
$DIMTZIN
 70
     0
  9
$DIMALTZ
 70
     0
  9
$DIMALTTZ
 70
     0
  9
$DIMUPT
 70
     0
  9
$DIMDEC
 70
     4
  9
$DIMTDEC
 70
     4
  9
$DIMALTU
 70
     2
  9
$DIMALTTD
 70
     2
  9
$DIMTXSTY
  7
Standard
  9
$DIMAUNIT
 70
     0
  9
$DIMADEC
 70
     0
  9
$DIMALTRND
 40
0.0
  9
$DIMAZIN
 70
     0
  9
$DIMDSEP
 70
     0
  9
$DIMATFIT
 70
     3
  9
$DIMFRAC
 70
     0
  9
$DIMLDRBLK
  1

  9
$DIMLUNIT
 70
     2
  9
$DIMLWD
 70
     0
  9
$DIMLWE
 70
     0
  9
$DIMTMOVE
 70
     0
  9
$LUNITS
 70
     2
  9
$LUPREC
 70
     4
  9
$SKETCHINC
 40
0.1
  9
$FILLETRAD
 40
0.0
  9
$AUNITS
 70
     0
  9
$AUPREC
 70
     0
  9
$MENU
  1
acad
  9
$ELEVATION
 40
0.0
  9
$PELEVATION
 40
0.0
  9
$THICKNESS
 40
0.0
  9
$LIMCHECK
 70
     0
  9
$CHAMFERA
 40
0.0
  9
$CHAMFERB
 40
0.0
  9
$CHAMFERC
 40
0.0
  9
$CHAMFERD
 40
0.0
  9
$SKPOLY
 70
     0
  9
$TDCREATE
 40
0.000000000
  9
$TDUCREATE
 40
0.000000000
  9
$TDUPDATE
 40
0.000000000
  9
$TDUUPDATE
 40
0.000000000
  9
$TDINDWG
 40
0.0000000000
  9
$TDUSRTIMER
 40
0.0000000000
  9
$USRTIMER
 70
     1
  9
$ANGBASE
 50
0.0
  9
$ANGDIR
 70
     0
  9
$PDMODE
 70
     0
  9
$PDSIZE
 40
0.0
  9
$PLINEWID
 40
0.0
  9
$SPLFRAME
 70
     0
  9
$SPLINETYPE
 70
     6
  9
$SPLINESEGS
 70
     8
  9
$HANDSEED
  5
555
  9
$SURFTAB1
 70
     6
  9
$SURFTAB2
 70
     6
  9
$SURFTYPE
 70
     6
  9
$SURFU
 70
     6
  9
$SURFV
 70
     6
  9
$UCSBASE
  2

  9
$UCSNAME
  2

  9
$UCSORG
 10
0.0
 20
0.0
 30
0.0
  9
$UCSXDIR
 10
1.0
 20
0.0
 30
0.0
  9
$UCSYDIR
 10
0.0
 20
1.0
 30
0.0
  9
$UCSORTHOREF
  2

  9
$UCSORTHOVIEW
 70
     0
  9
$UCSORGTOP
 10
0.0
 20
0.0
 30
0.0
  9
$UCSORGBOTTOM
 10
0.0
 20
0.0
 30
0.0
  9
$UCSORGLEFT
 10
0.0
 20
0.0
 30
0.0
  9
$UCSORGRIGHT
 10
0.0
 20
0.0
 30
0.0
  9
$UCSORGFRONT
 10
0.0
 20
0.0
 30
0.0
  9
$UCSORGBACK
 10
0.0
 20
0.0
 30
0.0
  9
$PUCSBASE
  2

  9
$PUCSNAME
  2

  9
$PUCSORG
 10
0.0
 20
0.0
 30
0.0
  9
$PUCSXDIR
 10
1.0
 20
0.0
 30
0.0
  9
$PUCSYDIR
 10
0.0
 20
1.0
 30
0.0
  9
$PUCSORTHOREF
  2

  9
$PUCSORTHOVIEW
 70
     0
  9
$PUCSORGTOP
 10
0.0
 20
0.0
 30
0.0
  9
$PUCSORGBOTTOM
 10
0.0
 20
0.0
 30
0.0
  9
$PUCSORGLEFT
 10
0.0
 20
0.0
 30
0.0
  9
$PUCSORGRIGHT
 10
0.0
 20
0.0
 30
0.0
  9
$PUCSORGFRONT
 10
0.0
 20
0.0
 30
0.0
  9
$PUCSORGBACK
 10
0.0
 20
0.0
 30
0.0
  9
$USERI1
 70
     0
  9
$USERI2
 70
     0
  9
$USERI3
 70
     0
  9
$USERI4
 70
     0
  9
$USERI5
 70
     0
  9
$USERR1
 40
0.0
  9
$USERR2
 40
0.0
  9
$USERR3
 40
0.0
  9
$USERR4
 40
0.0
  9
$USERR5
 40
0.0
  9
$WORLDVIEW
 70
     1
  9
$SHADEDGE
 70
     3
  9
$SHADEDIF
 70
    70
  9
$TILEMODE
 70
     1
  9
$MAXACTVP
 70
    16
  9
$PINSBASE
 10
0.0
 20
0.0
 30
0.0
  9
$PLIMCHECK
 70
     0
  9
$PEXTMIN
 10
1.000000E+20
 20
1.000000E+20
 30
1.000000E+20
  9
$PEXTMAX
 10
-1.000000E+20
 20
-1.000000E+20
 30
-1.000000E+20
  9
$PLIMMIN
 10
0.0
 20
0.0
  9
$PLIMMAX
 10
12.0
 20
9.0
  9
$UNITMODE
 70
     0
  9
$VISRETAIN
 70
     0
  9
$PLINEGEN
 70
     1
  9
$PSLTSCALE
 70
     0
  9
$TREEDEPTH
 70
  3020
  9
$CMLSTYLE
  2
Standard
  9
$CMLJUST
 70
     0
  9
$CMLSCALE
 40
1.0
  9
$PROXYGRAPHICS
 70
     0
  9
$MEASUREMENT
 70
     1
  9
$CELWEIGHT
370
     0
  9
$ENDCAPS
280
     0
  9
$JOINSTYLE
280
     0
  9
$LWDISPLAY
290
     0
  9
$INSUNITS
 70
     0
  9
$HYPERLINKBASE
  1

  9
$STYLESHEET
  1

  9
$XEDIT
290
     1
  9
$CEPSNTYPE
380
     0
  9
$PSTYLEMODE
290
     1
  9
$FINGERPRINTGUID
  2

  9
$VERSIONGUID
  2

  9
$EXTNAMES
290
     1
  9
$PSVPSCALE
 40
0.0
  0
ENDSEC
  0
SECTION
  2
CLASSES
  0
CLASS
  1
LWPOLYLINE
  2
AcDbPolyline
  3
AutoCAD 2000
 90
    32768
280
     0
281
     1
  0
CLASS
  1
IMAGE
  2
AcDbRasterImage
  3
ISM
 90
    32895
280
     0
281
     1
  0
CLASS
  1
OLE2FRAME
  2
AcDbOle2Frame
  3
AutoCAD 2000
 90
    32768
280
     0
281
     1
  0
CLASS
  1
HATCH
  2
AcDbHatch
  3
AutoCAD 2000
 90
        0
280
     0
281
     1
  0
CLASS
  1
DICTIONARYVAR
  2
AcDbDictionaryVar
  3
AutoCAD 2000
 90
    32768
280
     0
281
     0
  0
CLASS
  1
RASTERVARIABLES
  2
AcDbRasterVariables
  3
ISM
 90
    32768
280
     0
281
     0
  0
CLASS
  1
IMAGEDEF
  2
AcDbRasterImageDef
  3
ISM
 90
    32768
280
     0
281
     0
  0
CLASS
  1
IMAGEDEF_REACTOR
  2
AcDbRasterImageDefReactor
  3
ISM
 90
    32769
280
     0
281
     0
  0
CLASS
  1
IDBUFFER
  2
AcDbIdBuffer
  3
AutoCAD 2000
 90
    32768
280
     0
281
     0
  0
CLASS
  1
SPATIAL_FILTER
  2
AcDbSpatialFilter
  3
AutoCAD 2000
 90
    32768
280
     0
281
     0
  0
CLASS
  1
XRECORD
  2
AcDbXrecord
  3
AutoCAD 2000
 90
    32768
280
     0
281
     0
  0
CLASS
  1
SORTENTSTABLE
  2
AcDbSortentsTable
  3
AutoCAD 2000
 90
    32768
280
     0
281
     0
  0
CLASS
  1
LAYER_INDEX
  2
AcDbLayerIndex
  3
AutoCAD 2000
 90
    32768
280
     0
281
     0
  0
CLASS
  1
SPATIAL_INDEX
  2
AcDbSpatialIndex
  3
AutoCAD 2000
 90
    32768
280
     0
281
     0
  0
CLASS
  1
OBJECT_PTR
  2
CAseDLPNTableRecord
  3
"ASE-LPNTableRecord"
 90
    32769
280
     0
281
     0
  0
CLASS
  1
LAYOUT
  2
AcDbLayout
  3
AutoCAD 2000
 90
        0
280
     0
281
     0
  0
CLASS
  1
PLOTSETTINGS
  2
AcDbPlotSettings
  3
AutoCAD 2000
 90
    32768
280
     0
281
     0
  0
CLASS
  1
ACDBDICTIONARYWDFLT
  2
AcDbDictionaryWithDefault
  3
AutoCAD 2000
 90
        0
280
     0
281
     0
  0
CLASS
  1
ACDBPLACEHOLDER
  2
AcDbPlaceHolder
  3
AutoCAD 2000
 90
        0
280
     0
281
     0
  0
CLASS
  1
VBA_PROJECT
  2
AcDbVbaProject
  3
acadvba
 90
    32768
280
     0
281
     0
  0
CLASS
  1
WIPEOUT
  2
AcDbWipeout
  3
WipeOut|AutoCAD Express Tool|expresstools@autodesk.com
 90
    32895
280
     0
281
     1
  0
CLASS
  1
WIPEOUTVARIABLES
  2
AcDbWipeoutVariables
  3
WipeOut|AutoCAD Express Tool|expresstools@autodesk.com
 90
        0
280
     0
281
     0
  0
CLASS
  1
RTEXT
  2
RText
  3
RText|AutoCAD Express Tool|expresstools@autodesk.com
 90
    32768
280
     0
281
     1
  0
CLASS
  1
ARCALIGNEDTEXT
  2
AcDbArcAlignedText
  3
ATEXT|AutoCAD Express Tool|expresstools@autodesk.com
 90
    32768
280
     0
281
     1
  0
ENDSEC
  0
SECTION
  2
TABLES
  0
TABLE
  2
VPORT
  5
7
100
AcDbSymbolTable
 70
     1
  0
VPORT
  5
15
100
AcDbSymbolTableRecord
100
AcDbViewportTableRecord
  2
*ACTIVE
 70
     0
 10
0.0
 20
0.0
 11
1.0
 21
1.0
 12
6.591288
 22
4.579184
 13
0.0
 23
0.0
 14
1.0
 24
1.0
 15
0.0
 25
0.0
 16
0.0
 26
0.0
 36
1.0
 17
0.0
 27
0.0
 37
0.0
 40
9.158369
 41
0.688564
 42
50.0
 43
0.0
 44
0.0
 50
0.0
 51
0.0
 71
     0
 72
   100
 73
     1
 74
     1
 75
     0
 76
     0
 77
     0
 78
     0
281
     0
 65
     0
110
0.0
120
0.0
130
0.0
111
1.0
121
0.0
131
0.0
112
0.0
122
1.0
132
0.0
345
0
346
0
 79
     0
146
0.0
  0
ENDTAB
  0
TABLE
  2
LTYPE
  5
4
100
AcDbSymbolTable
 70
     3
  0
LTYPE
  5
11
100
AcDbSymbolTableRecord
100
AcDbLinetypeTableRecord
  2
ByBlock
 70
    64
  3

 72
    65
 73
     0
 40
0.0
  0
LTYPE
  5
12
100
AcDbSymbolTableRecord
100
AcDbLinetypeTableRecord
  2
ByLayer
 70
    64
  3

 72
    65
 73
     0
 40
0.0
  0
LTYPE
  5
13
100
AcDbSymbolTableRecord
100
AcDbLinetypeTableRecord
  2
Continuous
 70
    64
  3
Solid line
 72
    65
 73
     0
 40
0.0
  0
ENDTAB
  0
TABLE
  2
LAYER
  5
2
100
AcDbSymbolTable
 70
     2
  0
LAYER
  5
14
100
AcDbSymbolTableRecord
100
AcDbLayerTableRecord
  2
0
 70
     0
 62
     7
  6
Continuous
290
     1
370
    -3
390
1D
  0
LAYER
  5
28
100
AcDbSymbolTableRecord
100
AcDbLayerTableRecord
  2
EBENE_1
 70
     0
 62
   160
  6
Continuous
290
     1
370
    -3
390
1D
  0
ENDTAB
  0
TABLE
  2
STYLE
  5
3
100
AcDbSymbolTable
 70
     5
  0
STYLE
  5
17
100
AcDbSymbolTableRecord
100
AcDbTextStyleTableRecord
  2
Standard
 70
     0
 40
0.0
 41
1.0
 50
0.0
 71
     0
 42
0.0
  3
txt
  4

  0
STYLE
  5
24
100
AcDbSymbolTableRecord
100
AcDbTextStyleTableRecord
  2
STD
 70
     0
 40
0.0
 41
1.0
 50
0.0
 71
     0
 42
0.0
  3
txt
  4

  0
STYLE
  5
25
100
AcDbSymbolTableRecord
100
AcDbTextStyleTableRecord
  2
TATESTD
 70
     4
 40
0.0
 41
1.0
 50
0.0
 71
     0
 42
0.0
  3
txt
  4

  0
STYLE
  5
26
100
AcDbSymbolTableRecord
100
AcDbTextStyleTableRecord
  2
KANJISTD
 70
     0
 40
0.0
 41
1.0
 50
0.0
 71
     0
 42
0.0
  3
txt
  4
extfont
  0
STYLE
  5
27
100
AcDbSymbolTableRecord
100
AcDbTextStyleTableRecord
  2
KANJITATE
 70
     4
 40
0.0
 41
1.0
 50
0.0
 71
     0
 42
0.0
  3
txt
  4
extfont
  0
ENDTAB
  0
TABLE
  2
VIEW
  5
5
100
AcDbSymbolTable
 70
     0
  0
ENDTAB
  0
TABLE
  2
UCS
  5
6
100
AcDbSymbolTable
 70
     0
  0
ENDTAB
  0
TABLE
  2
APPID
  5
8
100
AcDbSymbolTable
 70
     1
  0
APPID
  5
16
100
AcDbSymbolTableRecord
100
AcDbRegAppTableRecord
  2
ACAD
 70
     0
  0
ENDTAB
  0
TABLE
  2
DIMSTYLE
  5
9
100
AcDbSymbolTable
 70
     1
100
AcDbDimStyleTable
 71
     0
  0
DIMSTYLE
105
18
100
AcDbSymbolTableRecord
100
AcDbDimStyleTableRecord
  2
Standard
 70
     0
  3

  4

 40
1.0
 41
0.18
 42
0.0625
 43
0.38
 44
0.18
 45
0.0
 46
0.0
 47
0.0
 48
0.0
 71
     0
 72
     0
 73
     1
 74
     1
 75
     0
 76
     0
 77
     0
 78
     0
 79
     0
140
0.18
141
0.09
142
0.0
143
25.4
144
1.0
145
0.0
146
1.0
147
0.09
148
0.0
170
     0
171
     2
172
     0
173
     0
174
     0
175
     0
176
     0
177
     0
178
     0
179
     0
271
     4
272
     4
273
     2
274
     2
275
     0
276
     0
277
     2
278
    46
279
     0
280
     0
281
     0
282
     0
283
     1
284
     0
285
     0
286
     0
288
     0
340
17
341
0
342
0
343
0
344
0
371
    -2
372
    -2
  0
ENDTAB
  0
TABLE
  2
BLOCK_RECORD
  5
1
100
AcDbSymbolTable
 70
     1
  0
BLOCK_RECORD
  5
A
100
AcDbSymbolTableRecord
100
AcDbBlockTableRecord
  2
*MODEL_SPACE
340
20
  0
BLOCK_RECORD
  5
B
100
AcDbSymbolTableRecord
100
AcDbBlockTableRecord
  2
*PAPER_SPACE
340
21
  0
BLOCK_RECORD
  5
29
100
AcDbSymbolTableRecord
100
AcDbBlockTableRecord
  2
AI9-BLK1
340
0
102
{BLKREFS
331
2A
102
}
  0
ENDTAB
  0
ENDSEC
  0
SECTION
  2
BLOCKS
  0
BLOCK
  5
D
100
AcDbEntity
  8
0
100
AcDbBlockBegin
  2
*MODEL_SPACE
 70
     0
 10
0.0
 20
0.0
 30
0.0
  3
*MODEL_SPACE
  1

  0
ENDBLK
  5
E
100
AcDbEntity
  8
0
100
AcDbBlockEnd
  0
BLOCK
  5
F
100
AcDbEntity
 67
     1
  8
0
100
AcDbBlockBegin
  2
*PAPER_SPACE
 70
     0
 10
0.0
 20
0.0
 30
0.0
  3
*PAPER_SPACE
  1

  0
ENDBLK
  5
10
100
AcDbEntity
 67
     1
  8
0
100
AcDbBlockEnd
  0
BLOCK
  5
2B
100
AcDbEntity
  8
EBENE_1
 62
     7
100
AcDbBlockBegin
  2
AI9-BLK1
 70
     0
 10
0.0
 20
0.0
 30
0.0
  3
AI9-BLK1
  1

  0
LINE
  5
553
100
AcDbEntity
  8
EBENE_1
 62
     7
100
AcDbLine
 10
40.09316
 20
103.52133
 30
0.0
 11
29.679325
 21
103.52133
 31
0.0
  0
LINE
  5
552
100
AcDbEntity
  8
EBENE_1
 62
     7
100
AcDbLine
 10
40.09316
 20
-57.68399
 30
0.0
 11
29.679325
 21
-57.68399
 31
0.0
  0
LINE
  5
551
100
AcDbEntity
  8
EBENE_1
 62
     7
100
AcDbLine
 10
30.356631
 20
99.033921
 30
0.0
 11
30.356631
 21
-53.196408
 31
0.0
  0
POLYLINE
  5
54C
100
AcDbEntity
  8
EBENE_1
 62
     7
100
AcDb2dPolyline
 66
     1
 10
0.0
 20
0.0
 30
0.0
 70
     1
  0
VERTEX
  5
54D
100
AcDbEntity
  8
EBENE_1
 62
     7
100
AcDbVertex
100
AcDb2dVertex
 10
29.594576
 20
99.033921
 30
0.0
  0
VERTEX
  5
54E
100
AcDbEntity
  8
EBENE_1
 62
     7
100
AcDbVertex
100
AcDb2dVertex
 10
31.118686
 20
99.033921
 30
0.0
  0
VERTEX
  5
54F
100
AcDbEntity
  8
EBENE_1
 62
     7
100
AcDbVertex
100
AcDb2dVertex
 10
30.356631
 20
103.52133
 30
0.0
  0
SEQEND
  5
550
100
AcDbEntity
  8
EBENE_1
 62
     7
  0
HATCH
  5
54B
100
AcDbEntity
  8
EBENE_1
 62
     7
100
AcDbHatch
 10
0.0
 20
0.0
 30
0.0
210
0.0
220
0.0
230
1.0
  2
SOLID
 70
     1
 71
     0
 91
        1
 92
        3
 72
     0
 73
     1
 93
        3
 10
29.594576009114579
 20
99.033920627170133
 10
31.118686252170136
 20
99.033920627170133
 10
30.356631130642359
 20
103.52132975260416
 97
        0
 75
     0
 76
     1
 98
        1
 10
0.0
 20
0.0
  0
POLYLINE
  5
546
100
AcDbEntity
  8
EBENE_1
 62
     7
100
AcDb2dPolyline
 66
     1
 10
0.0
 20
0.0
 30
0.0
 70
     1
  0
VERTEX
  5
547
100
AcDbEntity
  8
EBENE_1
 62
     7
100
AcDbVertex
100
AcDb2dVertex
 10
29.594576
 20
-53.196408
 30
0.0
  0
VERTEX
  5
548
100
AcDbEntity
  8
EBENE_1
 62
     7
100
AcDbVertex
100
AcDb2dVertex
 10
31.118686
 20
-53.196408
 30
0.0
  0
VERTEX
  5
549
100
AcDbEntity
  8
EBENE_1
 62
     7
100
AcDbVertex
100
AcDb2dVertex
 10
30.356631
 20
-57.68399
 30
0.0
  0
SEQEND
  5
54A
100
AcDbEntity
  8
EBENE_1
 62
     7
  0
HATCH
  5
545
100
AcDbEntity
  8
EBENE_1
 62
     7
100
AcDbHatch
 10
0.0
 20
0.0
 30
0.0
210
0.0
220
0.0
230
1.0
  2
SOLID
 70
     1
 71
     0
 91
        1
 92
        3
 72
     0
 73
     1
 93
        3
 10
29.594576009114579
 20
-53.196408420138887
 10
31.118686252170136
 20
-53.196408420138887
 10
30.356631130642359
 20
-57.68398980034722
 97
        0
 75
     0
 76
     1
 98
        1
 10
0.0
 20
0.0
  0
LINE
  5
544
100
AcDbEntity
  8
EBENE_1
 62
     7
100
AcDbLine
 10
25.445992
 20
18.008031
 30
0.0
 11
25.191744
 21
18.431261
 31
0.0
  0
LINE
  5
543
100
AcDbEntity
  8
EBENE_1
 62
     7
100
AcDbLine
 10
25.191744
 20
18.431261
 30
0.0
 11
24.599188
 21
19.02399
 31
0.0
  0
LINE
  5
542
100
AcDbEntity
  8
EBENE_1
 62
     7
100
AcDbLine
 10
24.599188
 20
19.02399
 30
0.0
 11
29.086769
 21
19.02399
 31
0.0
  0
LINE
  5
541
100
AcDbEntity
  8
EBENE_1
 62
     7
100
AcDbLine
 10
25.191744
 20
23.426649
 30
0.0
 11
24.768686
 21
23.172574
 31
0.0
  0
LINE
  5
540
100
AcDbEntity
  8
EBENE_1
 62
     7
100
AcDbLine
 10
24.768686
 20
23.172574
 30
0.0
 11
24.599188
 21
22.664594
 31
0.0
  0
LINE
  5
53F
100
AcDbEntity
  8
EBENE_1
 62
     7
100
AcDbLine
 10
24.599188
 20
22.664594
 30
0.0
 11
24.599188
 21
22.241364
 31
0.0
  0
LINE
  5
53E
100
AcDbEntity
  8
EBENE_1
 62
     7
100
AcDbLine
 10
24.599188
 20
22.241364
 30
0.0
 11
24.768686
 21
21.648636
 31
0.0
  0
LINE
  5
53D
100
AcDbEntity
  8
EBENE_1
 62
     7
100
AcDbLine
 10
24.768686
 20
21.648636
 30
0.0
 11
25.445992
 21
21.309983
 31
0.0
  0
LINE
  5
53C
100
AcDbEntity
  8
EBENE_1
 62
     7
100
AcDbLine
 10
25.445992
 20
21.309983
 30
0.0
 11
26.546356
 21
21.140656
 31
0.0
  0
LINE
  5
53B
100
AcDbEntity
  8
EBENE_1
 62
     7
100
AcDbLine
 10
26.546356
 20
21.140656
 30
0.0
 11
27.562659
 21
21.140656
 31
0.0
  0
LINE
  5
53A
100
AcDbEntity
  8
EBENE_1
 62
     7
100
AcDbLine
 10
27.562659
 20
21.140656
 30
0.0
 11
28.409463
 21
21.309983
 31
0.0
  0
LINE
  5
539
100
AcDbEntity
  8
EBENE_1
 62
     7
100
AcDbLine
 10
28.409463
 20
21.309983
 30
0.0
 11
28.832521
 21
21.648636
 31
0.0
  0
LINE
  5
538
100
AcDbEntity
  8
EBENE_1
 62
     7
100
AcDbLine
 10
28.832521
 20
21.648636
 30
0.0
 11
29.086769
 21
22.241364
 31
0.0
  0
LINE
  5
537
100
AcDbEntity
  8
EBENE_1
 62
     7
100
AcDbLine
 10
29.086769
 20
22.241364
 30
0.0
 11
29.086769
 21
22.410691
 31
0.0
  0
LINE
  5
536
100
AcDbEntity
  8
EBENE_1
 62
     7
100
AcDbLine
 10
29.086769
 20
22.410691
 30
0.0
 11
28.832521
 21
23.003247
 31
0.0
  0
LINE
  5
535
100
AcDbEntity
  8
EBENE_1
 62
     7
100
AcDbLine
 10
28.832521
 20
23.003247
 30
0.0
 11
28.409463
 21
23.426649
 31
0.0
  0
LINE
  5
534
100
AcDbEntity
  8
EBENE_1
 62
     7
100
AcDbLine
 10
28.409463
 20
23.426649
 30
0.0
 11
27.816562
 21
23.595976
 31
0.0
  0
LINE
  5
533
100
AcDbEntity
  8
EBENE_1
 62
     7
100
AcDbLine
 10
27.816562
 20
23.595976
 30
0.0
 11
27.562659
 21
23.595976
 31
0.0
  0
LINE
  5
532
100
AcDbEntity
  8
EBENE_1
 62
     7
100
AcDbLine
 10
27.562659
 20
23.595976
 30
0.0
 11
26.970102
 21
23.426649
 31
0.0
  0
LINE
  5
531
100
AcDbEntity
  8
EBENE_1
 62
     7
100
AcDbLine
 10
26.970102
 20
23.426649
 30
0.0
 11
26.546356
 21
23.003247
 31
0.0
  0
LINE
  5
530
100
AcDbEntity
  8
EBENE_1
 62
     7
100
AcDbLine
 10
26.546356
 20
23.003247
 30
0.0
 11
26.292796
 21
22.410691
 31
0.0
  0
LINE
  5
52F
100
AcDbEntity
  8
EBENE_1
 62
     7
100
AcDbLine
 10
26.292796
 20
22.410691
 30
0.0
 11
26.292796
 21
22.241364
 31
0.0
  0
LINE
  5
52E
100
AcDbEntity
  8
EBENE_1
 62
     7
100
AcDbLine
 10
26.292796
 20
22.241364
 30
0.0
 11
26.546356
 21
21.648636
 31
0.0
  0
LINE
  5
52D
100
AcDbEntity
  8
EBENE_1
 62
     7
100
AcDbLine
 10
26.546356
 20
21.648636
 30
0.0
 11
26.970102
 21
21.309983
 31
0.0
  0
LINE
  5
52C
100
AcDbEntity
  8
EBENE_1
 62
     7
100
AcDbLine
 10
26.970102
 20
21.309983
 30
0.0
 11
27.562659
 21
21.140656
 31
0.0
  0
LINE
  5
52B
100
AcDbEntity
  8
EBENE_1
 62
     7
100
AcDbLine
 10
27.562659
 20
21.140656
 30
0.0
 11
27.562659
 21
21.140656
 31
0.0
  0
LINE
  5
52A
100
AcDbEntity
  8
EBENE_1
 62
     7
100
AcDbLine
 10
24.599188
 20
26.81335
 30
0.0
 11
27.562659
 21
24.950587
 31
0.0
  0
LINE
  5
529
100
AcDbEntity
  8
EBENE_1
 62
     7
100
AcDbLine
 10
27.562659
 20
24.950587
 30
0.0
 11
27.562659
 21
27.829309
 31
0.0
  0
LINE
  5
528
100
AcDbEntity
  8
EBENE_1
 62
     7
100
AcDbLine
 10
24.599188
 20
26.81335
 30
0.0
 11
29.086769
 21
26.81335
 31
0.0
  0
LINE
  5
527
100
AcDbEntity
  8
EBENE_1
 62
     7
100
AcDbLine
 10
-26.708792
 20
53.059983
 30
0.0
 11
-26.708792
 21
42.053247
 31
0.0
  0
LINE
  5
526
100
AcDbEntity
  8
EBENE_1
 62
     7
100
AcDbLine
 10
-9.013403
 20
43.831261
 30
0.0
 11
-9.013403
 21
43.408031
 31
0.0
  0
LINE
  5
525
100
AcDbEntity
  8
EBENE_1
 62
     7
100
AcDbLine
 10
-22.221383
 20
42.730725
 30
0.0
 11
-13.500812
 21
42.730725
 31
0.0
  0
POLYLINE
  5
520
100
AcDbEntity
  8
EBENE_1
 62
     7
100
AcDb2dPolyline
 66
     1
 10
0.0
 20
0.0
 30
0.0
 70
     1
  0
VERTEX
  5
521
100
AcDbEntity
  8
EBENE_1
 62
     7
100
AcDbVertex
100
AcDb2dVertex
 10
-22.221383
 20
43.492608
 30
0.0
  0
VERTEX
  5
522
100
AcDbEntity
  8
EBENE_1
 62
     7
100
AcDbVertex
100
AcDb2dVertex
 10
-22.221383
 20
41.96867
 30
0.0
  0
VERTEX
  5
523
100
AcDbEntity
  8
EBENE_1
 62
     7
100
AcDbVertex
100
AcDb2dVertex
 10
-26.708792
 20
42.730725
 30
0.0
  0
SEQEND
  5
524
100
AcDbEntity
  8
EBENE_1
 62
     7
  0
HATCH
  5
51F
100
AcDbEntity
  8
EBENE_1
 62
     7
100
AcDbHatch
 10
0.0
 20
0.0
 30
0.0
210
0.0
220
0.0
230
1.0
  2
SOLID
 70
     1
 71
     0
 91
        1
 92
        3
 72
     0
 73
     1
 93
        3
 10
-22.221382649739581
 20
43.492607964409721
 10
-22.221382649739581
 20
41.968669976128467
 10
-26.708791775173609
 20
42.730725097656247
 97
        0
 75
     0
 76
     1
 98
        1
 10
0.0
 20
0.0
  0
POLYLINE
  5
51A
100
AcDbEntity
  8
EBENE_1
 62
     7
100
AcDb2dPolyline
 66
     1
 10
0.0
 20
0.0
 30
0.0
 70
     1
  0
VERTEX
  5
51B
100
AcDbEntity
  8
EBENE_1
 62
     7
100
AcDbVertex
100
AcDb2dVertex
 10
-13.500812
 20
43.492608
 30
0.0
  0
VERTEX
  5
51C
100
AcDbEntity
  8
EBENE_1
 62
     7
100
AcDbVertex
100
AcDb2dVertex
 10
-13.500812
 20
41.96867
 30
0.0
  0
VERTEX
  5
51D
100
AcDbEntity
  8
EBENE_1
 62
     7
100
AcDbVertex
100
AcDb2dVertex
 10
-9.013403
 20
42.730725
 30
0.0
  0
SEQEND
  5
51E
100
AcDbEntity
  8
EBENE_1
 62
     7
  0
HATCH
  5
519
100
AcDbEntity
  8
EBENE_1
 62
     7
100
AcDbHatch
 10
0.0
 20
0.0
 30
0.0
210
0.0
220
0.0
230
1.0
  2
SOLID
 70
     1
 71
     0
 91
        1
 92
        3
 72
     0
 73
     1
 93
        3
 10
-13.500812445746526
 20
43.492607964409721
 10
-13.500812445746526
 20
41.968669976128467
 10
-9.0134033203124986
 20
42.730725097656247
 97
        0
 75
     0
 76
     1
 98
        1
 10
0.0
 20
0.0
  0
LINE
  5
518
100
AcDbEntity
  8
EBENE_1
 62
     7
100
AcDbLine
 10
-20.697445
 20
47.641364
 30
0.0
 11
-20.358792
 21
47.810691
 31
0.0
  0
LINE
  5
517
100
AcDbEntity
  8
EBENE_1
 62
     7
100
AcDbLine
 10
-20.358792
 20
47.810691
 30
0.0
 11
-19.766063
 21
48.487996
 31
0.0
  0
LINE
  5
516
100
AcDbEntity
  8
EBENE_1
 62
     7
100
AcDbLine
 10
-19.766063
 20
48.487996
 30
0.0
 11
-19.766063
 21
44.000587
 31
0.0
  0
LINE
  5
515
100
AcDbEntity
  8
EBENE_1
 62
     7
100
AcDbLine
 10
-16.718015
 20
48.487996
 30
0.0
 11
-17.225994
 21
48.233921
 31
0.0
  0
LINE
  5
514
100
AcDbEntity
  8
EBENE_1
 62
     7
100
AcDbLine
 10
-17.225994
 20
48.233921
 30
0.0
 11
-17.48007
 21
47.810691
 31
0.0
  0
LINE
  5
513
100
AcDbEntity
  8
EBENE_1
 62
     7
100
AcDbLine
 10
-17.48007
 20
47.810691
 30
0.0
 11
-17.48007
 21
47.387288
 31
0.0
  0
LINE
  5
512
100
AcDbEntity
  8
EBENE_1
 62
     7
100
AcDbLine
 10
-17.48007
 20
47.387288
 30
0.0
 11
-17.225994
 21
46.964058
 31
0.0
  0
LINE
  5
511
100
AcDbEntity
  8
EBENE_1
 62
     7
100
AcDbLine
 10
-17.225994
 20
46.964058
 30
0.0
 11
-16.887341
 21
46.79456
 31
0.0
  0
LINE
  5
510
100
AcDbEntity
  8
EBENE_1
 62
     7
100
AcDbLine
 10
-16.887341
 20
46.79456
 30
0.0
 11
-16.125458
 21
46.540656
 31
0.0
  0
LINE
  5
50F
100
AcDbEntity
  8
EBENE_1
 62
     7
100
AcDbLine
 10
-16.125458
 20
46.540656
 30
0.0
 11
-15.53273
 21
46.37133
 31
0.0
  0
LINE
  5
50E
100
AcDbEntity
  8
EBENE_1
 62
     7
100
AcDbLine
 10
-15.53273
 20
46.37133
 30
0.0
 11
-15.194077
 21
45.947928
 31
0.0
  0
LINE
  5
50D
100
AcDbEntity
  8
EBENE_1
 62
     7
100
AcDbLine
 10
-15.194077
 20
45.947928
 30
0.0
 11
-14.940001
 21
45.524698
 31
0.0
  0
LINE
  5
50C
100
AcDbEntity
  8
EBENE_1
 62
     7
100
AcDbLine
 10
-14.940001
 20
45.524698
 30
0.0
 11
-14.940001
 21
44.847392
 31
0.0
  0
LINE
  5
50B
100
AcDbEntity
  8
EBENE_1
 62
     7
100
AcDbLine
 10
-14.940001
 20
44.847392
 30
0.0
 11
-15.194077
 21
44.42399
 31
0.0
  0
LINE
  5
50A
100
AcDbEntity
  8
EBENE_1
 62
     7
100
AcDbLine
 10
-15.194077
 20
44.42399
 30
0.0
 11
-15.363403
 21
44.254663
 31
0.0
  0
LINE
  5
509
100
AcDbEntity
  8
EBENE_1
 62
     7
100
AcDbLine
 10
-15.363403
 20
44.254663
 30
0.0
 11
-15.956132
 21
44.000587
 31
0.0
  0
LINE
  5
508
100
AcDbEntity
  8
EBENE_1
 62
     7
100
AcDbLine
 10
-15.956132
 20
44.000587
 30
0.0
 11
-16.718015
 21
44.000587
 31
0.0
  0
LINE
  5
507
100
AcDbEntity
  8
EBENE_1
 62
     7
100
AcDbLine
 10
-16.718015
 20
44.000587
 30
0.0
 11
-17.225994
 21
44.254663
 31
0.0
  0
LINE
  5
506
100
AcDbEntity
  8
EBENE_1
 62
     7
100
AcDbLine
 10
-17.225994
 20
44.254663
 30
0.0
 11
-17.48007
 21
44.42399
 31
0.0
  0
LINE
  5
505
100
AcDbEntity
  8
EBENE_1
 62
     7
100
AcDbLine
 10
-17.48007
 20
44.42399
 30
0.0
 11
-17.649396
 21
44.847392
 31
0.0
  0
LINE
  5
504
100
AcDbEntity
  8
EBENE_1
 62
     7
100
AcDbLine
 10
-17.649396
 20
44.847392
 30
0.0
 11
-17.649396
 21
45.524698
 31
0.0
  0
LINE
  5
503
100
AcDbEntity
  8
EBENE_1
 62
     7
100
AcDbLine
 10
-17.649396
 20
45.524698
 30
0.0
 11
-17.48007
 21
45.947928
 31
0.0
  0
LINE
  5
502
100
AcDbEntity
  8
EBENE_1
 62
     7
100
AcDbLine
 10
-17.48007
 20
45.947928
 30
0.0
 11
-17.056668
 21
46.37133
 31
0.0
  0
LINE
  5
501
100
AcDbEntity
  8
EBENE_1
 62
     7
100
AcDbLine
 10
-17.056668
 20
46.37133
 30
0.0
 11
-16.464111
 21
46.540656
 31
0.0
  0
LINE
  5
500
100
AcDbEntity
  8
EBENE_1
 62
     7
100
AcDbLine
 10
-16.464111
 20
46.540656
 30
0.0
 11
-15.702056
 21
46.79456
 31
0.0
  0
LINE
  5
4FF
100
AcDbEntity
  8
EBENE_1
 62
     7
100
AcDbLine
 10
-15.702056
 20
46.79456
 30
0.0
 11
-15.363403
 21
46.964058
 31
0.0
  0
LINE
  5
4FE
100
AcDbEntity
  8
EBENE_1
 62
     7
100
AcDbLine
 10
-15.363403
 20
46.964058
 30
0.0
 11
-15.194077
 21
47.387288
 31
0.0
  0
LINE
  5
4FD
100
AcDbEntity
  8
EBENE_1
 62
     7
100
AcDbLine
 10
-15.194077
 20
47.387288
 30
0.0
 11
-15.194077
 21
47.810691
 31
0.0
  0
LINE
  5
4FC
100
AcDbEntity
  8
EBENE_1
 62
     7
100
AcDbLine
 10
-15.194077
 20
47.810691
 30
0.0
 11
-15.363403
 21
48.233921
 31
0.0
  0
LINE
  5
4FB
100
AcDbEntity
  8
EBENE_1
 62
     7
100
AcDbLine
 10
-15.363403
 20
48.233921
 30
0.0
 11
-15.956132
 21
48.487996
 31
0.0
  0
LINE
  5
4FA
100
AcDbEntity
  8
EBENE_1
 62
     7
100
AcDbLine
 10
-15.956132
 20
48.487996
 30
0.0
 11
-16.718015
 21
48.487996
 31
0.0
  0
LINE
  5
4F9
100
AcDbEntity
  8
EBENE_1
 62
     7
100
AcDbLine
 10
-7.743369
 20
-8.492849
 30
0.0
 11
11.052383
 21
-8.492849
 31
0.0
  0
LINE
  5
4F8
100
AcDbEntity
  8
EBENE_1
 62
     7
100
AcDbLine
 10
-7.743369
 20
54.330017
 30
0.0
 11
11.052383
 21
54.330017
 31
0.0
  0
LINE
  5
4F7
100
AcDbEntity
  8
EBENE_1
 62
     7
100
AcDbLine
 10
10.375077
 20
-4.090017
 30
0.0
 11
10.375077
 21
49.927357
 31
0.0
  0
POLYLINE
  5
4F2
100
AcDbEntity
  8
EBENE_1
 62
     7
100
AcDb2dPolyline
 66
     1
 10
0.0
 20
0.0
 30
0.0
 70
     1
  0
VERTEX
  5
4F3
100
AcDbEntity
  8
EBENE_1
 62
     7
100
AcDbVertex
100
AcDb2dVertex
 10
9.613022
 20
-4.090017
 30
0.0
  0
VERTEX
  5
4F4
100
AcDbEntity
  8
EBENE_1
 62
     7
100
AcDbVertex
100
AcDb2dVertex
 10
11.137132
 20
-4.090017
 30
0.0
  0
VERTEX
  5
4F5
100
AcDbEntity
  8
EBENE_1
 62
     7
100
AcDbVertex
100
AcDb2dVertex
 10
10.375077
 20
-8.492849
 30
0.0
  0
SEQEND
  5
4F6
100
AcDbEntity
  8
EBENE_1
 62
     7
  0
HATCH
  5
4F1
100
AcDbEntity
  8
EBENE_1
 62
     7
100
AcDbHatch
 10
0.0
 20
0.0
 30
0.0
210
0.0
220
0.0
230
1.0
  2
SOLID
 70
     1
 71
     0
 91
        1
 92
        3
 72
     0
 73
     1
 93
        3
 10
9.6130221896701382
 20
-4.0900173611111104
 10
11.137132432725693
 20
-4.0900173611111104
 10
10.375077311197916
 20
-8.4928493923611104
 97
        0
 75
     0
 76
     1
 98
        1
 10
0.0
 20
0.0
  0
POLYLINE
  5
4EC
100
AcDbEntity
  8
EBENE_1
 62
     7
100
AcDb2dPolyline
 66
     1
 10
0.0
 20
0.0
 30
0.0
 70
     1
  0
VERTEX
  5
4ED
100
AcDbEntity
  8
EBENE_1
 62
     7
100
AcDbVertex
100
AcDb2dVertex
 10
9.613022
 20
49.927357
 30
0.0
  0
VERTEX
  5
4EE
100
AcDbEntity
  8
EBENE_1
 62
     7
100
AcDbVertex
100
AcDb2dVertex
 10
11.137132
 20
49.927357
 30
0.0
  0
VERTEX
  5
4EF
100
AcDbEntity
  8
EBENE_1
 62
     7
100
AcDbVertex
100
AcDb2dVertex
 10
10.375077
 20
54.330017
 30
0.0
  0
SEQEND
  5
4F0
100
AcDbEntity
  8
EBENE_1
 62
     7
  0
HATCH
  5
4EB
100
AcDbEntity
  8
EBENE_1
 62
     7
100
AcDbHatch
 10
0.0
 20
0.0
 30
0.0
210
0.0
220
0.0
230
1.0
  2
SOLID
 70
     1
 71
     0
 91
        1
 92
        3
 72
     0
 73
     1
 93
        3
 10
9.6130221896701382
 20
49.927357313368049
 10
11.137132432725693
 20
49.927357313368049
 10
10.375077311197916
 20
54.330017089843743
 97
        0
 75
     0
 76
     1
 98
        1
 10
0.0
 20
0.0
  0
LINE
  5
4EA
100
AcDbEntity
  8
EBENE_1
 62
     7
100
AcDbLine
 10
5.295284
 20
21.902711
 30
0.0
 11
4.871882
 21
21.648636
 31
0.0
  0
LINE
  5
4E9
100
AcDbEntity
  8
EBENE_1
 62
     7
100
AcDbLine
 10
4.871882
 20
21.648636
 30
0.0
 11
4.617978
 21
21.140656
 31
0.0
  0
LINE
  5
4E8
100
AcDbEntity
  8
EBENE_1
 62
     7
100
AcDbLine
 10
4.617978
 20
21.140656
 30
0.0
 11
4.617978
 21
20.717254
 31
0.0
  0
LINE
  5
4E7
100
AcDbEntity
  8
EBENE_1
 62
     7
100
AcDbLine
 10
4.617978
 20
20.717254
 30
0.0
 11
4.871882
 21
20.124698
 31
0.0
  0
LINE
  5
4E6
100
AcDbEntity
  8
EBENE_1
 62
     7
100
AcDbLine
 10
4.871882
 20
20.124698
 30
0.0
 11
5.464438
 21
19.786045
 31
0.0
  0
LINE
  5
4E5
100
AcDbEntity
  8
EBENE_1
 62
     7
100
AcDbLine
 10
5.464438
 20
19.786045
 30
0.0
 11
6.565491
 21
19.531969
 31
0.0
  0
LINE
  5
4E4
100
AcDbEntity
  8
EBENE_1
 62
     7
100
AcDbLine
 10
6.565491
 20
19.531969
 30
0.0
 11
7.581105
 21
19.531969
 31
0.0
  0
LINE
  5
4E3
100
AcDbEntity
  8
EBENE_1
 62
     7
100
AcDbLine
 10
7.581105
 20
19.531969
 30
0.0
 11
8.427909
 21
19.786045
 31
0.0
  0
LINE
  5
4E2
100
AcDbEntity
  8
EBENE_1
 62
     7
100
AcDbLine
 10
8.427909
 20
19.786045
 30
0.0
 11
8.851312
 21
20.124698
 31
0.0
  0
LINE
  5
4E1
100
AcDbEntity
  8
EBENE_1
 62
     7
100
AcDbLine
 10
8.851312
 20
20.124698
 30
0.0
 11
9.105215
 21
20.717254
 31
0.0
  0
LINE
  5
4E0
100
AcDbEntity
  8
EBENE_1
 62
     7
100
AcDbLine
 10
9.105215
 20
20.717254
 30
0.0
 11
9.105215
 21
20.88658
 31
0.0
  0
LINE
  5
4DF
100
AcDbEntity
  8
EBENE_1
 62
     7
100
AcDbLine
 10
9.105215
 20
20.88658
 30
0.0
 11
8.851312
 21
21.479309
 31
0.0
  0
LINE
  5
4DE
100
AcDbEntity
  8
EBENE_1
 62
     7
100
AcDbLine
 10
8.851312
 20
21.479309
 30
0.0
 11
8.427909
 21
21.902711
 31
0.0
  0
LINE
  5
4DD
100
AcDbEntity
  8
EBENE_1
 62
     7
100
AcDbLine
 10
8.427909
 20
21.902711
 30
0.0
 11
7.835353
 21
22.072038
 31
0.0
  0
LINE
  5
4DC
100
AcDbEntity
  8
EBENE_1
 62
     7
100
AcDbLine
 10
7.835353
 20
22.072038
 30
0.0
 11
7.581105
 21
22.072038
 31
0.0
  0
LINE
  5
4DB
100
AcDbEntity
  8
EBENE_1
 62
     7
100
AcDbLine
 10
7.581105
 20
22.072038
 30
0.0
 11
6.988548
 21
21.902711
 31
0.0
  0
LINE
  5
4DA
100
AcDbEntity
  8
EBENE_1
 62
     7
100
AcDbLine
 10
6.988548
 20
21.902711
 30
0.0
 11
6.565491
 21
21.479309
 31
0.0
  0
LINE
  5
4D9
100
AcDbEntity
  8
EBENE_1
 62
     7
100
AcDbLine
 10
6.565491
 20
21.479309
 30
0.0
 11
6.311243
 21
20.88658
 31
0.0
  0
LINE
  5
4D8
100
AcDbEntity
  8
EBENE_1
 62
     7
100
AcDbLine
 10
6.311243
 20
20.88658
 30
0.0
 11
6.311243
 21
20.717254
 31
0.0
  0
LINE
  5
4D7
100
AcDbEntity
  8
EBENE_1
 62
     7
100
AcDbLine
 10
6.311243
 20
20.717254
 30
0.0
 11
6.565491
 21
20.124698
 31
0.0
  0
LINE
  5
4D6
100
AcDbEntity
  8
EBENE_1
 62
     7
100
AcDbLine
 10
6.565491
 20
20.124698
 30
0.0
 11
6.988548
 21
19.786045
 31
0.0
  0
LINE
  5
4D5
100
AcDbEntity
  8
EBENE_1
 62
     7
100
AcDbLine
 10
6.988548
 20
19.786045
 30
0.0
 11
7.581105
 21
19.531969
 31
0.0
  0
LINE
  5
4D4
100
AcDbEntity
  8
EBENE_1
 62
     7
100
AcDbLine
 10
7.581105
 20
19.531969
 30
0.0
 11
7.581105
 21
19.531969
 31
0.0
  0
LINE
  5
4D3
100
AcDbEntity
  8
EBENE_1
 62
     7
100
AcDbLine
 10
4.617978
 20
25.28924
 30
0.0
 11
7.581105
 21
23.426649
 31
0.0
  0
LINE
  5
4D2
100
AcDbEntity
  8
EBENE_1
 62
     7
100
AcDbLine
 10
7.581105
 20
23.426649
 30
0.0
 11
7.581105
 21
26.305371
 31
0.0
  0
LINE
  5
4D1
100
AcDbEntity
  8
EBENE_1
 62
     7
100
AcDbLine
 10
4.617978
 20
25.28924
 30
0.0
 11
9.105215
 21
25.28924
 31
0.0
  0
LINE
  5
4D0
100
AcDbEntity
  8
EBENE_1
 62
     7
100
AcDbLine
 10
-31.365355
 20
121.216546
 30
0.0
 11
-52.362695
 21
121.216546
 31
0.0
  0
LINE
  5
4CF
100
AcDbEntity
  8
EBENE_1
 62
     7
100
AcDbLine
 10
-31.365355
 20
-75.379378
 30
0.0
 11
-52.362695
 21
-75.379378
 31
0.0
  0
LINE
  5
4CE
100
AcDbEntity
  8
EBENE_1
 62
     7
100
AcDbLine
 10
-51.68539
 20
116.729309
 30
0.0
 11
-51.68539
 21
-70.891797
 31
0.0
  0
POLYLINE
  5
4C9
100
AcDbEntity
  8
EBENE_1
 62
     7
100
AcDb2dPolyline
 66
     1
 10
0.0
 20
0.0
 30
0.0
 70
     1
  0
VERTEX
  5
4CA
100
AcDbEntity
  8
EBENE_1
 62
     7
100
AcDbVertex
100
AcDb2dVertex
 10
-52.447445
 20
116.729309
 30
0.0
  0
VERTEX
  5
4CB
100
AcDbEntity
  8
EBENE_1
 62
     7
100
AcDbVertex
100
AcDb2dVertex
 10
-50.923334
 20
116.729309
 30
0.0
  0
VERTEX
  5
4CC
100
AcDbEntity
  8
EBENE_1
 62
     7
100
AcDbVertex
100
AcDb2dVertex
 10
-51.68539
 20
121.216546
 30
0.0
  0
SEQEND
  5
4CD
100
AcDbEntity
  8
EBENE_1
 62
     7
  0
HATCH
  5
4C8
100
AcDbEntity
  8
EBENE_1
 62
     7
100
AcDbHatch
 10
0.0
 20
0.0
 30
0.0
210
0.0
220
0.0
230
1.0
  2
SOLID
 70
     1
 71
     0
 91
        1
 92
        3
 72
     0
 73
     1
 93
        3
 10
-52.447444661458327
 20
116.72930908203124
 10
-50.923334418402774
 20
116.72930908203124
 10
-51.685389539930554
 20
121.21654595269096
 97
        0
 75
     0
 76
     1
 98
        1
 10
0.0
 20
0.0
  0
POLYLINE
  5
4C3
100
AcDbEntity
  8
EBENE_1
 62
     7
100
AcDb2dPolyline
 66
     1
 10
0.0
 20
0.0
 30
0.0
 70
     1
  0
VERTEX
  5
4C4
100
AcDbEntity
  8
EBENE_1
 62
     7
100
AcDbVertex
100
AcDb2dVertex
 10
-52.447445
 20
-70.891797
 30
0.0
  0
VERTEX
  5
4C5
100
AcDbEntity
  8
EBENE_1
 62
     7
100
AcDbVertex
100
AcDb2dVertex
 10
-50.923334
 20
-70.891797
 30
0.0
  0
VERTEX
  5
4C6
100
AcDbEntity
  8
EBENE_1
 62
     7
100
AcDbVertex
100
AcDb2dVertex
 10
-51.68539
 20
-75.379378
 30
0.0
  0
SEQEND
  5
4C7
100
AcDbEntity
  8
EBENE_1
 62
     7
  0
HATCH
  5
4C2
100
AcDbEntity
  8
EBENE_1
 62
     7
100
AcDbHatch
 10
0.0
 20
0.0
 30
0.0
210
0.0
220
0.0
230
1.0
  2
SOLID
 70
     1
 71
     0
 91
        1
 92
        3
 72
     0
 73
     1
 93
        3
 10
-52.447444661458327
 20
-70.891796874999997
 10
-50.923334418402774
 20
-70.891796874999997
 10
-51.685389539930554
 20
-75.379378255208323
 97
        0
 75
     0
 76
     1
 98
        1
 10
0.0
 20
0.0
  0
LINE
  5
4C1
100
AcDbEntity
  8
EBENE_1
 62
     7
100
AcDbLine
 10
-56.342125
 20
17.923282
 30
0.0
 11
-56.596029
 21
17.923282
 31
0.0
  0
LINE
  5
4C0
100
AcDbEntity
  8
EBENE_1
 62
     7
100
AcDbLine
 10
-56.596029
 20
17.923282
 30
0.0
 11
-57.019431
 21
18.092608
 31
0.0
  0
LINE
  5
4BF
100
AcDbEntity
  8
EBENE_1
 62
     7
100
AcDbLine
 10
-57.019431
 20
18.092608
 30
0.0
 11
-57.273334
 21
18.346684
 31
0.0
  0
LINE
  5
4BE
100
AcDbEntity
  8
EBENE_1
 62
     7
100
AcDbLine
 10
-57.273334
 20
18.346684
 30
0.0
 11
-57.442661
 21
18.685337
 31
0.0
  0
LINE
  5
4BD
100
AcDbEntity
  8
EBENE_1
 62
     7
100
AcDbLine
 10
-57.442661
 20
18.685337
 30
0.0
 11
-57.442661
 21
19.447392
 31
0.0
  0
LINE
  5
4BC
100
AcDbEntity
  8
EBENE_1
 62
     7
100
AcDbLine
 10
-57.442661
 20
19.447392
 30
0.0
 11
-57.273334
 21
19.870622
 31
0.0
  0
LINE
  5
4BB
100
AcDbEntity
  8
EBENE_1
 62
     7
100
AcDbLine
 10
-57.273334
 20
19.870622
 30
0.0
 11
-57.019431
 21
20.039948
 31
0.0
  0
LINE
  5
4BA
100
AcDbEntity
  8
EBENE_1
 62
     7
100
AcDbLine
 10
-57.019431
 20
20.039948
 30
0.0
 11
-56.596029
 21
20.209275
 31
0.0
  0
LINE
  5
4B9
100
AcDbEntity
  8
EBENE_1
 62
     7
100
AcDbLine
 10
-56.596029
 20
20.209275
 30
0.0
 11
-56.172799
 21
20.209275
 31
0.0
  0
LINE
  5
4B8
100
AcDbEntity
  8
EBENE_1
 62
     7
100
AcDbLine
 10
-56.172799
 20
20.209275
 30
0.0
 11
-55.749396
 21
20.039948
 31
0.0
  0
LINE
  5
4B7
100
AcDbEntity
  8
EBENE_1
 62
     7
100
AcDbLine
 10
-55.749396
 20
20.039948
 30
0.0
 11
-55.072091
 21
19.701295
 31
0.0
  0
LINE
  5
4B6
100
AcDbEntity
  8
EBENE_1
 62
     7
100
AcDbLine
 10
-55.072091
 20
19.701295
 30
0.0
 11
-52.955424
 21
17.753955
 31
0.0
  0
LINE
  5
4B5
100
AcDbEntity
  8
EBENE_1
 62
     7
100
AcDbLine
 10
-52.955424
 20
17.753955
 30
0.0
 11
-52.955424
 21
20.46335
 31
0.0
  0
LINE
  5
4B4
100
AcDbEntity
  8
EBENE_1
 62
     7
100
AcDbLine
 10
-57.442661
 20
22.749344
 30
0.0
 11
-57.273334
 21
22.156615
 31
0.0
  0
LINE
  5
4B3
100
AcDbEntity
  8
EBENE_1
 62
     7
100
AcDbLine
 10
-57.273334
 20
22.156615
 30
0.0
 11
-56.596029
 21
21.733213
 31
0.0
  0
LINE
  5
4B2
100
AcDbEntity
  8
EBENE_1
 62
     7
100
AcDbLine
 10
-56.596029
 20
21.733213
 30
0.0
 11
-55.495321
 21
21.564058
 31
0.0
  0
LINE
  5
4B1
100
AcDbEntity
  8
EBENE_1
 62
     7
100
AcDbLine
 10
-55.495321
 20
21.564058
 30
0.0
 11
-54.902764
 21
21.564058
 31
0.0
  0
LINE
  5
4B0
100
AcDbEntity
  8
EBENE_1
 62
     7
100
AcDbLine
 10
-54.902764
 20
21.564058
 30
0.0
 11
-53.802056
 21
21.733213
 31
0.0
  0
LINE
  5
4AF
100
AcDbEntity
  8
EBENE_1
 62
     7
100
AcDbLine
 10
-53.802056
 20
21.733213
 30
0.0
 11
-53.209328
 21
22.156615
 31
0.0
  0
LINE
  5
4AE
100
AcDbEntity
  8
EBENE_1
 62
     7
100
AcDbLine
 10
-53.209328
 20
22.156615
 30
0.0
 11
-52.955424
 21
22.749344
 31
0.0
  0
LINE
  5
4AD
100
AcDbEntity
  8
EBENE_1
 62
     7
100
AcDbLine
 10
-52.955424
 20
22.749344
 30
0.0
 11
-52.955424
 21
23.087996
 31
0.0
  0
LINE
  5
4AC
100
AcDbEntity
  8
EBENE_1
 62
     7
100
AcDbLine
 10
-52.955424
 20
23.087996
 30
0.0
 11
-53.209328
 21
23.680725
 31
0.0
  0
LINE
  5
4AB
100
AcDbEntity
  8
EBENE_1
 62
     7
100
AcDbLine
 10
-53.209328
 20
23.680725
 30
0.0
 11
-53.802056
 21
24.103955
 31
0.0
  0
LINE
  5
4AA
100
AcDbEntity
  8
EBENE_1
 62
     7
100
AcDbLine
 10
-53.802056
 20
24.103955
 30
0.0
 11
-54.902764
 21
24.273282
 31
0.0
  0
LINE
  5
4A9
100
AcDbEntity
  8
EBENE_1
 62
     7
100
AcDbLine
 10
-54.902764
 20
24.273282
 30
0.0
 11
-55.495321
 21
24.273282
 31
0.0
  0
LINE
  5
4A8
100
AcDbEntity
  8
EBENE_1
 62
     7
100
AcDbLine
 10
-55.495321
 20
24.273282
 30
0.0
 11
-56.596029
 21
24.103955
 31
0.0
  0
LINE
  5
4A7
100
AcDbEntity
  8
EBENE_1
 62
     7
100
AcDbLine
 10
-56.596029
 20
24.103955
 30
0.0
 11
-57.273334
 21
23.680725
 31
0.0
  0
LINE
  5
4A6
100
AcDbEntity
  8
EBENE_1
 62
     7
100
AcDbLine
 10
-57.273334
 20
23.680725
 30
0.0
 11
-57.442661
 21
23.087996
 31
0.0
  0
LINE
  5
4A5
100
AcDbEntity
  8
EBENE_1
 62
     7
100
AcDbLine
 10
-57.442661
 20
23.087996
 30
0.0
 11
-57.442661
 21
22.749344
 31
0.0
  0
LINE
  5
4A4
100
AcDbEntity
  8
EBENE_1
 62
     7
100
AcDbLine
 10
-57.442661
 20
22.749344
 30
0.0
 11
-57.442661
 21
22.749344
 31
0.0
  0
LINE
  5
4A3
100
AcDbEntity
  8
EBENE_1
 62
     7
100
AcDbLine
 10
-57.442661
 20
26.559275
 30
0.0
 11
-57.273334
 21
25.966546
 31
0.0
  0
LINE
  5
4A2
100
AcDbEntity
  8
EBENE_1
 62
     7
100
AcDbLine
 10
-57.273334
 20
25.966546
 30
0.0
 11
-56.596029
 21
25.627893
 31
0.0
  0
LINE
  5
4A1
100
AcDbEntity
  8
EBENE_1
 62
     7
100
AcDbLine
 10
-56.596029
 20
25.627893
 30
0.0
 11
-55.495321
 21
25.37399
 31
0.0
  0
LINE
  5
4A0
100
AcDbEntity
  8
EBENE_1
 62
     7
100
AcDbLine
 10
-55.495321
 20
25.37399
 30
0.0
 11
-54.902764
 21
25.37399
 31
0.0
  0
LINE
  5
49F
100
AcDbEntity
  8
EBENE_1
 62
     7
100
AcDbLine
 10
-54.902764
 20
25.37399
 30
0.0
 11
-53.802056
 21
25.627893
 31
0.0
  0
LINE
  5
49E
100
AcDbEntity
  8
EBENE_1
 62
     7
100
AcDbLine
 10
-53.802056
 20
25.627893
 30
0.0
 11
-53.209328
 21
25.966546
 31
0.0
  0
LINE
  5
49D
100
AcDbEntity
  8
EBENE_1
 62
     7
100
AcDbLine
 10
-53.209328
 20
25.966546
 30
0.0
 11
-52.955424
 21
26.559275
 31
0.0
  0
LINE
  5
49C
100
AcDbEntity
  8
EBENE_1
 62
     7
100
AcDbLine
 10
-52.955424
 20
26.559275
 30
0.0
 11
-52.955424
 21
26.982677
 31
0.0
  0
LINE
  5
49B
100
AcDbEntity
  8
EBENE_1
 62
     7
100
AcDbLine
 10
-52.955424
 20
26.982677
 30
0.0
 11
-53.209328
 21
27.490656
 31
0.0
  0
LINE
  5
49A
100
AcDbEntity
  8
EBENE_1
 62
     7
100
AcDbLine
 10
-53.209328
 20
27.490656
 30
0.0
 11
-53.802056
 21
27.914058
 31
0.0
  0
LINE
  5
499
100
AcDbEntity
  8
EBENE_1
 62
     7
100
AcDbLine
 10
-53.802056
 20
27.914058
 30
0.0
 11
-54.902764
 21
28.083213
 31
0.0
  0
LINE
  5
498
100
AcDbEntity
  8
EBENE_1
 62
     7
100
AcDbLine
 10
-54.902764
 20
28.083213
 30
0.0
 11
-55.495321
 21
28.083213
 31
0.0
  0
LINE
  5
497
100
AcDbEntity
  8
EBENE_1
 62
     7
100
AcDbLine
 10
-55.495321
 20
28.083213
 30
0.0
 11
-56.596029
 21
27.914058
 31
0.0
  0
LINE
  5
496
100
AcDbEntity
  8
EBENE_1
 62
     7
100
AcDbLine
 10
-56.596029
 20
27.914058
 30
0.0
 11
-57.273334
 21
27.490656
 31
0.0
  0
LINE
  5
495
100
AcDbEntity
  8
EBENE_1
 62
     7
100
AcDbLine
 10
-57.273334
 20
27.490656
 30
0.0
 11
-57.442661
 21
26.982677
 31
0.0
  0
LINE
  5
494
100
AcDbEntity
  8
EBENE_1
 62
     7
100
AcDbLine
 10
-57.442661
 20
26.982677
 30
0.0
 11
-57.442661
 21
26.559275
 31
0.0
  0
LINE
  5
493
100
AcDbEntity
  8
EBENE_1
 62
     7
100
AcDbLine
 10
-57.442661
 20
26.559275
 30
0.0
 11
-57.442661
 21
26.559275
 31
0.0
  0
LINE
  5
492
100
AcDbEntity
  8
EBENE_1
 62
     7
100
AcDbLine
 10
-29.418015
 20
15.04456
 30
0.0
 11
-41.356132
 21
15.04456
 31
0.0
  0
LINE
  5
491
100
AcDbEntity
  8
EBENE_1
 62
     7
100
AcDbLine
 10
-29.418015
 20
110.379309
 30
0.0
 11
-41.356132
 21
110.379309
 31
0.0
  0
LINE
  5
490
100
AcDbEntity
  8
EBENE_1
 62
     7
100
AcDbLine
 10
-40.678654
 20
19.531969
 30
0.0
 11
-40.678654
 21
105.8919
 31
0.0
  0
POLYLINE
  5
48B
100
AcDbEntity
  8
EBENE_1
 62
     7
100
AcDb2dPolyline
 66
     1
 10
0.0
 20
0.0
 30
0.0
 70
     1
  0
VERTEX
  5
48C
100
AcDbEntity
  8
EBENE_1
 62
     7
100
AcDbVertex
100
AcDb2dVertex
 10
-41.440709
 20
19.531969
 30
0.0
  0
VERTEX
  5
48D
100
AcDbEntity
  8
EBENE_1
 62
     7
100
AcDbVertex
100
AcDb2dVertex
 10
-40.001348
 20
19.531969
 30
0.0
  0
VERTEX
  5
48E
100
AcDbEntity
  8
EBENE_1
 62
     7
100
AcDbVertex
100
AcDb2dVertex
 10
-40.678654
 20
15.04456
 30
0.0
  0
SEQEND
  5
48F
100
AcDbEntity
  8
EBENE_1
 62
     7
  0
HATCH
  5
48A
100
AcDbEntity
  8
EBENE_1
 62
     7
100
AcDbHatch
 10
0.0
 20
0.0
 30
0.0
210
0.0
220
0.0
230
1.0
  2
SOLID
 70
     1
 71
     0
 91
        1
 92
        3
 72
     0
 73
     1
 93
        3
 10
-41.440709092881939
 20
19.531968858506943
 10
-40.001348198784719
 20
19.531968858506943
 10
-40.678653971354166
 20
15.044559733072916
 97
        0
 75
     0
 76
     1
 98
        1
 10
0.0
 20
0.0
  0
POLYLINE
  5
485
100
AcDbEntity
  8
EBENE_1
 62
     7
100
AcDb2dPolyline
 66
     1
 10
0.0
 20
0.0
 30
0.0
 70
     1
  0
VERTEX
  5
486
100
AcDbEntity
  8
EBENE_1
 62
     7
100
AcDbVertex
100
AcDb2dVertex
 10
-41.440709
 20
105.8919
 30
0.0
  0
VERTEX
  5
487
100
AcDbEntity
  8
EBENE_1
 62
     7
100
AcDbVertex
100
AcDb2dVertex
 10
-40.001348
 20
105.8919
 30
0.0
  0
VERTEX
  5
488
100
AcDbEntity
  8
EBENE_1
 62
     7
100
AcDbVertex
100
AcDb2dVertex
 10
-40.678654
 20
110.379309
 30
0.0
  0
SEQEND
  5
489
100
AcDbEntity
  8
EBENE_1
 62
     7
  0
HATCH
  5
484
100
AcDbEntity
  8
EBENE_1
 62
     7
100
AcDbHatch
 10
0.0
 20
0.0
 30
0.0
210
0.0
220
0.0
230
1.0
  2
SOLID
 70
     1
 71
     0
 91
        1
 92
        3
 72
     0
 73
     1
 93
        3
 10
-41.440709092881939
 20
105.89189995659721
 10
-40.001348198784719
 20
105.89189995659721
 10
-40.678653971354166
 20
110.37930908203124
 97
        0
 75
     0
 76
     1
 98
        1
 10
0.0
 20
0.0
  0
LINE
  5
483
100
AcDbEntity
  8
EBENE_1
 62
     7
100
AcDbLine
 10
-44.996737
 20
61.949879
 30
0.0
 11
-44.319431
 21
61.780725
 31
0.0
  0
LINE
  5
482
100
AcDbEntity
  8
EBENE_1
 62
     7
100
AcDbLine
 10
-44.319431
 20
61.780725
 30
0.0
 11
-43.896029
 21
61.357323
 31
0.0
  0
LINE
  5
481
100
AcDbEntity
  8
EBENE_1
 62
     7
100
AcDbLine
 10
-43.896029
 20
61.357323
 30
0.0
 11
-43.726702
 21
60.764594
 31
0.0
  0
LINE
  5
480
100
AcDbEntity
  8
EBENE_1
 62
     7
100
AcDbLine
 10
-43.726702
 20
60.764594
 30
0.0
 11
-43.726702
 21
60.595268
 31
0.0
  0
LINE
  5
47F
100
AcDbEntity
  8
EBENE_1
 62
     7
100
AcDbLine
 10
-43.726702
 20
60.595268
 30
0.0
 11
-43.896029
 21
60.002711
 31
0.0
  0
LINE
  5
47E
100
AcDbEntity
  8
EBENE_1
 62
     7
100
AcDbLine
 10
-43.896029
 20
60.002711
 30
0.0
 11
-44.319431
 21
59.664058
 31
0.0
  0
LINE
  5
47D
100
AcDbEntity
  8
EBENE_1
 62
     7
100
AcDbLine
 10
-44.319431
 20
59.664058
 30
0.0
 11
-44.996737
 21
59.49456
 31
0.0
  0
LINE
  5
47C
100
AcDbEntity
  8
EBENE_1
 62
     7
100
AcDbLine
 10
-44.996737
 20
59.49456
 30
0.0
 11
-45.166063
 21
59.49456
 31
0.0
  0
LINE
  5
47B
100
AcDbEntity
  8
EBENE_1
 62
     7
100
AcDbLine
 10
-45.166063
 20
59.49456
 30
0.0
 11
-45.843369
 21
59.664058
 31
0.0
  0
LINE
  5
47A
100
AcDbEntity
  8
EBENE_1
 62
     7
100
AcDbLine
 10
-45.843369
 20
59.664058
 30
0.0
 11
-46.266771
 21
60.002711
 31
0.0
  0
LINE
  5
479
100
AcDbEntity
  8
EBENE_1
 62
     7
100
AcDbLine
 10
-46.266771
 20
60.002711
 30
0.0
 11
-46.436098
 21
60.595268
 31
0.0
  0
LINE
  5
478
100
AcDbEntity
  8
EBENE_1
 62
     7
100
AcDbLine
 10
-46.436098
 20
60.595268
 30
0.0
 11
-46.436098
 21
60.764594
 31
0.0
  0
LINE
  5
477
100
AcDbEntity
  8
EBENE_1
 62
     7
100
AcDbLine
 10
-46.436098
 20
60.764594
 30
0.0
 11
-46.266771
 21
61.357323
 31
0.0
  0
LINE
  5
476
100
AcDbEntity
  8
EBENE_1
 62
     7
100
AcDbLine
 10
-46.266771
 20
61.357323
 30
0.0
 11
-45.843369
 21
61.780725
 31
0.0
  0
LINE
  5
475
100
AcDbEntity
  8
EBENE_1
 62
     7
100
AcDbLine
 10
-45.843369
 20
61.780725
 30
0.0
 11
-44.996737
 21
61.949879
 31
0.0
  0
LINE
  5
474
100
AcDbEntity
  8
EBENE_1
 62
     7
100
AcDbLine
 10
-44.996737
 20
61.949879
 30
0.0
 11
-43.896029
 21
61.949879
 31
0.0
  0
LINE
  5
473
100
AcDbEntity
  8
EBENE_1
 62
     7
100
AcDbLine
 10
-43.896029
 20
61.949879
 30
0.0
 11
-42.88007
 21
61.780725
 31
0.0
  0
LINE
  5
472
100
AcDbEntity
  8
EBENE_1
 62
     7
100
AcDbLine
 10
-42.88007
 20
61.780725
 30
0.0
 11
-42.202764
 21
61.357323
 31
0.0
  0
LINE
  5
471
100
AcDbEntity
  8
EBENE_1
 62
     7
100
AcDbLine
 10
-42.202764
 20
61.357323
 30
0.0
 11
-42.033438
 21
60.764594
 31
0.0
  0
LINE
  5
470
100
AcDbEntity
  8
EBENE_1
 62
     7
100
AcDbLine
 10
-42.033438
 20
60.764594
 30
0.0
 11
-42.033438
 21
60.425941
 31
0.0
  0
LINE
  5
46F
100
AcDbEntity
  8
EBENE_1
 62
     7
100
AcDbLine
 10
-42.033438
 20
60.425941
 30
0.0
 11
-42.202764
 21
59.833213
 31
0.0
  0
LINE
  5
46E
100
AcDbEntity
  8
EBENE_1
 62
     7
100
AcDbLine
 10
-42.202764
 20
59.833213
 30
0.0
 11
-42.625994
 21
59.664058
 31
0.0
  0
LINE
  5
46D
100
AcDbEntity
  8
EBENE_1
 62
     7
100
AcDbLine
 10
-42.625994
 20
59.664058
 30
0.0
 11
-42.625994
 21
59.664058
 31
0.0
  0
LINE
  5
46C
100
AcDbEntity
  8
EBENE_1
 62
     7
100
AcDbLine
 10
-46.436098
 20
63.304663
 30
0.0
 11
-46.436098
 21
66.014058
 31
0.0
  0
LINE
  5
46B
100
AcDbEntity
  8
EBENE_1
 62
     7
100
AcDbLine
 10
-46.436098
 20
66.014058
 30
0.0
 11
-42.033438
 21
64.066546
 31
0.0
  0
LINE
  5
46A
100
AcDbEntity
  8
EBENE_1
 62
     7
100
AcDbLine
 10
-42.033438
 20
64.066546
 30
0.0
 11
-42.033438
 21
64.066546
 31
0.0
  0
LINE
  5
469
100
AcDbEntity
  8
EBENE_1
 62
     7
100
AcDbLine
 10
40.939964
 20
121.216546
 30
0.0
 11
40.939964
 21
-75.379378
 31
0.0
  0
LINE
  5
468
100
AcDbEntity
  8
EBENE_1
 62
     7
100
AcDbLine
 10
54.656268
 20
121.216546
 30
0.0
 11
54.656268
 21
-75.379378
 31
0.0
  0
LINE
  5
467
100
AcDbEntity
  8
EBENE_1
 62
     7
100
AcDbLine
 10
52.200604
 20
121.216546
 30
0.0
 11
52.200604
 21
-75.379378
 31
0.0
  0
LINE
  5
466
100
AcDbEntity
  8
EBENE_1
 62
     7
100
AcDbLine
 10
-9.013403
 20
54.330017
 30
0.0
 11
-9.013403
 21
47.895268
 31
0.0
  0
LINE
  5
465
100
AcDbEntity
  8
EBENE_1
 62
     7
100
AcDbLine
 10
-9.013403
 20
44.762642
 30
0.0
 11
-9.013403
 21
38.497392
 31
0.0
  0
LINE
  5
464
100
AcDbEntity
  8
EBENE_1
 62
     7
100
AcDbLine
 10
-9.013403
 20
35.364594
 30
0.0
 11
-9.013403
 21
29.183921
 31
0.0
  0
LINE
  5
463
100
AcDbEntity
  8
EBENE_1
 62
     7
100
AcDbLine
 10
-9.013403
 20
26.051295
 30
0.0
 11
-9.013403
 21
19.786045
 31
0.0
  0
LINE
  5
462
100
AcDbEntity
  8
EBENE_1
 62
     7
100
AcDbLine
 10
-9.013403
 20
16.653247
 30
0.0
 11
-9.013403
 21
10.472574
 31
0.0
  0
LINE
  5
461
100
AcDbEntity
  8
EBENE_1
 62
     7
100
AcDbLine
 10
-9.013403
 20
7.339948
 30
0.0
 11
-9.013403
 21
1.074698
 31
0.0
  0
LINE
  5
460
100
AcDbEntity
  8
EBENE_1
 62
     7
100
AcDbLine
 10
-9.013403
 20
-2.0581
 30
0.0
 11
-9.013403
 21
-8.492849
 31
0.0
  0
LINE
  5
45F
100
AcDbEntity
  8
EBENE_1
 62
     7
100
AcDbLine
 10
-9.013403
 20
-8.492849
 30
0.0
 11
-9.013403
 21
-8.492849
 31
0.0
  0
LINE
  5
45E
100
AcDbEntity
  8
EBENE_1
 62
     7
100
AcDbLine
 10
-6.558084
 20
121.216546
 30
0.0
 11
-6.558084
 21
-75.379378
 31
0.0
  0
LINE
  5
45D
100
AcDbEntity
  8
EBENE_1
 62
     7
100
AcDbLine
 10
-30.095321
 20
121.216546
 30
0.0
 11
-30.095321
 21
-75.379378
 31
0.0
  0
LINE
  5
45C
100
AcDbEntity
  8
EBENE_1
 62
     7
100
AcDbLine
 10
-31.365355
 20
-117.458464
 30
0.0
 11
-41.356132
 21
-117.458464
 31
0.0
  0
LINE
  5
45B
100
AcDbEntity
  8
EBENE_1
 62
     7
100
AcDbLine
 10
-31.365355
 20
-119.914128
 30
0.0
 11
-41.356132
 21
-119.914128
 31
0.0
  0
LINE
  5
45A
100
AcDbEntity
  8
EBENE_1
 62
     7
100
AcDbLine
 10
-40.678654
 20
-112.971571
 30
0.0
 11
-40.678654
 21
-108.568739
 31
0.0
  0
LINE
  5
459
100
AcDbEntity
  8
EBENE_1
 62
     7
100
AcDbLine
 10
-40.678654
 20
-124.40102
 30
0.0
 11
-40.678654
 21
-128.888601
 31
0.0
  0
LINE
  5
458
100
AcDbEntity
  8
EBENE_1
 62
     7
100
AcDbLine
 10
-40.678654
 20
-117.458464
 30
0.0
 11
-40.678654
 21
-119.914128
 31
0.0
  0
POLYLINE
  5
453
100
AcDbEntity
  8
EBENE_1
 62
     7
100
AcDb2dPolyline
 66
     1
 10
0.0
 20
0.0
 30
0.0
 70
     1
  0
VERTEX
  5
454
100
AcDbEntity
  8
EBENE_1
 62
     7
100
AcDbVertex
100
AcDb2dVertex
 10
-41.440709
 20
-112.971571
 30
0.0
  0
VERTEX
  5
455
100
AcDbEntity
  8
EBENE_1
 62
     7
100
AcDbVertex
100
AcDb2dVertex
 10
-40.001348
 20
-112.971571
 30
0.0
  0
VERTEX
  5
456
100
AcDbEntity
  8
EBENE_1
 62
     7
100
AcDbVertex
100
AcDb2dVertex
 10
-40.678654
 20
-117.458464
 30
0.0
  0
SEQEND
  5
457
100
AcDbEntity
  8
EBENE_1
 62
     7
  0
HATCH
  5
452
100
AcDbEntity
  8
EBENE_1
 62
     7
100
AcDbHatch
 10
0.0
 20
0.0
 30
0.0
210
0.0
220
0.0
230
1.0
  2
SOLID
 70
     1
 71
     0
 91
        1
 92
        3
 72
     0
 73
     1
 93
        3
 10
-41.440709092881939
 20
-112.97157118055554
 10
-40.001348198784719
 20
-112.97157118055554
 10
-40.678653971354166
 20
-117.45846354166666
 97
        0
 75
     0
 76
     1
 98
        1
 10
0.0
 20
0.0
  0
POLYLINE
  5
44D
100
AcDbEntity
  8
EBENE_1
 62
     7
100
AcDb2dPolyline
 66
     1
 10
0.0
 20
0.0
 30
0.0
 70
     1
  0
VERTEX
  5
44E
100
AcDbEntity
  8
EBENE_1
 62
     7
100
AcDbVertex
100
AcDb2dVertex
 10
-41.440709
 20
-124.40102
 30
0.0
  0
VERTEX
  5
44F
100
AcDbEntity
  8
EBENE_1
 62
     7
100
AcDbVertex
100
AcDb2dVertex
 10
-40.001348
 20
-124.40102
 30
0.0
  0
VERTEX
  5
450
100
AcDbEntity
  8
EBENE_1
 62
     7
100
AcDbVertex
100
AcDb2dVertex
 10
-40.678654
 20
-119.914128
 30
0.0
  0
SEQEND
  5
451
100
AcDbEntity
  8
EBENE_1
 62
     7
  0
HATCH
  5
44C
100
AcDbEntity
  8
EBENE_1
 62
     7
100
AcDbHatch
 10
0.0
 20
0.0
 30
0.0
210
0.0
220
0.0
230
1.0
  2
SOLID
 70
     1
 71
     0
 91
        1
 92
        3
 72
     0
 73
     1
 93
        3
 10
-41.440709092881939
 20
-124.40101996527777
 10
-40.001348198784719
 20
-124.40101996527777
 10
-40.678653971354166
 20
-119.91412760416665
 97
        0
 75
     0
 76
     1
 98
        1
 10
0.0
 20
0.0
  0
LINE
  5
44B
100
AcDbEntity
  8
EBENE_1
 62
     7
100
AcDbLine
 10
-45.420139
 20
-122.7081
 30
0.0
 11
-45.589465
 21
-122.7081
 31
0.0
  0
LINE
  5
44A
100
AcDbEntity
  8
EBENE_1
 62
     7
100
AcDbLine
 10
-45.589465
 20
-122.7081
 30
0.0
 11
-46.012695
 21
-122.538601
 31
0.0
  0
LINE
  5
449
100
AcDbEntity
  8
EBENE_1
 62
     7
100
AcDbLine
 10
-46.012695
 20
-122.538601
 30
0.0
 11
-46.266771
 21
-122.369103
 31
0.0
  0
LINE
  5
448
100
AcDbEntity
  8
EBENE_1
 62
     7
100
AcDbLine
 10
-46.266771
 20
-122.369103
 30
0.0
 11
-46.436098
 21
-121.946045
 31
0.0
  0
LINE
  5
447
100
AcDbEntity
  8
EBENE_1
 62
     7
100
AcDbLine
 10
-46.436098
 20
-121.946045
 30
0.0
 11
-46.436098
 21
-121.18399
 31
0.0
  0
LINE
  5
446
100
AcDbEntity
  8
EBENE_1
 62
     7
100
AcDbLine
 10
-46.436098
 20
-121.18399
 30
0.0
 11
-46.266771
 21
-120.845681
 31
0.0
  0
LINE
  5
445
100
AcDbEntity
  8
EBENE_1
 62
     7
100
AcDbLine
 10
-46.266771
 20
-120.845681
 30
0.0
 11
-46.012695
 21
-120.591433
 31
0.0
  0
LINE
  5
444
100
AcDbEntity
  8
EBENE_1
 62
     7
100
AcDbLine
 10
-46.012695
 20
-120.591433
 30
0.0
 11
-45.589465
 21
-120.421935
 31
0.0
  0
LINE
  5
443
100
AcDbEntity
  8
EBENE_1
 62
     7
100
AcDbLine
 10
-45.589465
 20
-120.421935
 30
0.0
 11
-45.166063
 21
-120.421935
 31
0.0
  0
LINE
  5
442
100
AcDbEntity
  8
EBENE_1
 62
     7
100
AcDbLine
 10
-45.166063
 20
-120.421935
 30
0.0
 11
-44.742661
 21
-120.591433
 31
0.0
  0
LINE
  5
441
100
AcDbEntity
  8
EBENE_1
 62
     7
100
AcDbLine
 10
-44.742661
 20
-120.591433
 30
0.0
 11
-44.150104
 21
-121.014491
 31
0.0
  0
LINE
  5
440
100
AcDbEntity
  8
EBENE_1
 62
     7
100
AcDbLine
 10
-44.150104
 20
-121.014491
 30
0.0
 11
-42.033438
 21
-122.962348
 31
0.0
  0
LINE
  5
43F
100
AcDbEntity
  8
EBENE_1
 62
     7
100
AcDbLine
 10
-42.033438
 20
-122.962348
 30
0.0
 11
-42.033438
 21
-120.252436
 31
0.0
  0
LINE
  5
43E
100
AcDbEntity
  8
EBENE_1
 62
     7
100
AcDbLine
 10
-42.456668
 20
-118.897824
 30
0.0
 11
-42.202764
 21
-119.067323
 31
0.0
  0
LINE
  5
43D
100
AcDbEntity
  8
EBENE_1
 62
     7
100
AcDbLine
 10
-42.202764
 20
-119.067323
 30
0.0
 11
-42.033438
 21
-118.897824
 31
0.0
  0
LINE
  5
43C
100
AcDbEntity
  8
EBENE_1
 62
     7
100
AcDbLine
 10
-42.033438
 20
-118.897824
 30
0.0
 11
-42.202764
 21
-118.729015
 31
0.0
  0
LINE
  5
43B
100
AcDbEntity
  8
EBENE_1
 62
     7
100
AcDbLine
 10
-46.436098
 20
-114.918739
 30
0.0
 11
-46.436098
 21
-116.781158
 31
0.0
  0
LINE
  5
43A
100
AcDbEntity
  8
EBENE_1
 62
     7
100
AcDbLine
 10
-46.436098
 20
-116.781158
 30
0.0
 11
-44.573334
 21
-116.950656
 31
0.0
  0
LINE
  5
439
100
AcDbEntity
  8
EBENE_1
 62
     7
100
AcDbLine
 10
-44.573334
 20
-116.950656
 30
0.0
 11
-44.742661
 21
-116.781158
 31
0.0
  0
LINE
  5
438
100
AcDbEntity
  8
EBENE_1
 62
     7
100
AcDbLine
 10
-44.742661
 20
-116.781158
 30
0.0
 11
-44.996737
 21
-116.188601
 31
0.0
  0
LINE
  5
437
100
AcDbEntity
  8
EBENE_1
 62
     7
100
AcDbLine
 10
-44.996737
 20
-116.188601
 30
0.0
 11
-44.996737
 21
-115.680794
 31
0.0
  0
LINE
  5
436
100
AcDbEntity
  8
EBENE_1
 62
     7
100
AcDbLine
 10
-44.996737
 20
-115.680794
 30
0.0
 11
-44.742661
 21
-115.088238
 31
0.0
  0
LINE
  5
435
100
AcDbEntity
  8
EBENE_1
 62
     7
100
AcDbLine
 10
-44.742661
 20
-115.088238
 30
0.0
 11
-44.319431
 21
-114.664491
 31
0.0
  0
LINE
  5
434
100
AcDbEntity
  8
EBENE_1
 62
     7
100
AcDbLine
 10
-44.319431
 20
-114.664491
 30
0.0
 11
-43.726702
 21
-114.495681
 31
0.0
  0
LINE
  5
433
100
AcDbEntity
  8
EBENE_1
 62
     7
100
AcDbLine
 10
-43.726702
 20
-114.495681
 30
0.0
 11
-43.303472
 21
-114.495681
 31
0.0
  0
LINE
  5
432
100
AcDbEntity
  8
EBENE_1
 62
     7
100
AcDbLine
 10
-43.303472
 20
-114.495681
 30
0.0
 11
-42.625994
 21
-114.664491
 31
0.0
  0
LINE
  5
431
100
AcDbEntity
  8
EBENE_1
 62
     7
100
AcDbLine
 10
-42.625994
 20
-114.664491
 30
0.0
 11
-42.202764
 21
-115.088238
 31
0.0
  0
LINE
  5
430
100
AcDbEntity
  8
EBENE_1
 62
     7
100
AcDbLine
 10
-42.202764
 20
-115.088238
 30
0.0
 11
-42.033438
 21
-115.680794
 31
0.0
  0
LINE
  5
42F
100
AcDbEntity
  8
EBENE_1
 62
     7
100
AcDbLine
 10
-42.033438
 20
-115.680794
 30
0.0
 11
-42.033438
 21
-116.188601
 31
0.0
  0
LINE
  5
42E
100
AcDbEntity
  8
EBENE_1
 62
     7
100
AcDbLine
 10
-42.033438
 20
-116.188601
 30
0.0
 11
-42.202764
 21
-116.781158
 31
0.0
  0
LINE
  5
42D
100
AcDbEntity
  8
EBENE_1
 62
     7
100
AcDbLine
 10
-42.202764
 20
-116.781158
 30
0.0
 11
-42.456668
 21
-116.950656
 31
0.0
  0
LINE
  5
42C
100
AcDbEntity
  8
EBENE_1
 62
     7
100
AcDbLine
 10
-42.456668
 20
-116.950656
 30
0.0
 11
-42.88007
 21
-117.204905
 31
0.0
  0
LINE
  5
42B
100
AcDbEntity
  8
EBENE_1
 62
     7
100
AcDbLine
 10
-42.88007
 20
-117.204905
 30
0.0
 11
-42.88007
 21
-117.204905
 31
0.0
  0
LINE
  5
42A
100
AcDbEntity
  8
EBENE_1
 62
     7
100
AcDbLine
 10
-30.095321
 20
-121.18399
 30
0.0
 11
-30.095321
 21
-134.730794
 31
0.0
  0
LINE
  5
429
100
AcDbEntity
  8
EBENE_1
 62
     7
100
AcDbLine
 10
-6.558084
 20
-118.729015
 30
0.0
 11
-6.558084
 21
-134.730794
 31
0.0
  0
LINE
  5
428
100
AcDbEntity
  8
EBENE_1
 62
     7
100
AcDbLine
 10
-25.608084
 20
-134.053488
 30
0.0
 11
-11.045321
 21
-134.053488
 31
0.0
  0
POLYLINE
  5
423
100
AcDbEntity
  8
EBENE_1
 62
     7
100
AcDb2dPolyline
 66
     1
 10
0.0
 20
0.0
 30
0.0
 70
     1
  0
VERTEX
  5
424
100
AcDbEntity
  8
EBENE_1
 62
     7
100
AcDbVertex
100
AcDb2dVertex
 10
-25.608084
 20
-133.291433
 30
0.0
  0
VERTEX
  5
425
100
AcDbEntity
  8
EBENE_1
 62
     7
100
AcDbVertex
100
AcDb2dVertex
 10
-25.608084
 20
-134.815544
 30
0.0
  0
VERTEX
  5
426
100
AcDbEntity
  8
EBENE_1
 62
     7
100
AcDbVertex
100
AcDb2dVertex
 10
-30.095321
 20
-134.053488
 30
0.0
  0
SEQEND
  5
427
100
AcDbEntity
  8
EBENE_1
 62
     7
  0
HATCH
  5
422
100
AcDbEntity
  8
EBENE_1
 62
     7
100
AcDbHatch
 10
0.0
 20
0.0
 30
0.0
210
0.0
220
0.0
230
1.0
  2
SOLID
 70
     1
 71
     0
 91
        1
 92
        3
 72
     0
 73
     1
 93
        3
 10
-25.608083767361109
 20
-133.29143337673611
 10
-25.608083767361109
 20
-134.81554361979167
 10
-30.09532063802083
 20
-134.05348849826387
 97
        0
 75
     0
 76
     1
 98
        1
 10
0.0
 20
0.0
  0
POLYLINE
  5
41D
100
AcDbEntity
  8
EBENE_1
 62
     7
100
AcDb2dPolyline
 66
     1
 10
0.0
 20
0.0
 30
0.0
 70
     1
  0
VERTEX
  5
41E
100
AcDbEntity
  8
EBENE_1
 62
     7
100
AcDbVertex
100
AcDb2dVertex
 10
-11.045321
 20
-133.291433
 30
0.0
  0
VERTEX
  5
41F
100
AcDbEntity
  8
EBENE_1
 62
     7
100
AcDbVertex
100
AcDb2dVertex
 10
-11.045321
 20
-134.815544
 30
0.0
  0
VERTEX
  5
420
100
AcDbEntity
  8
EBENE_1
 62
     7
100
AcDbVertex
100
AcDb2dVertex
 10
-6.558084
 20
-134.053488
 30
0.0
  0
SEQEND
  5
421
100
AcDbEntity
  8
EBENE_1
 62
     7
  0
HATCH
  5
41C
100
AcDbEntity
  8
EBENE_1
 62
     7
100
AcDbHatch
 10
0.0
 20
0.0
 30
0.0
210
0.0
220
0.0
230
1.0
  2
SOLID
 70
     1
 71
     0
 91
        1
 92
        3
 72
     0
 73
     1
 93
        3
 10
-11.045320638020833
 20
-133.29143337673611
 10
-11.045320638020833
 20
-134.81554361979167
 10
-6.5580837673611105
 20
-134.05348849826387
 97
        0
 75
     0
 76
     1
 98
        1
 10
0.0
 20
0.0
  0
LINE
  5
41B
100
AcDbEntity
  8
EBENE_1
 62
     7
100
AcDbLine
 10
-21.459328
 20
-129.396408
 30
0.0
 11
-21.459328
 21
-129.142849
 31
0.0
  0
LINE
  5
41A
100
AcDbEntity
  8
EBENE_1
 62
     7
100
AcDbLine
 10
-21.459328
 20
-129.142849
 30
0.0
 11
-21.290001
 21
-128.719103
 31
0.0
  0
LINE
  5
419
100
AcDbEntity
  8
EBENE_1
 62
     7
100
AcDbLine
 10
-21.290001
 20
-128.719103
 30
0.0
 11
-21.120675
 21
-128.550293
 31
0.0
  0
LINE
  5
418
100
AcDbEntity
  8
EBENE_1
 62
     7
100
AcDbLine
 10
-21.120675
 20
-128.550293
 30
0.0
 11
-20.697445
 21
-128.296045
 31
0.0
  0
LINE
  5
417
100
AcDbEntity
  8
EBENE_1
 62
     7
100
AcDbLine
 10
-20.697445
 20
-128.296045
 30
0.0
 11
-19.93539
 21
-128.296045
 31
0.0
  0
LINE
  5
416
100
AcDbEntity
  8
EBENE_1
 62
     7
100
AcDbLine
 10
-19.93539
 20
-128.296045
 30
0.0
 11
-19.596737
 21
-128.550293
 31
0.0
  0
LINE
  5
415
100
AcDbEntity
  8
EBENE_1
 62
     7
100
AcDbLine
 10
-19.596737
 20
-128.550293
 30
0.0
 11
-19.342661
 21
-128.719103
 31
0.0
  0
LINE
  5
414
100
AcDbEntity
  8
EBENE_1
 62
     7
100
AcDbLine
 10
-19.342661
 20
-128.719103
 30
0.0
 11
-19.173334
 21
-129.142849
 31
0.0
  0
LINE
  5
413
100
AcDbEntity
  8
EBENE_1
 62
     7
100
AcDbLine
 10
-19.173334
 20
-129.142849
 30
0.0
 11
-19.173334
 21
-129.565907
 31
0.0
  0
LINE
  5
412
100
AcDbEntity
  8
EBENE_1
 62
     7
100
AcDbLine
 10
-19.173334
 20
-129.565907
 30
0.0
 11
-19.342661
 21
-129.989654
 31
0.0
  0
LINE
  5
411
100
AcDbEntity
  8
EBENE_1
 62
     7
100
AcDbLine
 10
-19.342661
 20
-129.989654
 30
0.0
 11
-19.766063
 21
-130.66696
 31
0.0
  0
LINE
  5
410
100
AcDbEntity
  8
EBENE_1
 62
     7
100
AcDbLine
 10
-19.766063
 20
-130.66696
 30
0.0
 11
-21.713403
 21
-132.783626
 31
0.0
  0
LINE
  5
40F
100
AcDbEntity
  8
EBENE_1
 62
     7
100
AcDbLine
 10
-21.713403
 20
-132.783626
 30
0.0
 11
-19.004008
 21
-132.783626
 31
0.0
  0
LINE
  5
40E
100
AcDbEntity
  8
EBENE_1
 62
     7
100
AcDbLine
 10
-15.956132
 20
-128.296045
 30
0.0
 11
-17.818723
 21
-131.259516
 31
0.0
  0
LINE
  5
40D
100
AcDbEntity
  8
EBENE_1
 62
     7
100
AcDbLine
 10
-17.818723
 20
-131.259516
 30
0.0
 11
-14.940001
 21
-131.259516
 31
0.0
  0
LINE
  5
40C
100
AcDbEntity
  8
EBENE_1
 62
     7
100
AcDbLine
 10
-15.956132
 20
-128.296045
 30
0.0
 11
-15.956132
 21
-132.783626
 31
0.0
  0
LINE
  5
40B
100
AcDbEntity
  8
EBENE_1
 62
     7
100
AcDbLine
 10
-7.743369
 20
-53.704905
 30
0.0
 11
11.052383
 21
-53.704905
 31
0.0
  0
LINE
  5
40A
100
AcDbEntity
  8
EBENE_1
 62
     7
100
AcDbLine
 10
-7.743369
 20
-8.492849
 30
0.0
 11
11.052383
 21
-8.492849
 31
0.0
  0
LINE
  5
409
100
AcDbEntity
  8
EBENE_1
 62
     7
100
AcDbLine
 10
10.375077
 20
-49.217323
 30
0.0
 11
10.375077
 21
-12.979742
 31
0.0
  0
POLYLINE
  5
404
100
AcDbEntity
  8
EBENE_1
 62
     7
100
AcDb2dPolyline
 66
     1
 10
0.0
 20
0.0
 30
0.0
 70
     1
  0
VERTEX
  5
405
100
AcDbEntity
  8
EBENE_1
 62
     7
100
AcDbVertex
100
AcDb2dVertex
 10
9.613022
 20
-49.217323
 30
0.0
  0
VERTEX
  5
406
100
AcDbEntity
  8
EBENE_1
 62
     7
100
AcDbVertex
100
AcDb2dVertex
 10
11.137132
 20
-49.217323
 30
0.0
  0
VERTEX
  5
407
100
AcDbEntity
  8
EBENE_1
 62
     7
100
AcDbVertex
100
AcDb2dVertex
 10
10.375077
 20
-53.704905
 30
0.0
  0
SEQEND
  5
408
100
AcDbEntity
  8
EBENE_1
 62
     7
  0
HATCH
  5
403
100
AcDbEntity
  8
EBENE_1
 62
     7
100
AcDbHatch
 10
0.0
 20
0.0
 30
0.0
210
0.0
220
0.0
230
1.0
  2
SOLID
 70
     1
 71
     0
 91
        1
 92
        3
 72
     0
 73
     1
 93
        3
 10
9.6130221896701382
 20
-49.217323133680551
 10
11.137132432725693
 20
-49.217323133680551
 10
10.375077311197916
 20
-53.704904513888884
 97
        0
 75
     0
 76
     1
 98
        1
 10
0.0
 20
0.0
  0
POLYLINE
  5
3FE
100
AcDbEntity
  8
EBENE_1
 62
     7
100
AcDb2dPolyline
 66
     1
 10
0.0
 20
0.0
 30
0.0
 70
     1
  0
VERTEX
  5
3FF
100
AcDbEntity
  8
EBENE_1
 62
     7
100
AcDbVertex
100
AcDb2dVertex
 10
9.613022
 20
-12.979742
 30
0.0
  0
VERTEX
  5
400
100
AcDbEntity
  8
EBENE_1
 62
     7
100
AcDbVertex
100
AcDb2dVertex
 10
11.137132
 20
-12.979742
 30
0.0
  0
VERTEX
  5
401
100
AcDbEntity
  8
EBENE_1
 62
     7
100
AcDbVertex
100
AcDb2dVertex
 10
10.375077
 20
-8.492849
 30
0.0
  0
SEQEND
  5
402
100
AcDbEntity
  8
EBENE_1
 62
     7
  0
HATCH
  5
3FD
100
AcDbEntity
  8
EBENE_1
 62
     7
100
AcDbHatch
 10
0.0
 20
0.0
 30
0.0
210
0.0
220
0.0
230
1.0
  2
SOLID
 70
     1
 71
     0
 91
        1
 92
        3
 72
     0
 73
     1
 93
        3
 10
9.6130221896701382
 20
-12.97974175347222
 10
11.137132432725693
 20
-12.97974175347222
 10
10.375077311197916
 20
-8.4928493923611104
 97
        0
 75
     0
 76
     1
 98
        1
 10
0.0
 20
0.0
  0
LINE
  5
3FC
100
AcDbEntity
  8
EBENE_1
 62
     7
100
AcDbLine
 10
4.617978
 20
-32.368739
 30
0.0
 11
7.581105
 21
-34.315907
 31
0.0
  0
LINE
  5
3FB
100
AcDbEntity
  8
EBENE_1
 62
     7
100
AcDbLine
 10
7.581105
 20
-34.315907
 30
0.0
 11
7.581105
 21
-31.437185
 31
0.0
  0
LINE
  5
3FA
100
AcDbEntity
  8
EBENE_1
 62
     7
100
AcDbLine
 10
4.617978
 20
-32.368739
 30
0.0
 11
9.105215
 21
-32.368739
 31
0.0
  0
LINE
  5
3F9
100
AcDbEntity
  8
EBENE_1
 62
     7
100
AcDbLine
 10
5.295284
 20
-28.135406
 30
0.0
 11
4.871882
 21
-28.304905
 31
0.0
  0
LINE
  5
3F8
100
AcDbEntity
  8
EBENE_1
 62
     7
100
AcDbLine
 10
4.871882
 20
-28.304905
 30
0.0
 11
4.617978
 21
-28.897461
 31
0.0
  0
LINE
  5
3F7
100
AcDbEntity
  8
EBENE_1
 62
     7
100
AcDbLine
 10
4.617978
 20
-28.897461
 30
0.0
 11
4.617978
 21
-29.320519
 31
0.0
  0
LINE
  5
3F6
100
AcDbEntity
  8
EBENE_1
 62
     7
100
AcDbLine
 10
4.617978
 20
-29.320519
 30
0.0
 11
4.871882
 21
-29.913075
 31
0.0
  0
LINE
  5
3F5
100
AcDbEntity
  8
EBENE_1
 62
     7
100
AcDbLine
 10
4.871882
 20
-29.913075
 30
0.0
 11
5.464438
 21
-30.252072
 31
0.0
  0
LINE
  5
3F4
100
AcDbEntity
  8
EBENE_1
 62
     7
100
AcDbLine
 10
5.464438
 20
-30.252072
 30
0.0
 11
6.565491
 21
-30.421571
 31
0.0
  0
LINE
  5
3F3
100
AcDbEntity
  8
EBENE_1
 62
     7
100
AcDbLine
 10
6.565491
 20
-30.421571
 30
0.0
 11
7.581105
 21
-30.421571
 31
0.0
  0
LINE
  5
3F2
100
AcDbEntity
  8
EBENE_1
 62
     7
100
AcDbLine
 10
7.581105
 20
-30.421571
 30
0.0
 11
8.427909
 21
-30.252072
 31
0.0
  0
LINE
  5
3F1
100
AcDbEntity
  8
EBENE_1
 62
     7
100
AcDbLine
 10
8.427909
 20
-30.252072
 30
0.0
 11
8.851312
 21
-29.913075
 31
0.0
  0
LINE
  5
3F0
100
AcDbEntity
  8
EBENE_1
 62
     7
100
AcDbLine
 10
8.851312
 20
-29.913075
 30
0.0
 11
9.105215
 21
-29.320519
 31
0.0
  0
LINE
  5
3EF
100
AcDbEntity
  8
EBENE_1
 62
     7
100
AcDbLine
 10
9.105215
 20
-29.320519
 30
0.0
 11
9.105215
 21
-29.15102
 31
0.0
  0
LINE
  5
3EE
100
AcDbEntity
  8
EBENE_1
 62
     7
100
AcDbLine
 10
9.105215
 20
-29.15102
 30
0.0
 11
8.851312
 21
-28.558464
 31
0.0
  0
LINE
  5
3ED
100
AcDbEntity
  8
EBENE_1
 62
     7
100
AcDbLine
 10
8.851312
 20
-28.558464
 30
0.0
 11
8.427909
 21
-28.135406
 31
0.0
  0
LINE
  5
3EC
100
AcDbEntity
  8
EBENE_1
 62
     7
100
AcDbLine
 10
8.427909
 20
-28.135406
 30
0.0
 11
7.835353
 21
-27.965907
 31
0.0
  0
LINE
  5
3EB
100
AcDbEntity
  8
EBENE_1
 62
     7
100
AcDbLine
 10
7.835353
 20
-27.965907
 30
0.0
 11
7.581105
 21
-27.965907
 31
0.0
  0
LINE
  5
3EA
100
AcDbEntity
  8
EBENE_1
 62
     7
100
AcDbLine
 10
7.581105
 20
-27.965907
 30
0.0
 11
6.988548
 21
-28.135406
 31
0.0
  0
LINE
  5
3E9
100
AcDbEntity
  8
EBENE_1
 62
     7
100
AcDbLine
 10
6.988548
 20
-28.135406
 30
0.0
 11
6.565491
 21
-28.558464
 31
0.0
  0
LINE
  5
3E8
100
AcDbEntity
  8
EBENE_1
 62
     7
100
AcDbLine
 10
6.565491
 20
-28.558464
 30
0.0
 11
6.311243
 21
-29.15102
 31
0.0
  0
LINE
  5
3E7
100
AcDbEntity
  8
EBENE_1
 62
     7
100
AcDbLine
 10
6.311243
 20
-29.15102
 30
0.0
 11
6.311243
 21
-29.320519
 31
0.0
  0
LINE
  5
3E6
100
AcDbEntity
  8
EBENE_1
 62
     7
100
AcDbLine
 10
6.311243
 20
-29.320519
 30
0.0
 11
6.565491
 21
-29.913075
 31
0.0
  0
LINE
  5
3E5
100
AcDbEntity
  8
EBENE_1
 62
     7
100
AcDbLine
 10
6.565491
 20
-29.913075
 30
0.0
 11
6.988548
 21
-30.252072
 31
0.0
  0
LINE
  5
3E4
100
AcDbEntity
  8
EBENE_1
 62
     7
100
AcDbLine
 10
6.988548
 20
-30.252072
 30
0.0
 11
7.581105
 21
-30.421571
 31
0.0
  0
LINE
  5
3E3
100
AcDbEntity
  8
EBENE_1
 62
     7
100
AcDbLine
 10
7.581105
 20
-30.421571
 30
0.0
 11
7.581105
 21
-30.421571
 31
0.0
  0
LINE
  5
3E2
100
AcDbEntity
  8
EBENE_1
 62
     7
100
AcDbLine
 10
-29.418015
 20
-64.541797
 30
0.0
 11
-41.356132
 21
-64.541797
 31
0.0
  0
LINE
  5
3E1
100
AcDbEntity
  8
EBENE_1
 62
     7
100
AcDbLine
 10
-29.418015
 20
15.04456
 30
0.0
 11
-41.356132
 21
15.04456
 31
0.0
  0
LINE
  5
3E0
100
AcDbEntity
  8
EBENE_1
 62
     7
100
AcDbLine
 10
-40.678654
 20
-60.054905
 30
0.0
 11
-40.678654
 21
10.557323
 31
0.0
  0
POLYLINE
  5
3DB
100
AcDbEntity
  8
EBENE_1
 62
     7
100
AcDb2dPolyline
 66
     1
 10
0.0
 20
0.0
 30
0.0
 70
     1
  0
VERTEX
  5
3DC
100
AcDbEntity
  8
EBENE_1
 62
     7
100
AcDbVertex
100
AcDb2dVertex
 10
-41.440709
 20
-60.054905
 30
0.0
  0
VERTEX
  5
3DD
100
AcDbEntity
  8
EBENE_1
 62
     7
100
AcDbVertex
100
AcDb2dVertex
 10
-40.001348
 20
-60.054905
 30
0.0
  0
VERTEX
  5
3DE
100
AcDbEntity
  8
EBENE_1
 62
     7
100
AcDbVertex
100
AcDb2dVertex
 10
-40.678654
 20
-64.541797
 30
0.0
  0
SEQEND
  5
3DF
100
AcDbEntity
  8
EBENE_1
 62
     7
  0
HATCH
  5
3DA
100
AcDbEntity
  8
EBENE_1
 62
     7
100
AcDbHatch
 10
0.0
 20
0.0
 30
0.0
210
0.0
220
0.0
230
1.0
  2
SOLID
 70
     1
 71
     0
 91
        1
 92
        3
 72
     0
 73
     1
 93
        3
 10
-41.440709092881939
 20
-60.054904513888886
 10
-40.001348198784719
 20
-60.054904513888886
 10
-40.678653971354166
 20
-64.541796874999989
 97
        0
 75
     0
 76
     1
 98
        1
 10
0.0
 20
0.0
  0
POLYLINE
  5
3D5
100
AcDbEntity
  8
EBENE_1
 62
     7
100
AcDb2dPolyline
 66
     1
 10
0.0
 20
0.0
 30
0.0
 70
     1
  0
VERTEX
  5
3D6
100
AcDbEntity
  8
EBENE_1
 62
     7
100
AcDbVertex
100
AcDb2dVertex
 10
-41.440709
 20
10.557323
 30
0.0
  0
VERTEX
  5
3D7
100
AcDbEntity
  8
EBENE_1
 62
     7
100
AcDbVertex
100
AcDb2dVertex
 10
-40.001348
 20
10.557323
 30
0.0
  0
VERTEX
  5
3D8
100
AcDbEntity
  8
EBENE_1
 62
     7
100
AcDbVertex
100
AcDb2dVertex
 10
-40.678654
 20
15.04456
 30
0.0
  0
SEQEND
  5
3D9
100
AcDbEntity
  8
EBENE_1
 62
     7
  0
HATCH
  5
3D4
100
AcDbEntity
  8
EBENE_1
 62
     7
100
AcDbHatch
 10
0.0
 20
0.0
 30
0.0
210
0.0
220
0.0
230
1.0
  2
SOLID
 70
     1
 71
     0
 91
        1
 92
        3
 72
     0
 73
     1
 93
        3
 10
-41.440709092881939
 20
10.557322862413194
 10
-40.001348198784719
 20
10.557322862413194
 10
-40.678653971354166
 20
15.044559733072916
 97
        0
 75
     0
 76
     1
 98
        1
 10
0.0
 20
0.0
  0
LINE
  5
3D3
100
AcDbEntity
  8
EBENE_1
 62
     7
100
AcDbLine
 10
-46.436098
 20
-26.188238
 30
0.0
 11
-46.266771
 21
-26.780794
 31
0.0
  0
LINE
  5
3D2
100
AcDbEntity
  8
EBENE_1
 62
     7
100
AcDbLine
 10
-46.266771
 20
-26.780794
 30
0.0
 11
-45.843369
 21
-26.950293
 31
0.0
  0
LINE
  5
3D1
100
AcDbEntity
  8
EBENE_1
 62
     7
100
AcDbLine
 10
-45.843369
 20
-26.950293
 30
0.0
 11
-45.420139
 21
-26.950293
 31
0.0
  0
LINE
  5
3D0
100
AcDbEntity
  8
EBENE_1
 62
     7
100
AcDbLine
 10
-45.420139
 20
-26.950293
 30
0.0
 11
-44.996737
 21
-26.780794
 31
0.0
  0
LINE
  5
3CF
100
AcDbEntity
  8
EBENE_1
 62
     7
100
AcDbLine
 10
-44.996737
 20
-26.780794
 30
0.0
 11
-44.742661
 21
-26.357048
 31
0.0
  0
LINE
  5
3CE
100
AcDbEntity
  8
EBENE_1
 62
     7
100
AcDbLine
 10
-44.742661
 20
-26.357048
 30
0.0
 11
-44.573334
 21
-25.595681
 31
0.0
  0
LINE
  5
3CD
100
AcDbEntity
  8
EBENE_1
 62
     7
100
AcDbLine
 10
-44.573334
 20
-25.595681
 30
0.0
 11
-44.319431
 21
-25.002436
 31
0.0
  0
LINE
  5
3CC
100
AcDbEntity
  8
EBENE_1
 62
     7
100
AcDbLine
 10
-44.319431
 20
-25.002436
 30
0.0
 11
-43.896029
 21
-24.664128
 31
0.0
  0
LINE
  5
3CB
100
AcDbEntity
  8
EBENE_1
 62
     7
100
AcDbLine
 10
-43.896029
 20
-24.664128
 30
0.0
 11
-43.472799
 21
-24.40988
 31
0.0
  0
LINE
  5
3CA
100
AcDbEntity
  8
EBENE_1
 62
     7
100
AcDbLine
 10
-43.472799
 20
-24.40988
 30
0.0
 11
-42.88007
 21
-24.40988
 31
0.0
  0
LINE
  5
3C9
100
AcDbEntity
  8
EBENE_1
 62
     7
100
AcDbLine
 10
-42.88007
 20
-24.40988
 30
0.0
 11
-42.456668
 21
-24.664128
 31
0.0
  0
LINE
  5
3C8
100
AcDbEntity
  8
EBENE_1
 62
     7
100
AcDbLine
 10
-42.456668
 20
-24.664128
 30
0.0
 11
-42.202764
 21
-24.833626
 31
0.0
  0
LINE
  5
3C7
100
AcDbEntity
  8
EBENE_1
 62
     7
100
AcDbLine
 10
-42.202764
 20
-24.833626
 30
0.0
 11
-42.033438
 21
-25.426183
 31
0.0
  0
LINE
  5
3C6
100
AcDbEntity
  8
EBENE_1
 62
     7
100
AcDbLine
 10
-42.033438
 20
-25.426183
 30
0.0
 11
-42.033438
 21
-26.188238
 31
0.0
  0
LINE
  5
3C5
100
AcDbEntity
  8
EBENE_1
 62
     7
100
AcDbLine
 10
-42.033438
 20
-26.188238
 30
0.0
 11
-42.202764
 21
-26.780794
 31
0.0
  0
LINE
  5
3C4
100
AcDbEntity
  8
EBENE_1
 62
     7
100
AcDbLine
 10
-42.202764
 20
-26.780794
 30
0.0
 11
-42.456668
 21
-26.950293
 31
0.0
  0
LINE
  5
3C3
100
AcDbEntity
  8
EBENE_1
 62
     7
100
AcDbLine
 10
-42.456668
 20
-26.950293
 30
0.0
 11
-42.88007
 21
-27.119103
 31
0.0
  0
LINE
  5
3C2
100
AcDbEntity
  8
EBENE_1
 62
     7
100
AcDbLine
 10
-42.88007
 20
-27.119103
 30
0.0
 11
-43.472799
 21
-27.119103
 31
0.0
  0
LINE
  5
3C1
100
AcDbEntity
  8
EBENE_1
 62
     7
100
AcDbLine
 10
-43.472799
 20
-27.119103
 30
0.0
 11
-43.896029
 21
-26.950293
 31
0.0
  0
LINE
  5
3C0
100
AcDbEntity
  8
EBENE_1
 62
     7
100
AcDbLine
 10
-43.896029
 20
-26.950293
 30
0.0
 11
-44.319431
 21
-26.526546
 31
0.0
  0
LINE
  5
3BF
100
AcDbEntity
  8
EBENE_1
 62
     7
100
AcDbLine
 10
-44.319431
 20
-26.526546
 30
0.0
 11
-44.573334
 21
-26.018739
 31
0.0
  0
LINE
  5
3BE
100
AcDbEntity
  8
EBENE_1
 62
     7
100
AcDbLine
 10
-44.573334
 20
-26.018739
 30
0.0
 11
-44.742661
 21
-25.171935
 31
0.0
  0
LINE
  5
3BD
100
AcDbEntity
  8
EBENE_1
 62
     7
100
AcDbLine
 10
-44.742661
 20
-25.171935
 30
0.0
 11
-44.996737
 21
-24.833626
 31
0.0
  0
LINE
  5
3BC
100
AcDbEntity
  8
EBENE_1
 62
     7
100
AcDbLine
 10
-44.996737
 20
-24.833626
 30
0.0
 11
-45.420139
 21
-24.664128
 31
0.0
  0
LINE
  5
3BB
100
AcDbEntity
  8
EBENE_1
 62
     7
100
AcDbLine
 10
-45.420139
 20
-24.664128
 30
0.0
 11
-45.843369
 21
-24.664128
 31
0.0
  0
LINE
  5
3BA
100
AcDbEntity
  8
EBENE_1
 62
     7
100
AcDbLine
 10
-45.843369
 20
-24.664128
 30
0.0
 11
-46.266771
 21
-24.833626
 31
0.0
  0
LINE
  5
3B9
100
AcDbEntity
  8
EBENE_1
 62
     7
100
AcDbLine
 10
-46.266771
 20
-24.833626
 30
0.0
 11
-46.436098
 21
-25.426183
 31
0.0
  0
LINE
  5
3B8
100
AcDbEntity
  8
EBENE_1
 62
     7
100
AcDbLine
 10
-46.436098
 20
-25.426183
 30
0.0
 11
-46.436098
 21
-26.188238
 31
0.0
  0
LINE
  5
3B7
100
AcDbEntity
  8
EBENE_1
 62
     7
100
AcDbLine
 10
-45.589465
 20
-23.309516
 30
0.0
 11
-45.843369
 21
-22.885769
 31
0.0
  0
LINE
  5
3B6
100
AcDbEntity
  8
EBENE_1
 62
     7
100
AcDbLine
 10
-45.843369
 20
-22.885769
 30
0.0
 11
-46.436098
 21
-22.377962
 31
0.0
  0
LINE
  5
3B5
100
AcDbEntity
  8
EBENE_1
 62
     7
100
AcDbLine
 10
-46.436098
 20
-22.377962
 30
0.0
 11
-42.033438
 21
-22.377962
 31
0.0
  0
LINE
  5
3B4
100
AcDbEntity
  8
EBENE_1
 62
     7
100
AcDbLine
 10
-9.013403
 20
-8.492849
 30
0.0
 11
-9.013403
 21
-53.704905
 31
0.0
  0
LINE
  5
3B3
100
AcDbEntity
  8
EBENE_1
 62
     7
100
AcDbLine
 10
-20.782022
 20
-8.492849
 30
0.0
 11
-20.782022
 21
-53.704905
 31
0.0
  0
LINE
  5
3B2
100
AcDbEntity
  8
EBENE_1
 62
     7
100
AcDbLine
 10
-22.221383
 20
-71.738601
 30
0.0
 11
-22.221383
 21
-87.486822
 31
0.0
  0
LINE
  5
3B1
100
AcDbEntity
  8
EBENE_1
 62
     7
100
AcDbLine
 10
-30.095321
 20
-76.64924
 30
0.0
 11
-30.095321
 21
-87.486822
 31
0.0
  0
LINE
  5
3B0
100
AcDbEntity
  8
EBENE_1
 62
     7
100
AcDbLine
 10
-17.818723
 20
-86.894265
 30
0.0
 11
-13.331486
 21
-86.894265
 31
0.0
  0
LINE
  5
3AF
100
AcDbEntity
  8
EBENE_1
 62
     7
100
AcDbLine
 10
-34.58273
 20
-86.894265
 30
0.0
 11
-39.070139
 21
-86.894265
 31
0.0
  0
LINE
  5
3AE
100
AcDbEntity
  8
EBENE_1
 62
     7
100
AcDbLine
 10
-22.221383
 20
-86.894265
 30
0.0
 11
-30.095321
 21
-86.894265
 31
0.0
  0
POLYLINE
  5
3A9
100
AcDbEntity
  8
EBENE_1
 62
     7
100
AcDb2dPolyline
 66
     1
 10
0.0
 20
0.0
 30
0.0
 70
     1
  0
VERTEX
  5
3AA
100
AcDbEntity
  8
EBENE_1
 62
     7
100
AcDbVertex
100
AcDb2dVertex
 10
-17.818723
 20
-86.13221
 30
0.0
  0
VERTEX
  5
3AB
100
AcDbEntity
  8
EBENE_1
 62
     7
100
AcDbVertex
100
AcDb2dVertex
 10
-17.818723
 20
-87.656321
 30
0.0
  0
VERTEX
  5
3AC
100
AcDbEntity
  8
EBENE_1
 62
     7
100
AcDbVertex
100
AcDb2dVertex
 10
-22.221383
 20
-86.894265
 30
0.0
  0
SEQEND
  5
3AD
100
AcDbEntity
  8
EBENE_1
 62
     7
  0
HATCH
  5
3A8
100
AcDbEntity
  8
EBENE_1
 62
     7
100
AcDbHatch
 10
0.0
 20
0.0
 30
0.0
210
0.0
220
0.0
230
1.0
  2
SOLID
 70
     1
 71
     0
 91
        1
 92
        3
 72
     0
 73
     1
 93
        3
 10
-17.818722873263887
 20
-86.132210286458331
 10
-17.818722873263887
 20
-87.656320529513877
 10
-22.221382649739581
 20
-86.894265407986097
 97
        0
 75
     0
 76
     1
 98
        1
 10
0.0
 20
0.0
  0
POLYLINE
  5
3A3
100
AcDbEntity
  8
EBENE_1
 62
     7
100
AcDb2dPolyline
 66
     1
 10
0.0
 20
0.0
 30
0.0
 70
     1
  0
VERTEX
  5
3A4
100
AcDbEntity
  8
EBENE_1
 62
     7
100
AcDbVertex
100
AcDb2dVertex
 10
-34.58273
 20
-86.13221
 30
0.0
  0
VERTEX
  5
3A5
100
AcDbEntity
  8
EBENE_1
 62
     7
100
AcDbVertex
100
AcDb2dVertex
 10
-34.58273
 20
-87.656321
 30
0.0
  0
VERTEX
  5
3A6
100
AcDbEntity
  8
EBENE_1
 62
     7
100
AcDbVertex
100
AcDb2dVertex
 10
-30.095321
 20
-86.894265
 30
0.0
  0
SEQEND
  5
3A7
100
AcDbEntity
  8
EBENE_1
 62
     7
  0
HATCH
  5
3A2
100
AcDbEntity
  8
EBENE_1
 62
     7
100
AcDbHatch
 10
0.0
 20
0.0
 30
0.0
210
0.0
220
0.0
230
1.0
  2
SOLID
 70
     1
 71
     0
 91
        1
 92
        3
 72
     0
 73
     1
 93
        3
 10
-34.582729763454857
 20
-86.132210286458331
 10
-34.582729763454857
 20
-87.656320529513877
 10
-30.09532063802083
 20
-86.894265407986097
 97
        0
 75
     0
 76
     1
 98
        1
 10
0.0
 20
0.0
  0
LINE
  5
3A1
100
AcDbEntity
  8
EBENE_1
 62
     7
100
AcDbLine
 10
-26.539465
 20
-81.136822
 30
0.0
 11
-27.132022
 21
-81.306321
 31
0.0
  0
LINE
  5
3A0
100
AcDbEntity
  8
EBENE_1
 62
     7
100
AcDbLine
 10
-27.132022
 20
-81.306321
 30
0.0
 11
-27.301348
 21
-81.729378
 31
0.0
  0
LINE
  5
39F
100
AcDbEntity
  8
EBENE_1
 62
     7
100
AcDbLine
 10
-27.301348
 20
-81.729378
 30
0.0
 11
-27.301348
 21
-82.152436
 31
0.0
  0
LINE
  5
39E
100
AcDbEntity
  8
EBENE_1
 62
     7
100
AcDbLine
 10
-27.301348
 20
-82.152436
 30
0.0
 11
-27.132022
 21
-82.660932
 31
0.0
  0
LINE
  5
39D
100
AcDbEntity
  8
EBENE_1
 62
     7
100
AcDbLine
 10
-27.132022
 20
-82.660932
 30
0.0
 11
-26.793369
 21
-82.829742
 31
0.0
  0
LINE
  5
39C
100
AcDbEntity
  8
EBENE_1
 62
     7
100
AcDbLine
 10
-26.793369
 20
-82.829742
 30
0.0
 11
-26.031486
 21
-83.08399
 31
0.0
  0
LINE
  5
39B
100
AcDbEntity
  8
EBENE_1
 62
     7
100
AcDbLine
 10
-26.031486
 20
-83.08399
 30
0.0
 11
-25.438757
 21
-83.253488
 31
0.0
  0
LINE
  5
39A
100
AcDbEntity
  8
EBENE_1
 62
     7
100
AcDbLine
 10
-25.438757
 20
-83.253488
 30
0.0
 11
-25.015355
 21
-83.676546
 31
0.0
  0
LINE
  5
399
100
AcDbEntity
  8
EBENE_1
 62
     7
100
AcDbLine
 10
-25.015355
 20
-83.676546
 30
0.0
 11
-24.846029
 21
-84.100293
 31
0.0
  0
LINE
  5
398
100
AcDbEntity
  8
EBENE_1
 62
     7
100
AcDbLine
 10
-24.846029
 20
-84.100293
 30
0.0
 11
-24.846029
 21
-84.777599
 31
0.0
  0
LINE
  5
397
100
AcDbEntity
  8
EBENE_1
 62
     7
100
AcDbLine
 10
-24.846029
 20
-84.777599
 30
0.0
 11
-25.015355
 21
-85.200656
 31
0.0
  0
LINE
  5
396
100
AcDbEntity
  8
EBENE_1
 62
     7
100
AcDbLine
 10
-25.015355
 20
-85.200656
 30
0.0
 11
-25.269431
 21
-85.370155
 31
0.0
  0
LINE
  5
395
100
AcDbEntity
  8
EBENE_1
 62
     7
100
AcDbLine
 10
-25.269431
 20
-85.370155
 30
0.0
 11
-25.77741
 21
-85.623714
 31
0.0
  0
LINE
  5
394
100
AcDbEntity
  8
EBENE_1
 62
     7
100
AcDbLine
 10
-25.77741
 20
-85.623714
 30
0.0
 11
-26.539465
 21
-85.623714
 31
0.0
  0
LINE
  5
393
100
AcDbEntity
  8
EBENE_1
 62
     7
100
AcDbLine
 10
-26.539465
 20
-85.623714
 30
0.0
 11
-27.132022
 21
-85.370155
 31
0.0
  0
LINE
  5
392
100
AcDbEntity
  8
EBENE_1
 62
     7
100
AcDbLine
 10
-27.132022
 20
-85.370155
 30
0.0
 11
-27.301348
 21
-85.200656
 31
0.0
  0
LINE
  5
391
100
AcDbEntity
  8
EBENE_1
 62
     7
100
AcDbLine
 10
-27.301348
 20
-85.200656
 30
0.0
 11
-27.555424
 21
-84.777599
 31
0.0
  0
LINE
  5
390
100
AcDbEntity
  8
EBENE_1
 62
     7
100
AcDbLine
 10
-27.555424
 20
-84.777599
 30
0.0
 11
-27.555424
 21
-84.100293
 31
0.0
  0
LINE
  5
38F
100
AcDbEntity
  8
EBENE_1
 62
     7
100
AcDbLine
 10
-27.555424
 20
-84.100293
 30
0.0
 11
-27.301348
 21
-83.676546
 31
0.0
  0
LINE
  5
38E
100
AcDbEntity
  8
EBENE_1
 62
     7
100
AcDbLine
 10
-27.301348
 20
-83.676546
 30
0.0
 11
-26.962695
 21
-83.253488
 31
0.0
  0
LINE
  5
38D
100
AcDbEntity
  8
EBENE_1
 62
     7
100
AcDbLine
 10
-26.962695
 20
-83.253488
 30
0.0
 11
-26.370139
 21
-83.08399
 31
0.0
  0
LINE
  5
38C
100
AcDbEntity
  8
EBENE_1
 62
     7
100
AcDbLine
 10
-26.370139
 20
-83.08399
 30
0.0
 11
-25.608084
 21
-82.829742
 31
0.0
  0
LINE
  5
38B
100
AcDbEntity
  8
EBENE_1
 62
     7
100
AcDbLine
 10
-25.608084
 20
-82.829742
 30
0.0
 11
-25.269431
 21
-82.660932
 31
0.0
  0
LINE
  5
38A
100
AcDbEntity
  8
EBENE_1
 62
     7
100
AcDbLine
 10
-25.269431
 20
-82.660932
 30
0.0
 11
-25.015355
 21
-82.152436
 31
0.0
  0
LINE
  5
389
100
AcDbEntity
  8
EBENE_1
 62
     7
100
AcDbLine
 10
-25.015355
 20
-82.152436
 30
0.0
 11
-25.015355
 21
-81.729378
 31
0.0
  0
LINE
  5
388
100
AcDbEntity
  8
EBENE_1
 62
     7
100
AcDbLine
 10
-25.015355
 20
-81.729378
 30
0.0
 11
-25.269431
 21
-81.306321
 31
0.0
  0
LINE
  5
387
100
AcDbEntity
  8
EBENE_1
 62
     7
100
AcDbLine
 10
-25.269431
 20
-81.306321
 30
0.0
 11
-25.77741
 21
-81.136822
 31
0.0
  0
LINE
  5
386
100
AcDbEntity
  8
EBENE_1
 62
     7
100
AcDbLine
 10
-25.77741
 20
-81.136822
 30
0.0
 11
-26.539465
 21
-81.136822
 31
0.0
  0
LINE
  5
385
100
AcDbEntity
  8
EBENE_1
 62
     7
100
AcDbLine
 10
-22.898688
 20
-118.135769
 30
0.0
 11
-18.665355
 21
-118.135769
 31
0.0
  0
LINE
  5
384
100
AcDbEntity
  8
EBENE_1
 62
     7
100
AcDbLine
 10
-30.095321
 20
-119.914128
 30
0.0
 11
-9.013403
 21
-119.914128
 31
0.0
  0
LINE
  5
383
100
AcDbEntity
  8
EBENE_1
 62
     7
100
AcDbLine
 10
-30.095321
 20
-117.458464
 30
0.0
 11
-9.013403
 21
-117.458464
 31
0.0
  0
LINE
  5
382
100
AcDbEntity
  8
EBENE_1
 62
     7
100
AcDbLine
 10
-26.708792
 20
-117.458464
 30
0.0
 11
-26.708792
 21
-119.914128
 31
0.0
  0
LINE
  5
381
100
AcDbEntity
  8
EBENE_1
 62
     7
100
AcDbLine
 10
-22.898688
 20
-118.135769
 30
0.0
 11
-24.676702
 21
-119.914128
 31
0.0
  0
LINE
  5
380
100
AcDbEntity
  8
EBENE_1
 62
     7
100
AcDbLine
 10
-22.898688
 20
-118.135769
 30
0.0
 11
-22.898688
 21
-117.458464
 31
0.0
  0
LINE
  5
37F
100
AcDbEntity
  8
EBENE_1
 62
     7
100
AcDbLine
 10
-30.095321
 20
-119.914128
 30
0.0
 11
-30.095321
 21
-117.458464
 31
0.0
  0
LINE
  5
37E
100
AcDbEntity
  8
EBENE_1
 62
     7
100
AcDbLine
 10
-5.288049
 20
-106.197824
 30
0.0
 11
11.052383
 21
-106.197824
 31
0.0
  0
LINE
  5
37D
100
AcDbEntity
  8
EBENE_1
 62
     7
100
AcDbLine
 10
-7.743369
 20
-119.914128
 30
0.0
 11
11.052383
 21
-119.914128
 31
0.0
  0
LINE
  5
37C
100
AcDbEntity
  8
EBENE_1
 62
     7
100
AcDbLine
 10
10.375077
 20
-110.685406
 30
0.0
 11
10.375077
 21
-115.426546
 31
0.0
  0
POLYLINE
  5
377
100
AcDbEntity
  8
EBENE_1
 62
     7
100
AcDb2dPolyline
 66
     1
 10
0.0
 20
0.0
 30
0.0
 70
     1
  0
VERTEX
  5
378
100
AcDbEntity
  8
EBENE_1
 62
     7
100
AcDbVertex
100
AcDb2dVertex
 10
9.613022
 20
-110.685406
 30
0.0
  0
VERTEX
  5
379
100
AcDbEntity
  8
EBENE_1
 62
     7
100
AcDbVertex
100
AcDb2dVertex
 10
11.137132
 20
-110.685406
 30
0.0
  0
VERTEX
  5
37A
100
AcDbEntity
  8
EBENE_1
 62
     7
100
AcDbVertex
100
AcDb2dVertex
 10
10.375077
 20
-106.197824
 30
0.0
  0
SEQEND
  5
37B
100
AcDbEntity
  8
EBENE_1
 62
     7
  0
HATCH
  5
376
100
AcDbEntity
  8
EBENE_1
 62
     7
100
AcDbHatch
 10
0.0
 20
0.0
 30
0.0
210
0.0
220
0.0
230
1.0
  2
SOLID
 70
     1
 71
     0
 91
        1
 92
        3
 72
     0
 73
     1
 93
        3
 10
9.6130221896701382
 20
-110.68540581597222
 10
11.137132432725693
 20
-110.68540581597222
 10
10.375077311197916
 20
-106.19782443576388
 97
        0
 75
     0
 76
     1
 98
        1
 10
0.0
 20
0.0
  0
POLYLINE
  5
371
100
AcDbEntity
  8
EBENE_1
 62
     7
100
AcDb2dPolyline
 66
     1
 10
0.0
 20
0.0
 30
0.0
 70
     1
  0
VERTEX
  5
372
100
AcDbEntity
  8
EBENE_1
 62
     7
100
AcDbVertex
100
AcDb2dVertex
 10
9.613022
 20
-115.426546
 30
0.0
  0
VERTEX
  5
373
100
AcDbEntity
  8
EBENE_1
 62
     7
100
AcDbVertex
100
AcDb2dVertex
 10
11.137132
 20
-115.426546
 30
0.0
  0
VERTEX
  5
374
100
AcDbEntity
  8
EBENE_1
 62
     7
100
AcDbVertex
100
AcDb2dVertex
 10
10.375077
 20
-119.914128
 30
0.0
  0
SEQEND
  5
375
100
AcDbEntity
  8
EBENE_1
 62
     7
  0
HATCH
  5
370
100
AcDbEntity
  8
EBENE_1
 62
     7
100
AcDbHatch
 10
0.0
 20
0.0
 30
0.0
210
0.0
220
0.0
230
1.0
  2
SOLID
 70
     1
 71
     0
 91
        1
 92
        3
 72
     0
 73
     1
 93
        3
 10
9.6130221896701382
 20
-115.42654622395833
 10
11.137132432725693
 20
-115.42654622395833
 10
10.375077311197916
 20
-119.91412760416665
 97
        0
 75
     0
 76
     1
 98
        1
 10
0.0
 20
0.0
  0
LINE
  5
36F
100
AcDbEntity
  8
EBENE_1
 62
     7
100
AcDbLine
 10
5.464438
 20
-116.019103
 30
0.0
 11
5.295284
 21
-115.680794
 31
0.0
  0
LINE
  5
36E
100
AcDbEntity
  8
EBENE_1
 62
     7
100
AcDbLine
 10
5.295284
 20
-115.680794
 30
0.0
 11
4.617978
 21
-115.088238
 31
0.0
  0
LINE
  5
36D
100
AcDbEntity
  8
EBENE_1
 62
     7
100
AcDbLine
 10
4.617978
 20
-115.088238
 30
0.0
 11
9.105215
 21
-115.088238
 31
0.0
  0
LINE
  5
36C
100
AcDbEntity
  8
EBENE_1
 62
     7
100
AcDbLine
 10
4.617978
 20
-111.023714
 30
0.0
 11
7.581105
 21
-112.971571
 31
0.0
  0
LINE
  5
36B
100
AcDbEntity
  8
EBENE_1
 62
     7
100
AcDbLine
 10
7.581105
 20
-112.971571
 30
0.0
 11
7.581105
 21
-110.092849
 31
0.0
  0
LINE
  5
36A
100
AcDbEntity
  8
EBENE_1
 62
     7
100
AcDbLine
 10
4.617978
 20
-111.023714
 30
0.0
 11
9.105215
 21
-111.023714
 31
0.0
  0
LINE
  5
369
100
AcDbEntity
  8
EBENE_1
 62
     7
100
AcDbLine
 10
-3.086806
 20
-112.547824
 30
0.0
 11
-11.468723
 21
-112.547824
 31
0.0
  0
LINE
  5
368
100
AcDbEntity
  8
EBENE_1
 62
     7
100
AcDbLine
 10
-8.336098
 20
-114.664491
 30
0.0
 11
-8.336098
 21
-110.431158
 31
0.0
  0
LINE
  5
367
100
AcDbEntity
  8
EBENE_1
 62
     7
100
AcDbLine
 10
-6.558084
 20
-106.197824
 30
0.0
 11
-6.558084
 21
-117.458464
 31
0.0
  0
LINE
  5
366
100
AcDbEntity
  8
EBENE_1
 62
     7
100
AcDbLine
 10
-9.013403
 20
-117.458464
 30
0.0
 11
-9.013403
 21
-106.197824
 31
0.0
  0
LINE
  5
365
100
AcDbEntity
  8
EBENE_1
 62
     7
100
AcDbLine
 10
-18.665355
 20
-118.135769
 30
0.0
 11
-16.887341
 21
-119.914128
 31
0.0
  0
LINE
  5
364
100
AcDbEntity
  8
EBENE_1
 62
     7
100
AcDbLine
 10
-18.665355
 20
-118.135769
 30
0.0
 11
-18.665355
 21
-117.458464
 31
0.0
  0
LINE
  5
363
100
AcDbEntity
  8
EBENE_1
 62
     7
100
AcDbLine
 10
-20.782022
 20
-123.385406
 30
0.0
 11
-20.782022
 21
-115.003488
 31
0.0
  0
LINE
  5
362
100
AcDbEntity
  8
EBENE_1
 62
     7
100
AcDbLine
 10
-9.013403
 20
-117.458464
 30
0.0
 11
-9.013403
 21
-119.914128
 31
0.0
  0
LINE
  5
361
100
AcDbEntity
  8
EBENE_1
 62
     7
100
AcDbLine
 10
-9.944785
 20
-117.458464
 30
0.0
 11
-9.944785
 21
-119.914128
 31
0.0
  0
LINE
  5
360
100
AcDbEntity
  8
EBENE_1
 62
     7
100
AcDbLine
 10
-8.336098
 20
-114.664491
 30
0.0
 11
-6.558084
 21
-116.527599
 31
0.0
  0
LINE
  5
35F
100
AcDbEntity
  8
EBENE_1
 62
     7
100
AcDbLine
 10
-8.336098
 20
-114.664491
 30
0.0
 11
-9.013403
 21
-114.664491
 31
0.0
  0
LINE
  5
35E
100
AcDbEntity
  8
EBENE_1
 62
     7
100
AcDbLine
 10
-9.013403
 20
-119.914128
 30
0.0
 11
-8.082022
 21
-119.744629
 31
0.0
  0
LINE
  5
35D
100
AcDbEntity
  8
EBENE_1
 62
     7
100
AcDbLine
 10
-8.082022
 20
-119.744629
 30
0.0
 11
-7.23539
 21
-119.236822
 31
0.0
  0
LINE
  5
35C
100
AcDbEntity
  8
EBENE_1
 62
     7
100
AcDbLine
 10
-7.23539
 20
-119.236822
 30
0.0
 11
-6.72741
 21
-118.390017
 31
0.0
  0
LINE
  5
35B
100
AcDbEntity
  8
EBENE_1
 62
     7
100
AcDbLine
 10
-6.72741
 20
-118.390017
 30
0.0
 11
-6.558084
 21
-117.458464
 31
0.0
  0
LINE
  5
35A
100
AcDbEntity
  8
EBENE_1
 62
     7
100
AcDbLine
 10
-8.336098
 20
-110.431158
 30
0.0
 11
-6.558084
 21
-108.653488
 31
0.0
  0
LINE
  5
359
100
AcDbEntity
  8
EBENE_1
 62
     7
100
AcDbLine
 10
-8.336098
 20
-110.431158
 30
0.0
 11
-9.013403
 21
-110.431158
 31
0.0
  0
LINE
  5
358
100
AcDbEntity
  8
EBENE_1
 62
     7
100
AcDbLine
 10
-9.013403
 20
-106.197824
 30
0.0
 11
-6.558084
 21
-106.197824
 31
0.0
  0
LINE
  5
357
100
AcDbEntity
  8
EBENE_1
 62
     7
100
AcDbLine
 10
-22.221383
 20
-64.541797
 30
0.0
 11
-28.148153
 21
-64.541797
 31
0.0
  0
LINE
  5
356
100
AcDbEntity
  8
EBENE_1
 62
     7
100
AcDbLine
 10
-20.104716
 20
-64.541797
 30
0.0
 11
-20.274042
 21
-63.695681
 31
0.0
  0
LINE
  5
355
100
AcDbEntity
  8
EBENE_1
 62
     7
100
AcDbLine
 10
-20.274042
 20
-63.695681
 30
0.0
 11
-20.782022
 21
-63.017687
 31
0.0
  0
LINE
  5
354
100
AcDbEntity
  8
EBENE_1
 62
     7
100
AcDbLine
 10
-20.782022
 20
-63.017687
 30
0.0
 11
-21.459328
 21
-62.594629
 31
0.0
  0
LINE
  5
353
100
AcDbEntity
  8
EBENE_1
 62
     7
100
AcDbLine
 10
-21.459328
 20
-62.594629
 30
0.0
 11
-22.221383
 21
-62.42513
 31
0.0
  0
LINE
  5
352
100
AcDbEntity
  8
EBENE_1
 62
     7
100
AcDbLine
 10
-22.221383
 20
-62.42513
 30
0.0
 11
-23.068015
 21
-62.594629
 31
0.0
  0
LINE
  5
351
100
AcDbEntity
  8
EBENE_1
 62
     7
100
AcDbLine
 10
-23.068015
 20
-62.594629
 30
0.0
 11
-23.745321
 21
-63.017687
 31
0.0
  0
LINE
  5
350
100
AcDbEntity
  8
EBENE_1
 62
     7
100
AcDbLine
 10
-23.745321
 20
-63.017687
 30
0.0
 11
-24.168723
 21
-63.695681
 31
0.0
  0
LINE
  5
34F
100
AcDbEntity
  8
EBENE_1
 62
     7
100
AcDbLine
 10
-24.168723
 20
-63.695681
 30
0.0
 11
-24.338049
 21
-64.541797
 31
0.0
  0
LINE
  5
34E
100
AcDbEntity
  8
EBENE_1
 62
     7
100
AcDbLine
 10
-24.338049
 20
-64.541797
 30
0.0
 11
-24.168723
 21
-65.303852
 31
0.0
  0
LINE
  5
34D
100
AcDbEntity
  8
EBENE_1
 62
     7
100
AcDbLine
 10
-24.168723
 20
-65.303852
 30
0.0
 11
-23.745321
 21
-66.065907
 31
0.0
  0
LINE
  5
34C
100
AcDbEntity
  8
EBENE_1
 62
     7
100
AcDbLine
 10
-23.745321
 20
-66.065907
 30
0.0
 11
-23.068015
 21
-66.489654
 31
0.0
  0
LINE
  5
34B
100
AcDbEntity
  8
EBENE_1
 62
     7
100
AcDbLine
 10
-23.068015
 20
-66.489654
 30
0.0
 11
-22.221383
 21
-66.658464
 31
0.0
  0
LINE
  5
34A
100
AcDbEntity
  8
EBENE_1
 62
     7
100
AcDbLine
 10
-22.221383
 20
-66.658464
 30
0.0
 11
-21.459328
 21
-66.489654
 31
0.0
  0
LINE
  5
349
100
AcDbEntity
  8
EBENE_1
 62
     7
100
AcDbLine
 10
-21.459328
 20
-66.489654
 30
0.0
 11
-20.782022
 21
-66.065907
 31
0.0
  0
LINE
  5
348
100
AcDbEntity
  8
EBENE_1
 62
     7
100
AcDbLine
 10
-20.782022
 20
-66.065907
 30
0.0
 11
-20.274042
 21
-65.303852
 31
0.0
  0
LINE
  5
347
100
AcDbEntity
  8
EBENE_1
 62
     7
100
AcDbLine
 10
-20.274042
 20
-65.303852
 30
0.0
 11
-20.104716
 21
-64.541797
 31
0.0
  0
LINE
  5
346
100
AcDbEntity
  8
EBENE_1
 62
     7
100
AcDbLine
 10
-18.326702
 20
-64.541797
 30
0.0
 11
-18.496029
 21
-63.526183
 31
0.0
  0
LINE
  5
345
100
AcDbEntity
  8
EBENE_1
 62
     7
100
AcDbLine
 10
-18.496029
 20
-63.526183
 30
0.0
 11
-18.834682
 21
-62.594629
 31
0.0
  0
LINE
  5
344
100
AcDbEntity
  8
EBENE_1
 62
     7
100
AcDbLine
 10
-18.834682
 20
-62.594629
 30
0.0
 11
-19.511987
 21
-61.747824
 31
0.0
  0
LINE
  5
343
100
AcDbEntity
  8
EBENE_1
 62
     7
100
AcDbLine
 10
-19.511987
 20
-61.747824
 30
0.0
 11
-20.274042
 21
-61.155268
 31
0.0
  0
LINE
  5
342
100
AcDbEntity
  8
EBENE_1
 62
     7
100
AcDbLine
 10
-20.274042
 20
-61.155268
 30
0.0
 11
-21.205424
 21
-60.73221
 31
0.0
  0
LINE
  5
341
100
AcDbEntity
  8
EBENE_1
 62
     7
100
AcDbLine
 10
-21.205424
 20
-60.73221
 30
0.0
 11
-22.221383
 21
-60.562712
 31
0.0
  0
LINE
  5
340
100
AcDbEntity
  8
EBENE_1
 62
     7
100
AcDbLine
 10
-22.221383
 20
-60.562712
 30
0.0
 11
-23.237341
 21
-60.73221
 31
0.0
  0
LINE
  5
33F
100
AcDbEntity
  8
EBENE_1
 62
     7
100
AcDbLine
 10
-23.237341
 20
-60.73221
 30
0.0
 11
-24.253472
 21
-61.155268
 31
0.0
  0
LINE
  5
33E
100
AcDbEntity
  8
EBENE_1
 62
     7
100
AcDbLine
 10
-24.253472
 20
-61.155268
 30
0.0
 11
-25.015355
 21
-61.747824
 31
0.0
  0
LINE
  5
33D
100
AcDbEntity
  8
EBENE_1
 62
     7
100
AcDbLine
 10
-25.015355
 20
-61.747824
 30
0.0
 11
-25.692661
 21
-62.594629
 31
0.0
  0
LINE
  5
33C
100
AcDbEntity
  8
EBENE_1
 62
     7
100
AcDbLine
 10
-25.692661
 20
-62.594629
 30
0.0
 11
-26.031486
 21
-63.526183
 31
0.0
  0
LINE
  5
33B
100
AcDbEntity
  8
EBENE_1
 62
     7
100
AcDbLine
 10
-26.031486
 20
-63.526183
 30
0.0
 11
-26.200812
 21
-64.541797
 31
0.0
  0
LINE
  5
33A
100
AcDbEntity
  8
EBENE_1
 62
     7
100
AcDbLine
 10
-26.200812
 20
-64.541797
 30
0.0
 11
-26.031486
 21
-65.5581
 31
0.0
  0
LINE
  5
339
100
AcDbEntity
  8
EBENE_1
 62
     7
100
AcDbLine
 10
-26.031486
 20
-65.5581
 30
0.0
 11
-25.692661
 21
-66.489654
 31
0.0
  0
LINE
  5
338
100
AcDbEntity
  8
EBENE_1
 62
     7
100
AcDbLine
 10
-25.692661
 20
-66.489654
 30
0.0
 11
-25.015355
 21
-67.335769
 31
0.0
  0
LINE
  5
337
100
AcDbEntity
  8
EBENE_1
 62
     7
100
AcDbLine
 10
-25.015355
 20
-67.335769
 30
0.0
 11
-24.253472
 21
-67.929015
 31
0.0
  0
LINE
  5
336
100
AcDbEntity
  8
EBENE_1
 62
     7
100
AcDbLine
 10
-24.253472
 20
-67.929015
 30
0.0
 11
-23.237341
 21
-68.352072
 31
0.0
  0
LINE
  5
335
100
AcDbEntity
  8
EBENE_1
 62
     7
100
AcDbLine
 10
-23.237341
 20
-68.352072
 30
0.0
 11
-22.221383
 21
-68.436822
 31
0.0
  0
LINE
  5
334
100
AcDbEntity
  8
EBENE_1
 62
     7
100
AcDbLine
 10
-22.221383
 20
-68.436822
 30
0.0
 11
-21.205424
 21
-68.352072
 31
0.0
  0
LINE
  5
333
100
AcDbEntity
  8
EBENE_1
 62
     7
100
AcDbLine
 10
-21.205424
 20
-68.352072
 30
0.0
 11
-20.274042
 21
-67.929015
 31
0.0
  0
LINE
  5
332
100
AcDbEntity
  8
EBENE_1
 62
     7
100
AcDbLine
 10
-20.274042
 20
-67.929015
 30
0.0
 11
-19.511987
 21
-67.335769
 31
0.0
  0
LINE
  5
331
100
AcDbEntity
  8
EBENE_1
 62
     7
100
AcDbLine
 10
-19.511987
 20
-67.335769
 30
0.0
 11
-18.834682
 21
-66.489654
 31
0.0
  0
LINE
  5
330
100
AcDbEntity
  8
EBENE_1
 62
     7
100
AcDbLine
 10
-18.834682
 20
-66.489654
 30
0.0
 11
-18.496029
 21
-65.5581
 31
0.0
  0
LINE
  5
32F
100
AcDbEntity
  8
EBENE_1
 62
     7
100
AcDbLine
 10
-18.496029
 20
-65.5581
 30
0.0
 11
-18.326702
 21
-64.541797
 31
0.0
  0
LINE
  5
32E
100
AcDbEntity
  8
EBENE_1
 62
     7
100
AcDbLine
 10
-30.095321
 20
-75.379378
 30
0.0
 11
-6.558084
 21
-75.379378
 31
0.0
  0
LINE
  5
32D
100
AcDbEntity
  8
EBENE_1
 62
     7
100
AcDbLine
 10
-31.365355
 20
-75.379378
 30
0.0
 11
-41.356132
 21
-75.379378
 31
0.0
  0
LINE
  5
32C
100
AcDbEntity
  8
EBENE_1
 62
     7
100
AcDbLine
 10
-29.418015
 20
-64.541797
 30
0.0
 11
-41.356132
 21
-64.541797
 31
0.0
  0
LINE
  5
32B
100
AcDbEntity
  8
EBENE_1
 62
     7
100
AcDbLine
 10
-40.678654
 20
-79.78221
 30
0.0
 11
-40.678654
 21
-84.269103
 31
0.0
  0
LINE
  5
32A
100
AcDbEntity
  8
EBENE_1
 62
     7
100
AcDbLine
 10
-40.678654
 20
-60.054905
 30
0.0
 11
-40.678654
 21
-55.567323
 31
0.0
  0
LINE
  5
329
100
AcDbEntity
  8
EBENE_1
 62
     7
100
AcDbLine
 10
-40.678654
 20
-75.379378
 30
0.0
 11
-40.678654
 21
-64.541797
 31
0.0
  0
POLYLINE
  5
324
100
AcDbEntity
  8
EBENE_1
 62
     7
100
AcDb2dPolyline
 66
     1
 10
0.0
 20
0.0
 30
0.0
 70
     1
  0
VERTEX
  5
325
100
AcDbEntity
  8
EBENE_1
 62
     7
100
AcDbVertex
100
AcDb2dVertex
 10
-41.440709
 20
-79.78221
 30
0.0
  0
VERTEX
  5
326
100
AcDbEntity
  8
EBENE_1
 62
     7
100
AcDbVertex
100
AcDb2dVertex
 10
-40.001348
 20
-79.78221
 30
0.0
  0
VERTEX
  5
327
100
AcDbEntity
  8
EBENE_1
 62
     7
100
AcDbVertex
100
AcDb2dVertex
 10
-40.678654
 20
-75.379378
 30
0.0
  0
SEQEND
  5
328
100
AcDbEntity
  8
EBENE_1
 62
     7
  0
HATCH
  5
323
100
AcDbEntity
  8
EBENE_1
 62
     7
100
AcDbHatch
 10
0.0
 20
0.0
 30
0.0
210
0.0
220
0.0
230
1.0
  2
SOLID
 70
     1
 71
     0
 91
        1
 92
        3
 72
     0
 73
     1
 93
        3
 10
-41.440709092881939
 20
-79.782210286458323
 10
-40.001348198784719
 20
-79.782210286458323
 10
-40.678653971354166
 20
-75.379378255208323
 97
        0
 75
     0
 76
     1
 98
        1
 10
0.0
 20
0.0
  0
POLYLINE
  5
31E
100
AcDbEntity
  8
EBENE_1
 62
     7
100
AcDb2dPolyline
 66
     1
 10
0.0
 20
0.0
 30
0.0
 70
     1
  0
VERTEX
  5
31F
100
AcDbEntity
  8
EBENE_1
 62
     7
100
AcDbVertex
100
AcDb2dVertex
 10
-41.440709
 20
-60.054905
 30
0.0
  0
VERTEX
  5
320
100
AcDbEntity
  8
EBENE_1
 62
     7
100
AcDbVertex
100
AcDb2dVertex
 10
-40.001348
 20
-60.054905
 30
0.0
  0
VERTEX
  5
321
100
AcDbEntity
  8
EBENE_1
 62
     7
100
AcDbVertex
100
AcDb2dVertex
 10
-40.678654
 20
-64.541797
 30
0.0
  0
SEQEND
  5
322
100
AcDbEntity
  8
EBENE_1
 62
     7
  0
HATCH
  5
31D
100
AcDbEntity
  8
EBENE_1
 62
     7
100
AcDbHatch
 10
0.0
 20
0.0
 30
0.0
210
0.0
220
0.0
230
1.0
  2
SOLID
 70
     1
 71
     0
 91
        1
 92
        3
 72
     0
 73
     1
 93
        3
 10
-41.440709092881939
 20
-60.054904513888886
 10
-40.001348198784719
 20
-60.054904513888886
 10
-40.678653971354166
 20
-64.541796874999989
 97
        0
 75
     0
 76
     1
 98
        1
 10
0.0
 20
0.0
  0
LINE
  5
31C
100
AcDbEntity
  8
EBENE_1
 62
     7
100
AcDbLine
 10
-45.589465
 20
-71.9081
 30
0.0
 11
-45.843369
 21
-71.569103
 31
0.0
  0
LINE
  5
31B
100
AcDbEntity
  8
EBENE_1
 62
     7
100
AcDbLine
 10
-45.843369
 20
-71.569103
 30
0.0
 11
-46.436098
 21
-70.976546
 31
0.0
  0
LINE
  5
31A
100
AcDbEntity
  8
EBENE_1
 62
     7
100
AcDbLine
 10
-46.436098
 20
-70.976546
 30
0.0
 11
-42.033438
 21
-70.976546
 31
0.0
  0
LINE
  5
319
100
AcDbEntity
  8
EBENE_1
 62
     7
100
AcDbLine
 10
-45.589465
 20
-68.85988
 30
0.0
 11
-45.843369
 21
-68.521571
 31
0.0
  0
LINE
  5
318
100
AcDbEntity
  8
EBENE_1
 62
     7
100
AcDbLine
 10
-45.843369
 20
-68.521571
 30
0.0
 11
-46.436098
 21
-67.929015
 31
0.0
  0
LINE
  5
317
100
AcDbEntity
  8
EBENE_1
 62
     7
100
AcDbLine
 10
-46.436098
 20
-67.929015
 30
0.0
 11
-42.033438
 21
-67.929015
 31
0.0
  0
LINE
  5
316
100
AcDbEntity
  8
EBENE_1
 62
     7
100
AcDbLine
 10
-5.288049
 20
-75.379378
 30
0.0
 11
11.052383
 21
-75.379378
 31
0.0
  0
LINE
  5
315
100
AcDbEntity
  8
EBENE_1
 62
     7
100
AcDbLine
 10
-7.743369
 20
-53.704905
 30
0.0
 11
11.052383
 21
-53.704905
 31
0.0
  0
LINE
  5
314
100
AcDbEntity
  8
EBENE_1
 62
     7
100
AcDbLine
 10
10.375077
 20
-70.891797
 30
0.0
 11
10.375077
 21
-58.191797
 31
0.0
  0
POLYLINE
  5
30F
100
AcDbEntity
  8
EBENE_1
 62
     7
100
AcDb2dPolyline
 66
     1
 10
0.0
 20
0.0
 30
0.0
 70
     1
  0
VERTEX
  5
310
100
AcDbEntity
  8
EBENE_1
 62
     7
100
AcDbVertex
100
AcDb2dVertex
 10
9.613022
 20
-70.891797
 30
0.0
  0
VERTEX
  5
311
100
AcDbEntity
  8
EBENE_1
 62
     7
100
AcDbVertex
100
AcDb2dVertex
 10
11.137132
 20
-70.891797
 30
0.0
  0
VERTEX
  5
312
100
AcDbEntity
  8
EBENE_1
 62
     7
100
AcDbVertex
100
AcDb2dVertex
 10
10.375077
 20
-75.379378
 30
0.0
  0
SEQEND
  5
313
100
AcDbEntity
  8
EBENE_1
 62
     7
  0
HATCH
  5
30E
100
AcDbEntity
  8
EBENE_1
 62
     7
100
AcDbHatch
 10
0.0
 20
0.0
 30
0.0
210
0.0
220
0.0
230
1.0
  2
SOLID
 70
     1
 71
     0
 91
        1
 92
        3
 72
     0
 73
     1
 93
        3
 10
9.6130221896701382
 20
-70.891796874999997
 10
11.137132432725693
 20
-70.891796874999997
 10
10.375077311197916
 20
-75.379378255208323
 97
        0
 75
     0
 76
     1
 98
        1
 10
0.0
 20
0.0
  0
POLYLINE
  5
309
100
AcDbEntity
  8
EBENE_1
 62
     7
100
AcDb2dPolyline
 66
     1
 10
0.0
 20
0.0
 30
0.0
 70
     1
  0
VERTEX
  5
30A
100
AcDbEntity
  8
EBENE_1
 62
     7
100
AcDbVertex
100
AcDb2dVertex
 10
9.613022
 20
-58.191797
 30
0.0
  0
VERTEX
  5
30B
100
AcDbEntity
  8
EBENE_1
 62
     7
100
AcDbVertex
100
AcDb2dVertex
 10
11.137132
 20
-58.191797
 30
0.0
  0
VERTEX
  5
30C
100
AcDbEntity
  8
EBENE_1
 62
     7
100
AcDbVertex
100
AcDb2dVertex
 10
10.375077
 20
-53.704905
 30
0.0
  0
SEQEND
  5
30D
100
AcDbEntity
  8
EBENE_1
 62
     7
  0
HATCH
  5
308
100
AcDbEntity
  8
EBENE_1
 62
     7
100
AcDbHatch
 10
0.0
 20
0.0
 30
0.0
210
0.0
220
0.0
230
1.0
  2
SOLID
 70
     1
 71
     0
 91
        1
 92
        3
 72
     0
 73
     1
 93
        3
 10
9.6130221896701382
 20
-58.191796874999994
 10
11.137132432725693
 20
-58.191796874999994
 10
10.375077311197916
 20
-53.704904513888884
 97
        0
 75
     0
 76
     1
 98
        1
 10
0.0
 20
0.0
  0
LINE
  5
307
100
AcDbEntity
  8
EBENE_1
 62
     7
100
AcDbLine
 10
5.718686
 20
-67.590017
 30
0.0
 11
5.464438
 21
-67.590017
 31
0.0
  0
LINE
  5
306
100
AcDbEntity
  8
EBENE_1
 62
     7
100
AcDbLine
 10
5.464438
 20
-67.590017
 30
0.0
 11
5.04138
 21
-67.420519
 31
0.0
  0
LINE
  5
305
100
AcDbEntity
  8
EBENE_1
 62
     7
100
AcDbLine
 10
5.04138
 20
-67.420519
 30
0.0
 11
4.871882
 21
-67.25102
 31
0.0
  0
LINE
  5
304
100
AcDbEntity
  8
EBENE_1
 62
     7
100
AcDbLine
 10
4.871882
 20
-67.25102
 30
0.0
 11
4.617978
 21
-66.827962
 31
0.0
  0
LINE
  5
303
100
AcDbEntity
  8
EBENE_1
 62
     7
100
AcDbLine
 10
4.617978
 20
-66.827962
 30
0.0
 11
4.617978
 21
-66.065907
 31
0.0
  0
LINE
  5
302
100
AcDbEntity
  8
EBENE_1
 62
     7
100
AcDbLine
 10
4.617978
 20
-66.065907
 30
0.0
 11
4.871882
 21
-65.642849
 31
0.0
  0
LINE
  5
301
100
AcDbEntity
  8
EBENE_1
 62
     7
100
AcDbLine
 10
4.871882
 20
-65.642849
 30
0.0
 11
5.04138
 21
-65.473351
 31
0.0
  0
LINE
  5
300
100
AcDbEntity
  8
EBENE_1
 62
     7
100
AcDbLine
 10
5.04138
 20
-65.473351
 30
0.0
 11
5.464438
 21
-65.303852
 31
0.0
  0
LINE
  5
2FF
100
AcDbEntity
  8
EBENE_1
 62
     7
100
AcDbLine
 10
5.464438
 20
-65.303852
 30
0.0
 11
5.888185
 21
-65.303852
 31
0.0
  0
LINE
  5
2FE
100
AcDbEntity
  8
EBENE_1
 62
     7
100
AcDbLine
 10
5.888185
 20
-65.303852
 30
0.0
 11
6.311243
 21
-65.473351
 31
0.0
  0
LINE
  5
2FD
100
AcDbEntity
  8
EBENE_1
 62
     7
100
AcDbLine
 10
6.311243
 20
-65.473351
 30
0.0
 11
6.988548
 21
-65.896408
 31
0.0
  0
LINE
  5
2FC
100
AcDbEntity
  8
EBENE_1
 62
     7
100
AcDbLine
 10
6.988548
 20
-65.896408
 30
0.0
 11
9.105215
 21
-67.759516
 31
0.0
  0
LINE
  5
2FB
100
AcDbEntity
  8
EBENE_1
 62
     7
100
AcDbLine
 10
9.105215
 20
-67.759516
 30
0.0
 11
9.105215
 21
-65.134353
 31
0.0
  0
LINE
  5
2FA
100
AcDbEntity
  8
EBENE_1
 62
     7
100
AcDbLine
 10
5.718686
 20
-63.779742
 30
0.0
 11
5.464438
 21
-63.779742
 31
0.0
  0
LINE
  5
2F9
100
AcDbEntity
  8
EBENE_1
 62
     7
100
AcDbLine
 10
5.464438
 20
-63.779742
 30
0.0
 11
5.04138
 21
-63.610932
 31
0.0
  0
LINE
  5
2F8
100
AcDbEntity
  8
EBENE_1
 62
     7
100
AcDbLine
 10
5.04138
 20
-63.610932
 30
0.0
 11
4.871882
 21
-63.356684
 31
0.0
  0
LINE
  5
2F7
100
AcDbEntity
  8
EBENE_1
 62
     7
100
AcDbLine
 10
4.871882
 20
-63.356684
 30
0.0
 11
4.617978
 21
-63.017687
 31
0.0
  0
LINE
  5
2F6
100
AcDbEntity
  8
EBENE_1
 62
     7
100
AcDbLine
 10
4.617978
 20
-63.017687
 30
0.0
 11
4.617978
 21
-62.256321
 31
0.0
  0
LINE
  5
2F5
100
AcDbEntity
  8
EBENE_1
 62
     7
100
AcDbLine
 10
4.617978
 20
-62.256321
 30
0.0
 11
4.871882
 21
-61.832574
 31
0.0
  0
LINE
  5
2F4
100
AcDbEntity
  8
EBENE_1
 62
     7
100
AcDbLine
 10
4.871882
 20
-61.832574
 30
0.0
 11
5.04138
 21
-61.663075
 31
0.0
  0
LINE
  5
2F3
100
AcDbEntity
  8
EBENE_1
 62
     7
100
AcDbLine
 10
5.04138
 20
-61.663075
 30
0.0
 11
5.464438
 21
-61.494265
 31
0.0
  0
LINE
  5
2F2
100
AcDbEntity
  8
EBENE_1
 62
     7
100
AcDbLine
 10
5.464438
 20
-61.494265
 30
0.0
 11
5.888185
 21
-61.494265
 31
0.0
  0
LINE
  5
2F1
100
AcDbEntity
  8
EBENE_1
 62
     7
100
AcDbLine
 10
5.888185
 20
-61.494265
 30
0.0
 11
6.311243
 21
-61.663075
 31
0.0
  0
LINE
  5
2F0
100
AcDbEntity
  8
EBENE_1
 62
     7
100
AcDbLine
 10
6.311243
 20
-61.663075
 30
0.0
 11
6.988548
 21
-62.002072
 31
0.0
  0
LINE
  5
2EF
100
AcDbEntity
  8
EBENE_1
 62
     7
100
AcDbLine
 10
6.988548
 20
-62.002072
 30
0.0
 11
9.105215
 21
-63.94924
 31
0.0
  0
LINE
  5
2EE
100
AcDbEntity
  8
EBENE_1
 62
     7
100
AcDbLine
 10
9.105215
 20
-63.94924
 30
0.0
 11
9.105215
 21
-61.240017
 31
0.0
  0
LINE
  5
2ED
100
AcDbEntity
  8
EBENE_1
 62
     7
100
AcDbLine
 10
-9.013403
 20
-53.704905
 30
0.0
 11
-9.013403
 21
-58.276546
 31
0.0
  0
LINE
  5
2EC
100
AcDbEntity
  8
EBENE_1
 62
     7
100
AcDbLine
 10
-9.013403
 20
-61.409516
 30
0.0
 11
-9.013403
 21
-67.674767
 31
0.0
  0
LINE
  5
2EB
100
AcDbEntity
  8
EBENE_1
 62
     7
100
AcDbLine
 10
-9.013403
 20
-70.807048
 30
0.0
 11
-9.013403
 21
-75.379378
 31
0.0
  0
LINE
  5
2EA
100
AcDbEntity
  8
EBENE_1
 62
     7
100
AcDbLine
 10
-9.013403
 20
-75.379378
 30
0.0
 11
-9.013403
 21
-75.379378
 31
0.0
  0
LINE
  5
2E9
100
AcDbEntity
  8
EBENE_1
 62
     7
100
AcDbLine
 10
-22.221383
 20
-64.541797
 30
0.0
 11
-22.221383
 21
-58.615544
 31
0.0
  0
LINE
  5
2E8
100
AcDbEntity
  8
EBENE_1
 62
     7
100
AcDbLine
 10
-22.221383
 20
-64.541797
 30
0.0
 11
-22.221383
 21
-70.468739
 31
0.0
  0
LINE
  5
2E7
100
AcDbEntity
  8
EBENE_1
 62
     7
100
AcDbLine
 10
-22.221383
 20
-64.541797
 30
0.0
 11
-16.379362
 21
-64.541797
 31
0.0
  0
LINE
  5
2E6
100
AcDbEntity
  8
EBENE_1
 62
     7
100
AcDbLine
 10
-3.086806
 20
-57.68399
 30
0.0
 11
-11.468723
 21
-57.68399
 31
0.0
  0
LINE
  5
2E5
100
AcDbEntity
  8
EBENE_1
 62
     7
100
AcDbLine
 10
-20.782022
 20
-53.704905
 30
0.0
 11
-9.013403
 21
-53.704905
 31
0.0
  0
LINE
  5
2E4
100
AcDbEntity
  8
EBENE_1
 62
     7
100
AcDbLine
 10
-8.336098
 20
-55.567323
 30
0.0
 11
-6.558084
 21
-53.704905
 31
0.0
  0
LINE
  5
2E3
100
AcDbEntity
  8
EBENE_1
 62
     7
100
AcDbLine
 10
-8.336098
 20
-55.567323
 30
0.0
 11
-9.013403
 21
-55.567323
 31
0.0
  0
LINE
  5
2E2
100
AcDbEntity
  8
EBENE_1
 62
     7
100
AcDbLine
 10
-8.336098
 20
-59.800656
 30
0.0
 11
-6.558084
 21
-61.579015
 31
0.0
  0
LINE
  5
2E1
100
AcDbEntity
  8
EBENE_1
 62
     7
100
AcDbLine
 10
-8.336098
 20
-59.800656
 30
0.0
 11
-9.013403
 21
-59.800656
 31
0.0
  0
LINE
  5
2E0
100
AcDbEntity
  8
EBENE_1
 62
     7
100
AcDbLine
 10
-8.336098
 20
-59.800656
 30
0.0
 11
-8.336098
 21
-55.567323
 31
0.0
  0
LINE
  5
2DF
100
AcDbEntity
  8
EBENE_1
 62
     7
100
AcDbLine
 10
47.289964
 20
-64.796045
 30
0.0
 11
47.289964
 21
-87.486822
 31
0.0
  0
LINE
  5
2DE
100
AcDbEntity
  8
EBENE_1
 62
     7
100
AcDbLine
 10
40.939964
 20
-76.64924
 30
0.0
 11
40.939964
 21
-87.486822
 31
0.0
  0
LINE
  5
2DD
100
AcDbEntity
  8
EBENE_1
 62
     7
100
AcDbLine
 10
51.777546
 20
-86.894265
 30
0.0
 11
56.264438
 21
-86.894265
 31
0.0
  0
LINE
  5
2DC
100
AcDbEntity
  8
EBENE_1
 62
     7
100
AcDbLine
 10
36.452383
 20
-86.894265
 30
0.0
 11
31.965491
 21
-86.894265
 31
0.0
  0
LINE
  5
2DB
100
AcDbEntity
  8
EBENE_1
 62
     7
100
AcDbLine
 10
28.663022
 20
-81.390381
 30
0.0
 11
28.493868
 21
-80.967323
 31
0.0
  0
LINE
  5
2DA
100
AcDbEntity
  8
EBENE_1
 62
     7
100
AcDbLine
 10
28.493868
 20
-80.967323
 30
0.0
 11
27.901312
 21
-80.797824
 31
0.0
  0
LINE
  5
2D9
100
AcDbEntity
  8
EBENE_1
 62
     7
100
AcDbLine
 10
27.901312
 20
-80.797824
 30
0.0
 11
27.562659
 21
-80.797824
 31
0.0
  0
LINE
  5
2D8
100
AcDbEntity
  8
EBENE_1
 62
     7
100
AcDbLine
 10
27.562659
 20
-80.797824
 30
0.0
 11
26.970102
 21
-80.967323
 31
0.0
  0
LINE
  5
2D7
100
AcDbEntity
  8
EBENE_1
 62
     7
100
AcDbLine
 10
26.970102
 20
-80.967323
 30
0.0
 11
26.546356
 21
-81.644629
 31
0.0
  0
LINE
  5
2D6
100
AcDbEntity
  8
EBENE_1
 62
     7
100
AcDbLine
 10
26.546356
 20
-81.644629
 30
0.0
 11
26.377201
 21
-82.660932
 31
0.0
  0
LINE
  5
2D5
100
AcDbEntity
  8
EBENE_1
 62
     7
100
AcDbLine
 10
26.377201
 20
-82.660932
 30
0.0
 11
26.377201
 21
-83.761296
 31
0.0
  0
LINE
  5
2D4
100
AcDbEntity
  8
EBENE_1
 62
     7
100
AcDbLine
 10
26.377201
 20
-83.761296
 30
0.0
 11
26.546356
 21
-84.6081
 31
0.0
  0
LINE
  5
2D3
100
AcDbEntity
  8
EBENE_1
 62
     7
100
AcDbLine
 10
26.546356
 20
-84.6081
 30
0.0
 11
26.970102
 21
-85.031158
 31
0.0
  0
LINE
  5
2D2
100
AcDbEntity
  8
EBENE_1
 62
     7
100
AcDbLine
 10
26.970102
 20
-85.031158
 30
0.0
 11
27.562659
 21
-85.285406
 31
0.0
  0
LINE
  5
2D1
100
AcDbEntity
  8
EBENE_1
 62
     7
100
AcDbLine
 10
27.562659
 20
-85.285406
 30
0.0
 11
27.732157
 21
-85.285406
 31
0.0
  0
LINE
  5
2D0
100
AcDbEntity
  8
EBENE_1
 62
     7
100
AcDbLine
 10
27.732157
 20
-85.285406
 30
0.0
 11
28.324714
 21
-85.031158
 31
0.0
  0
LINE
  5
2CF
100
AcDbEntity
  8
EBENE_1
 62
     7
100
AcDbLine
 10
28.324714
 20
-85.031158
 30
0.0
 11
28.663022
 21
-84.6081
 31
0.0
  0
LINE
  5
2CE
100
AcDbEntity
  8
EBENE_1
 62
     7
100
AcDbLine
 10
28.663022
 20
-84.6081
 30
0.0
 11
28.91727
 21
-84.015544
 31
0.0
  0
LINE
  5
2CD
100
AcDbEntity
  8
EBENE_1
 62
     7
100
AcDbLine
 10
28.91727
 20
-84.015544
 30
0.0
 11
28.91727
 21
-83.761296
 31
0.0
  0
LINE
  5
2CC
100
AcDbEntity
  8
EBENE_1
 62
     7
100
AcDbLine
 10
28.91727
 20
-83.761296
 30
0.0
 11
28.663022
 21
-83.168739
 31
0.0
  0
LINE
  5
2CB
100
AcDbEntity
  8
EBENE_1
 62
     7
100
AcDbLine
 10
28.663022
 20
-83.168739
 30
0.0
 11
28.324714
 21
-82.660932
 31
0.0
  0
LINE
  5
2CA
100
AcDbEntity
  8
EBENE_1
 62
     7
100
AcDbLine
 10
28.324714
 20
-82.660932
 30
0.0
 11
27.732157
 21
-82.491433
 31
0.0
  0
LINE
  5
2C9
100
AcDbEntity
  8
EBENE_1
 62
     7
100
AcDbLine
 10
27.732157
 20
-82.491433
 30
0.0
 11
27.562659
 21
-82.491433
 31
0.0
  0
LINE
  5
2C8
100
AcDbEntity
  8
EBENE_1
 62
     7
100
AcDbLine
 10
27.562659
 20
-82.491433
 30
0.0
 11
26.970102
 21
-82.660932
 31
0.0
  0
LINE
  5
2C7
100
AcDbEntity
  8
EBENE_1
 62
     7
100
AcDbLine
 10
26.970102
 20
-82.660932
 30
0.0
 11
26.546356
 21
-83.168739
 31
0.0
  0
LINE
  5
2C6
100
AcDbEntity
  8
EBENE_1
 62
     7
100
AcDbLine
 10
26.546356
 20
-83.168739
 30
0.0
 11
26.377201
 21
-83.761296
 31
0.0
  0
LINE
  5
2C5
100
AcDbEntity
  8
EBENE_1
 62
     7
100
AcDbLine
 10
26.377201
 20
-83.761296
 30
0.0
 11
26.377201
 21
-83.761296
 31
0.0
  0
LINE
  5
2C4
100
AcDbEntity
  8
EBENE_1
 62
     7
100
AcDbLine
 10
30.44138
 20
-84.862348
 30
0.0
 11
30.187132
 21
-85.031158
 31
0.0
  0
LINE
  5
2C3
100
AcDbEntity
  8
EBENE_1
 62
     7
100
AcDbLine
 10
30.187132
 20
-85.031158
 30
0.0
 11
30.44138
 21
-85.285406
 31
0.0
  0
LINE
  5
2C2
100
AcDbEntity
  8
EBENE_1
 62
     7
100
AcDbLine
 10
30.44138
 20
-85.285406
 30
0.0
 11
30.610535
 21
-85.031158
 31
0.0
  0
LINE
  5
2C1
100
AcDbEntity
  8
EBENE_1
 62
     7
100
AcDbLine
 10
34.420466
 20
-80.797824
 30
0.0
 11
32.558047
 21
-80.797824
 31
0.0
  0
LINE
  5
2C0
100
AcDbEntity
  8
EBENE_1
 62
     7
100
AcDbLine
 10
32.558047
 20
-80.797824
 30
0.0
 11
32.303799
 21
-82.660932
 31
0.0
  0
LINE
  5
2BF
100
AcDbEntity
  8
EBENE_1
 62
     7
100
AcDbLine
 10
32.303799
 20
-82.660932
 30
0.0
 11
32.558047
 21
-82.491433
 31
0.0
  0
LINE
  5
2BE
100
AcDbEntity
  8
EBENE_1
 62
     7
100
AcDbLine
 10
32.558047
 20
-82.491433
 30
0.0
 11
33.065854
 21
-82.237185
 31
0.0
  0
LINE
  5
2BD
100
AcDbEntity
  8
EBENE_1
 62
     7
100
AcDbLine
 10
33.065854
 20
-82.237185
 30
0.0
 11
33.658411
 21
-82.237185
 31
0.0
  0
LINE
  5
2BC
100
AcDbEntity
  8
EBENE_1
 62
     7
100
AcDbLine
 10
33.658411
 20
-82.237185
 30
0.0
 11
34.251312
 21
-82.491433
 31
0.0
  0
LINE
  5
2BB
100
AcDbEntity
  8
EBENE_1
 62
     7
100
AcDbLine
 10
34.251312
 20
-82.491433
 30
0.0
 11
34.589964
 21
-82.914491
 31
0.0
  0
LINE
  5
2BA
100
AcDbEntity
  8
EBENE_1
 62
     7
100
AcDbLine
 10
34.589964
 20
-82.914491
 30
0.0
 11
34.843868
 21
-83.591797
 31
0.0
  0
LINE
  5
2B9
100
AcDbEntity
  8
EBENE_1
 62
     7
100
AcDbLine
 10
34.843868
 20
-83.591797
 30
0.0
 11
34.843868
 21
-84.015544
 31
0.0
  0
LINE
  5
2B8
100
AcDbEntity
  8
EBENE_1
 62
     7
100
AcDbLine
 10
34.843868
 20
-84.015544
 30
0.0
 11
34.589964
 21
-84.6081
 31
0.0
  0
LINE
  5
2B7
100
AcDbEntity
  8
EBENE_1
 62
     7
100
AcDbLine
 10
34.589964
 20
-84.6081
 30
0.0
 11
34.251312
 21
-85.031158
 31
0.0
  0
LINE
  5
2B6
100
AcDbEntity
  8
EBENE_1
 62
     7
100
AcDbLine
 10
34.251312
 20
-85.031158
 30
0.0
 11
33.658411
 21
-85.285406
 31
0.0
  0
LINE
  5
2B5
100
AcDbEntity
  8
EBENE_1
 62
     7
100
AcDbLine
 10
33.658411
 20
-85.285406
 30
0.0
 11
33.065854
 21
-85.285406
 31
0.0
  0
LINE
  5
2B4
100
AcDbEntity
  8
EBENE_1
 62
     7
100
AcDbLine
 10
33.065854
 20
-85.285406
 30
0.0
 11
32.558047
 21
-85.031158
 31
0.0
  0
LINE
  5
2B3
100
AcDbEntity
  8
EBENE_1
 62
     7
100
AcDbLine
 10
32.558047
 20
-85.031158
 30
0.0
 11
32.303799
 21
-84.862348
 31
0.0
  0
LINE
  5
2B2
100
AcDbEntity
  8
EBENE_1
 62
     7
100
AcDbLine
 10
32.303799
 20
-84.862348
 30
0.0
 11
32.134645
 21
-84.438601
 31
0.0
  0
LINE
  5
2B1
100
AcDbEntity
  8
EBENE_1
 62
     7
100
AcDbLine
 10
32.134645
 20
-84.438601
 30
0.0
 11
32.134645
 21
-84.438601
 31
0.0
  0
LINE
  5
2B0
100
AcDbEntity
  8
EBENE_1
 62
     7
100
AcDbLine
 10
47.289964
 20
-86.894265
 30
0.0
 11
40.939964
 21
-86.894265
 31
0.0
  0
LINE
  5
2AF
100
AcDbEntity
  8
EBENE_1
 62
     7
100
AcDbLine
 10
47.289964
 20
-86.894265
 30
0.0
 11
40.939964
 21
-86.894265
 31
0.0
  0
POLYLINE
  5
2AA
100
AcDbEntity
  8
EBENE_1
 62
     7
100
AcDb2dPolyline
 66
     1
 10
0.0
 20
0.0
 30
0.0
 70
     1
  0
VERTEX
  5
2AB
100
AcDbEntity
  8
EBENE_1
 62
     7
100
AcDbVertex
100
AcDb2dVertex
 10
51.777546
 20
-86.13221
 30
0.0
  0
VERTEX
  5
2AC
100
AcDbEntity
  8
EBENE_1
 62
     7
100
AcDbVertex
100
AcDb2dVertex
 10
51.777546
 20
-87.656321
 30
0.0
  0
VERTEX
  5
2AD
100
AcDbEntity
  8
EBENE_1
 62
     7
100
AcDbVertex
100
AcDb2dVertex
 10
47.289964
 20
-86.894265
 30
0.0
  0
SEQEND
  5
2AE
100
AcDbEntity
  8
EBENE_1
 62
     7
  0
HATCH
  5
2A9
100
AcDbEntity
  8
EBENE_1
 62
     7
100
AcDbHatch
 10
0.0
 20
0.0
 30
0.0
210
0.0
220
0.0
230
1.0
  2
SOLID
 70
     1
 71
     0
 91
        1
 92
        3
 72
     0
 73
     1
 93
        3
 10
51.777545844184026
 20
-86.132210286458331
 10
51.777545844184026
 20
-87.656320529513877
 10
47.289964463975693
 20
-86.894265407986097
 97
        0
 75
     0
 76
     1
 98
        1
 10
0.0
 20
0.0
  0
POLYLINE
  5
2A4
100
AcDbEntity
  8
EBENE_1
 62
     7
100
AcDb2dPolyline
 66
     1
 10
0.0
 20
0.0
 30
0.0
 70
     1
  0
VERTEX
  5
2A5
100
AcDbEntity
  8
EBENE_1
 62
     7
100
AcDbVertex
100
AcDb2dVertex
 10
36.452383
 20
-86.13221
 30
0.0
  0
VERTEX
  5
2A6
100
AcDbEntity
  8
EBENE_1
 62
     7
100
AcDbVertex
100
AcDb2dVertex
 10
36.452383
 20
-87.656321
 30
0.0
  0
VERTEX
  5
2A7
100
AcDbEntity
  8
EBENE_1
 62
     7
100
AcDbVertex
100
AcDb2dVertex
 10
40.939964
 20
-86.894265
 30
0.0
  0
SEQEND
  5
2A8
100
AcDbEntity
  8
EBENE_1
 62
     7
  0
HATCH
  5
2A3
100
AcDbEntity
  8
EBENE_1
 62
     7
100
AcDbHatch
 10
0.0
 20
0.0
 30
0.0
210
0.0
220
0.0
230
1.0
  2
SOLID
 70
     1
 71
     0
 91
        1
 92
        3
 72
     0
 73
     1
 93
        3
 10
36.452383083767359
 20
-86.132210286458331
 10
36.452383083767359
 20
-87.656320529513877
 10
40.939964463975691
 20
-86.894265407986097
 97
        0
 75
     0
 76
     1
 98
        1
 10
0.0
 20
0.0
  0
LINE
  5
2A2
100
AcDbEntity
  8
EBENE_1
 62
     7
100
AcDbLine
 10
40.09316
 20
-57.68399
 30
0.0
 11
29.679325
 21
-57.68399
 31
0.0
  0
LINE
  5
2A1
100
AcDbEntity
  8
EBENE_1
 62
     7
100
AcDbLine
 10
39.585353
 20
-75.379378
 30
0.0
 11
29.679325
 21
-75.379378
 31
0.0
  0
LINE
  5
2A0
100
AcDbEntity
  8
EBENE_1
 62
     7
100
AcDbLine
 10
30.356631
 20
-62.086822
 30
0.0
 11
30.356631
 21
-70.891797
 31
0.0
  0
POLYLINE
  5
29B
100
AcDbEntity
  8
EBENE_1
 62
     7
100
AcDb2dPolyline
 66
     1
 10
0.0
 20
0.0
 30
0.0
 70
     1
  0
VERTEX
  5
29C
100
AcDbEntity
  8
EBENE_1
 62
     7
100
AcDbVertex
100
AcDb2dVertex
 10
29.594576
 20
-62.086822
 30
0.0
  0
VERTEX
  5
29D
100
AcDbEntity
  8
EBENE_1
 62
     7
100
AcDbVertex
100
AcDb2dVertex
 10
31.118686
 20
-62.086822
 30
0.0
  0
VERTEX
  5
29E
100
AcDbEntity
  8
EBENE_1
 62
     7
100
AcDbVertex
100
AcDb2dVertex
 10
30.356631
 20
-57.68399
 30
0.0
  0
SEQEND
  5
29F
100
AcDbEntity
  8
EBENE_1
 62
     7
  0
HATCH
  5
29A
100
AcDbEntity
  8
EBENE_1
 62
     7
100
AcDbHatch
 10
0.0
 20
0.0
 30
0.0
210
0.0
220
0.0
230
1.0
  2
SOLID
 70
     1
 71
     0
 91
        1
 92
        3
 72
     0
 73
     1
 93
        3
 10
29.594576009114579
 20
-62.08682183159722
 10
31.118686252170136
 20
-62.08682183159722
 10
30.356631130642359
 20
-57.68398980034722
 97
        0
 75
     0
 76
     1
 98
        1
 10
0.0
 20
0.0
  0
POLYLINE
  5
295
100
AcDbEntity
  8
EBENE_1
 62
     7
100
AcDb2dPolyline
 66
     1
 10
0.0
 20
0.0
 30
0.0
 70
     1
  0
VERTEX
  5
296
100
AcDbEntity
  8
EBENE_1
 62
     7
100
AcDbVertex
100
AcDb2dVertex
 10
29.594576
 20
-70.891797
 30
0.0
  0
VERTEX
  5
297
100
AcDbEntity
  8
EBENE_1
 62
     7
100
AcDbVertex
100
AcDb2dVertex
 10
31.118686
 20
-70.891797
 30
0.0
  0
VERTEX
  5
298
100
AcDbEntity
  8
EBENE_1
 62
     7
100
AcDbVertex
100
AcDb2dVertex
 10
30.356631
 20
-75.379378
 30
0.0
  0
SEQEND
  5
299
100
AcDbEntity
  8
EBENE_1
 62
     7
  0
HATCH
  5
294
100
AcDbEntity
  8
EBENE_1
 62
     7
100
AcDbHatch
 10
0.0
 20
0.0
 30
0.0
210
0.0
220
0.0
230
1.0
  2
SOLID
 70
     1
 71
     0
 91
        1
 92
        3
 72
     0
 73
     1
 93
        3
 10
29.594576009114579
 20
-70.891796874999997
 10
31.118686252170136
 20
-70.891796874999997
 10
30.356631130642359
 20
-75.379378255208323
 97
        0
 75
     0
 76
     1
 98
        1
 10
0.0
 20
0.0
  0
LINE
  5
293
100
AcDbEntity
  8
EBENE_1
 62
     7
100
AcDbLine
 10
25.445992
 20
-69.367687
 30
0.0
 11
25.191744
 21
-69.029378
 31
0.0
  0
LINE
  5
292
100
AcDbEntity
  8
EBENE_1
 62
     7
100
AcDbLine
 10
25.191744
 20
-69.029378
 30
0.0
 11
24.599188
 21
-68.436822
 31
0.0
  0
LINE
  5
291
100
AcDbEntity
  8
EBENE_1
 62
     7
100
AcDbLine
 10
24.599188
 20
-68.436822
 30
0.0
 11
29.086769
 21
-68.436822
 31
0.0
  0
LINE
  5
290
100
AcDbEntity
  8
EBENE_1
 62
     7
100
AcDbLine
 10
24.599188
 20
-65.388601
 30
0.0
 11
24.768686
 21
-65.896408
 31
0.0
  0
LINE
  5
28F
100
AcDbEntity
  8
EBENE_1
 62
     7
100
AcDbLine
 10
24.768686
 20
-65.896408
 30
0.0
 11
25.191744
 21
-66.150656
 31
0.0
  0
LINE
  5
28E
100
AcDbEntity
  8
EBENE_1
 62
     7
100
AcDbLine
 10
25.191744
 20
-66.150656
 30
0.0
 11
25.699896
 21
-66.150656
 31
0.0
  0
LINE
  5
28D
100
AcDbEntity
  8
EBENE_1
 62
     7
100
AcDbLine
 10
25.699896
 20
-66.150656
 30
0.0
 11
26.123298
 21
-65.896408
 31
0.0
  0
LINE
  5
28C
100
AcDbEntity
  8
EBENE_1
 62
     7
100
AcDbLine
 10
26.123298
 20
-65.896408
 30
0.0
 11
26.292796
 21
-65.5581
 31
0.0
  0
LINE
  5
28B
100
AcDbEntity
  8
EBENE_1
 62
     7
100
AcDbLine
 10
26.292796
 20
-65.5581
 30
0.0
 11
26.546356
 21
-64.796045
 31
0.0
  0
LINE
  5
28A
100
AcDbEntity
  8
EBENE_1
 62
     7
100
AcDbLine
 10
26.546356
 20
-64.796045
 30
0.0
 11
26.715854
 21
-64.203488
 31
0.0
  0
LINE
  5
289
100
AcDbEntity
  8
EBENE_1
 62
     7
100
AcDbLine
 10
26.715854
 20
-64.203488
 30
0.0
 11
27.139256
 21
-63.779742
 31
0.0
  0
LINE
  5
288
100
AcDbEntity
  8
EBENE_1
 62
     7
100
AcDbLine
 10
27.139256
 20
-63.779742
 30
0.0
 11
27.562659
 21
-63.610932
 31
0.0
  0
LINE
  5
287
100
AcDbEntity
  8
EBENE_1
 62
     7
100
AcDbLine
 10
27.562659
 20
-63.610932
 30
0.0
 11
28.239964
 21
-63.610932
 31
0.0
  0
LINE
  5
286
100
AcDbEntity
  8
EBENE_1
 62
     7
100
AcDbLine
 10
28.239964
 20
-63.610932
 30
0.0
 11
28.663022
 21
-63.779742
 31
0.0
  0
LINE
  5
285
100
AcDbEntity
  8
EBENE_1
 62
     7
100
AcDbLine
 10
28.663022
 20
-63.779742
 30
0.0
 11
28.832521
 21
-64.03399
 31
0.0
  0
LINE
  5
284
100
AcDbEntity
  8
EBENE_1
 62
     7
100
AcDbLine
 10
28.832521
 20
-64.03399
 30
0.0
 11
29.086769
 21
-64.541797
 31
0.0
  0
LINE
  5
283
100
AcDbEntity
  8
EBENE_1
 62
     7
100
AcDbLine
 10
29.086769
 20
-64.541797
 30
0.0
 11
29.086769
 21
-65.388601
 31
0.0
  0
LINE
  5
282
100
AcDbEntity
  8
EBENE_1
 62
     7
100
AcDbLine
 10
29.086769
 20
-65.388601
 30
0.0
 11
28.832521
 21
-65.896408
 31
0.0
  0
LINE
  5
281
100
AcDbEntity
  8
EBENE_1
 62
     7
100
AcDbLine
 10
28.832521
 20
-65.896408
 30
0.0
 11
28.663022
 21
-66.150656
 31
0.0
  0
LINE
  5
280
100
AcDbEntity
  8
EBENE_1
 62
     7
100
AcDbLine
 10
28.663022
 20
-66.150656
 30
0.0
 11
28.239964
 21
-66.320155
 31
0.0
  0
LINE
  5
27F
100
AcDbEntity
  8
EBENE_1
 62
     7
100
AcDbLine
 10
28.239964
 20
-66.320155
 30
0.0
 11
27.562659
 21
-66.320155
 31
0.0
  0
LINE
  5
27E
100
AcDbEntity
  8
EBENE_1
 62
     7
100
AcDbLine
 10
27.562659
 20
-66.320155
 30
0.0
 11
27.139256
 21
-66.150656
 31
0.0
  0
LINE
  5
27D
100
AcDbEntity
  8
EBENE_1
 62
     7
100
AcDbLine
 10
27.139256
 20
-66.150656
 30
0.0
 11
26.715854
 21
-65.727599
 31
0.0
  0
LINE
  5
27C
100
AcDbEntity
  8
EBENE_1
 62
     7
100
AcDbLine
 10
26.715854
 20
-65.727599
 30
0.0
 11
26.546356
 21
-65.134353
 31
0.0
  0
LINE
  5
27B
100
AcDbEntity
  8
EBENE_1
 62
     7
100
AcDbLine
 10
26.546356
 20
-65.134353
 30
0.0
 11
26.292796
 21
-64.372987
 31
0.0
  0
LINE
  5
27A
100
AcDbEntity
  8
EBENE_1
 62
     7
100
AcDbLine
 10
26.292796
 20
-64.372987
 30
0.0
 11
26.123298
 21
-64.03399
 31
0.0
  0
LINE
  5
279
100
AcDbEntity
  8
EBENE_1
 62
     7
100
AcDbLine
 10
26.123298
 20
-64.03399
 30
0.0
 11
25.699896
 21
-63.779742
 31
0.0
  0
LINE
  5
278
100
AcDbEntity
  8
EBENE_1
 62
     7
100
AcDbLine
 10
25.699896
 20
-63.779742
 30
0.0
 11
25.191744
 21
-63.779742
 31
0.0
  0
LINE
  5
277
100
AcDbEntity
  8
EBENE_1
 62
     7
100
AcDbLine
 10
25.191744
 20
-63.779742
 30
0.0
 11
24.768686
 21
-64.03399
 31
0.0
  0
LINE
  5
276
100
AcDbEntity
  8
EBENE_1
 62
     7
100
AcDbLine
 10
24.768686
 20
-64.03399
 30
0.0
 11
24.599188
 21
-64.541797
 31
0.0
  0
LINE
  5
275
100
AcDbEntity
  8
EBENE_1
 62
     7
100
AcDbLine
 10
24.599188
 20
-64.541797
 30
0.0
 11
24.599188
 21
-65.388601
 31
0.0
  0
LINE
  5
274
100
AcDbEntity
  8
EBENE_1
 62
     7
100
AcDbLine
 10
52.877909
 20
-66.658464
 30
0.0
 11
52.877909
 21
-62.42513
 31
0.0
  0
LINE
  5
273
100
AcDbEntity
  8
EBENE_1
 62
     7
100
AcDbLine
 10
57.61905
 20
-64.541797
 30
0.0
 11
49.237132
 21
-64.541797
 31
0.0
  0
LINE
  5
272
100
AcDbEntity
  8
EBENE_1
 62
     7
100
AcDbLine
 10
40.939964
 20
-75.379378
 30
0.0
 11
54.656268
 21
-75.379378
 31
0.0
  0
LINE
  5
271
100
AcDbEntity
  8
EBENE_1
 62
     7
100
AcDbLine
 10
52.877909
 20
-66.658464
 30
0.0
 11
54.656268
 21
-68.436822
 31
0.0
  0
LINE
  5
270
100
AcDbEntity
  8
EBENE_1
 62
     7
100
AcDbLine
 10
52.877909
 20
-66.658464
 30
0.0
 11
52.200604
 21
-66.658464
 31
0.0
  0
LINE
  5
26F
100
AcDbEntity
  8
EBENE_1
 62
     7
100
AcDbLine
 10
47.289964
 20
-57.68399
 30
0.0
 11
47.289964
 21
-51.757048
 31
0.0
  0
LINE
  5
26E
100
AcDbEntity
  8
EBENE_1
 62
     7
100
AcDbLine
 10
47.289964
 20
-57.68399
 30
0.0
 11
41.363022
 21
-57.68399
 31
0.0
  0
LINE
  5
26D
100
AcDbEntity
  8
EBENE_1
 62
     7
100
AcDbLine
 10
49.406631
 20
-57.68399
 30
0.0
 11
49.237132
 21
-56.837185
 31
0.0
  0
LINE
  5
26C
100
AcDbEntity
  8
EBENE_1
 62
     7
100
AcDbLine
 10
49.237132
 20
-56.837185
 30
0.0
 11
48.814075
 21
-56.15988
 31
0.0
  0
LINE
  5
26B
100
AcDbEntity
  8
EBENE_1
 62
     7
100
AcDbLine
 10
48.814075
 20
-56.15988
 30
0.0
 11
48.136769
 21
-55.736822
 31
0.0
  0
LINE
  5
26A
100
AcDbEntity
  8
EBENE_1
 62
     7
100
AcDbLine
 10
48.136769
 20
-55.736822
 30
0.0
 11
47.289964
 21
-55.567323
 31
0.0
  0
LINE
  5
269
100
AcDbEntity
  8
EBENE_1
 62
     7
100
AcDbLine
 10
47.289964
 20
-55.567323
 30
0.0
 11
46.44316
 21
-55.736822
 31
0.0
  0
LINE
  5
268
100
AcDbEntity
  8
EBENE_1
 62
     7
100
AcDbLine
 10
46.44316
 20
-55.736822
 30
0.0
 11
45.765854
 21
-56.15988
 31
0.0
  0
LINE
  5
267
100
AcDbEntity
  8
EBENE_1
 62
     7
100
AcDbLine
 10
45.765854
 20
-56.15988
 30
0.0
 11
45.342796
 21
-56.837185
 31
0.0
  0
LINE
  5
266
100
AcDbEntity
  8
EBENE_1
 62
     7
100
AcDbLine
 10
45.342796
 20
-56.837185
 30
0.0
 11
45.173298
 21
-57.68399
 31
0.0
  0
LINE
  5
265
100
AcDbEntity
  8
EBENE_1
 62
     7
100
AcDbLine
 10
45.173298
 20
-57.68399
 30
0.0
 11
45.342796
 21
-58.446045
 31
0.0
  0
LINE
  5
264
100
AcDbEntity
  8
EBENE_1
 62
     7
100
AcDbLine
 10
45.342796
 20
-58.446045
 30
0.0
 11
45.765854
 21
-59.123351
 31
0.0
  0
LINE
  5
263
100
AcDbEntity
  8
EBENE_1
 62
     7
100
AcDbLine
 10
45.765854
 20
-59.123351
 30
0.0
 11
46.44316
 21
-59.631158
 31
0.0
  0
LINE
  5
262
100
AcDbEntity
  8
EBENE_1
 62
     7
100
AcDbLine
 10
46.44316
 20
-59.631158
 30
0.0
 11
47.289964
 21
-59.800656
 31
0.0
  0
LINE
  5
261
100
AcDbEntity
  8
EBENE_1
 62
     7
100
AcDbLine
 10
47.289964
 20
-59.800656
 30
0.0
 11
48.136769
 21
-59.631158
 31
0.0
  0
LINE
  5
260
100
AcDbEntity
  8
EBENE_1
 62
     7
100
AcDbLine
 10
48.136769
 20
-59.631158
 30
0.0
 11
48.814075
 21
-59.123351
 31
0.0
  0
LINE
  5
25F
100
AcDbEntity
  8
EBENE_1
 62
     7
100
AcDbLine
 10
48.814075
 20
-59.123351
 30
0.0
 11
49.237132
 21
-58.446045
 31
0.0
  0
LINE
  5
25E
100
AcDbEntity
  8
EBENE_1
 62
     7
100
AcDbLine
 10
49.237132
 20
-58.446045
 30
0.0
 11
49.406631
 21
-57.68399
 31
0.0
  0
LINE
  5
25D
100
AcDbEntity
  8
EBENE_1
 62
     7
100
AcDbLine
 10
51.1843
 20
-57.68399
 30
0.0
 11
51.10024
 21
-56.667687
 31
0.0
  0
LINE
  5
25C
100
AcDbEntity
  8
EBENE_1
 62
     7
100
AcDbLine
 10
51.10024
 20
-56.667687
 30
0.0
 11
50.676493
 21
-55.652072
 31
0.0
  0
LINE
  5
25B
100
AcDbEntity
  8
EBENE_1
 62
     7
100
AcDbLine
 10
50.676493
 20
-55.652072
 30
0.0
 11
50.083937
 21
-54.890017
 31
0.0
  0
LINE
  5
25A
100
AcDbEntity
  8
EBENE_1
 62
     7
100
AcDbLine
 10
50.083937
 20
-54.890017
 30
0.0
 11
49.237132
 21
-54.212712
 31
0.0
  0
LINE
  5
259
100
AcDbEntity
  8
EBENE_1
 62
     7
100
AcDbLine
 10
49.237132
 20
-54.212712
 30
0.0
 11
48.306268
 21
-53.873714
 31
0.0
  0
LINE
  5
258
100
AcDbEntity
  8
EBENE_1
 62
     7
100
AcDbLine
 10
48.306268
 20
-53.873714
 30
0.0
 11
47.96727
 21
-53.789654
 31
0.0
  0
LINE
  5
257
100
AcDbEntity
  8
EBENE_1
 62
     7
100
AcDbLine
 10
45.342796
 20
-54.212712
 30
0.0
 11
45.342796
 21
-54.212712
 31
0.0
  0
LINE
  5
256
100
AcDbEntity
  8
EBENE_1
 62
     7
100
AcDbLine
 10
45.342796
 20
-54.212712
 30
0.0
 11
44.495992
 21
-54.890017
 31
0.0
  0
LINE
  5
255
100
AcDbEntity
  8
EBENE_1
 62
     7
100
AcDbLine
 10
44.495992
 20
-54.890017
 30
0.0
 11
43.903436
 21
-55.652072
 31
0.0
  0
LINE
  5
254
100
AcDbEntity
  8
EBENE_1
 62
     7
100
AcDbLine
 10
43.903436
 20
-55.652072
 30
0.0
 11
43.479689
 21
-56.667687
 31
0.0
  0
LINE
  5
253
100
AcDbEntity
  8
EBENE_1
 62
     7
100
AcDbLine
 10
43.479689
 20
-56.667687
 30
0.0
 11
43.39494
 21
-57.68399
 31
0.0
  0
LINE
  5
252
100
AcDbEntity
  8
EBENE_1
 62
     7
100
AcDbLine
 10
43.39494
 20
-57.68399
 30
0.0
 11
43.479689
 21
-58.700293
 31
0.0
  0
LINE
  5
251
100
AcDbEntity
  8
EBENE_1
 62
     7
100
AcDbLine
 10
43.479689
 20
-58.700293
 30
0.0
 11
43.649188
 21
-58.953852
 31
0.0
  0
LINE
  5
250
100
AcDbEntity
  8
EBENE_1
 62
     7
100
AcDbLine
 10
45.342796
 20
-61.070519
 30
0.0
 11
45.342796
 21
-61.070519
 31
0.0
  0
LINE
  5
24F
100
AcDbEntity
  8
EBENE_1
 62
     7
100
AcDbLine
 10
45.342796
 20
-61.070519
 30
0.0
 11
46.273661
 21
-61.409516
 31
0.0
  0
LINE
  5
24E
100
AcDbEntity
  8
EBENE_1
 62
     7
100
AcDbLine
 10
46.273661
 20
-61.409516
 30
0.0
 11
47.289964
 21
-61.579015
 31
0.0
  0
LINE
  5
24D
100
AcDbEntity
  8
EBENE_1
 62
     7
100
AcDbLine
 10
47.289964
 20
-61.579015
 30
0.0
 11
48.306268
 21
-61.409516
 31
0.0
  0
LINE
  5
24C
100
AcDbEntity
  8
EBENE_1
 62
     7
100
AcDbLine
 10
48.306268
 20
-61.409516
 30
0.0
 11
49.237132
 21
-61.070519
 31
0.0
  0
LINE
  5
24B
100
AcDbEntity
  8
EBENE_1
 62
     7
100
AcDbLine
 10
49.237132
 20
-61.070519
 30
0.0
 11
50.083937
 21
-60.393213
 31
0.0
  0
LINE
  5
24A
100
AcDbEntity
  8
EBENE_1
 62
     7
100
AcDbLine
 10
50.083937
 20
-60.393213
 30
0.0
 11
50.253436
 21
-60.139654
 31
0.0
  0
LINE
  5
249
100
AcDbEntity
  8
EBENE_1
 62
     7
100
AcDbLine
 10
51.1843
 20
-57.68399
 30
0.0
 11
51.1843
 21
-57.68399
 31
0.0
  0
LINE
  5
248
100
AcDbEntity
  8
EBENE_1
 62
     7
100
AcDbLine
 10
47.289964
 20
-57.68399
 30
0.0
 11
53.216907
 21
-57.68399
 31
0.0
  0
LINE
  5
247
100
AcDbEntity
  8
EBENE_1
 62
     7
100
AcDbLine
 10
47.289964
 20
-57.68399
 30
0.0
 11
47.289964
 21
-63.526183
 31
0.0
  0
LINE
  5
246
100
AcDbEntity
  8
EBENE_1
 62
     7
100
AcDbLine
 10
52.877909
 20
-62.42513
 30
0.0
 11
52.200604
 21
-62.42513
 31
0.0
  0
LINE
  5
245
100
AcDbEntity
  8
EBENE_1
 62
     7
100
AcDbLine
 10
52.877909
 20
-62.42513
 30
0.0
 11
54.656268
 21
-60.562712
 31
0.0
  0
LINE
  5
244
100
AcDbEntity
  8
EBENE_1
 62
     7
100
AcDbLine
 10
54.656268
 20
-53.704905
 30
0.0
 11
52.200604
 21
-53.704905
 31
0.0
  0
LINE
  5
243
100
AcDbEntity
  8
EBENE_1
 62
     7
100
AcDbLine
 10
-20.782022
 20
-7.222987
 30
0.0
 11
-20.782022
 21
0.905371
 31
0.0
  0
LINE
  5
242
100
AcDbEntity
  8
EBENE_1
 62
     7
100
AcDbLine
 10
-9.013403
 20
-0.957392
 30
0.0
 11
-9.013403
 21
-0.364491
 31
0.0
  0
LINE
  5
241
100
AcDbEntity
  8
EBENE_1
 62
     7
100
AcDbLine
 10
-16.294785
 20
0.227893
 30
0.0
 11
-13.500812
 21
0.227893
 31
0.0
  0
POLYLINE
  5
23C
100
AcDbEntity
  8
EBENE_1
 62
     7
100
AcDb2dPolyline
 66
     1
 10
0.0
 20
0.0
 30
0.0
 70
     1
  0
VERTEX
  5
23D
100
AcDbEntity
  8
EBENE_1
 62
     7
100
AcDbVertex
100
AcDb2dVertex
 10
-16.294785
 20
0.989948
 30
0.0
  0
VERTEX
  5
23E
100
AcDbEntity
  8
EBENE_1
 62
     7
100
AcDbVertex
100
AcDb2dVertex
 10
-16.294785
 20
-0.53399
 30
0.0
  0
VERTEX
  5
23F
100
AcDbEntity
  8
EBENE_1
 62
     7
100
AcDbVertex
100
AcDb2dVertex
 10
-20.782022
 20
0.227893
 30
0.0
  0
SEQEND
  5
240
100
AcDbEntity
  8
EBENE_1
 62
     7
  0
HATCH
  5
23B
100
AcDbEntity
  8
EBENE_1
 62
     7
100
AcDbHatch
 10
0.0
 20
0.0
 30
0.0
210
0.0
220
0.0
230
1.0
  2
SOLID
 70
     1
 71
     0
 91
        1
 92
        3
 72
     0
 73
     1
 93
        3
 10
-16.294784884982636
 20
0.9899481879340277
 10
-16.294784884982636
 20
-0.5339898003472222
 10
-20.782021755642358
 20
0.22789306640625
 97
        0
 75
     0
 76
     1
 98
        1
 10
0.0
 20
0.0
  0
POLYLINE
  5
236
100
AcDbEntity
  8
EBENE_1
 62
     7
100
AcDb2dPolyline
 66
     1
 10
0.0
 20
0.0
 30
0.0
 70
     1
  0
VERTEX
  5
237
100
AcDbEntity
  8
EBENE_1
 62
     7
100
AcDbVertex
100
AcDb2dVertex
 10
-13.500812
 20
0.989948
 30
0.0
  0
VERTEX
  5
238
100
AcDbEntity
  8
EBENE_1
 62
     7
100
AcDbVertex
100
AcDb2dVertex
 10
-13.500812
 20
-0.53399
 30
0.0
  0
VERTEX
  5
239
100
AcDbEntity
  8
EBENE_1
 62
     7
100
AcDbVertex
100
AcDb2dVertex
 10
-9.013403
 20
0.227893
 30
0.0
  0
SEQEND
  5
23A
100
AcDbEntity
  8
EBENE_1
 62
     7
  0
HATCH
  5
235
100
AcDbEntity
  8
EBENE_1
 62
     7
100
AcDbHatch
 10
0.0
 20
0.0
 30
0.0
210
0.0
220
0.0
230
1.0
  2
SOLID
 70
     1
 71
     0
 91
        1
 92
        3
 72
     0
 73
     1
 93
        3
 10
-13.500812445746526
 20
0.9899481879340277
 10
-13.500812445746526
 20
-0.5339898003472222
 10
-9.0134033203124986
 20
0.22789306640625
 97
        0
 75
     0
 76
     1
 98
        1
 10
0.0
 20
0.0
  0
LINE
  5
234
100
AcDbEntity
  8
EBENE_1
 62
     7
100
AcDbLine
 10
-17.734146
 20
5.138704
 30
0.0
 11
-17.395321
 21
5.392608
 31
0.0
  0
LINE
  5
233
100
AcDbEntity
  8
EBENE_1
 62
     7
100
AcDbLine
 10
-17.395321
 20
5.392608
 30
0.0
 11
-16.802764
 21
5.985337
 31
0.0
  0
LINE
  5
232
100
AcDbEntity
  8
EBENE_1
 62
     7
100
AcDbLine
 10
-16.802764
 20
5.985337
 30
0.0
 11
-16.802764
 21
1.497928
 31
0.0
  0
LINE
  5
231
100
AcDbEntity
  8
EBENE_1
 62
     7
100
AcDbLine
 10
-14.516771
 20
4.969378
 30
0.0
 11
-14.516771
 21
5.138704
 31
0.0
  0
LINE
  5
230
100
AcDbEntity
  8
EBENE_1
 62
     7
100
AcDbLine
 10
-14.516771
 20
5.138704
 30
0.0
 11
-14.347445
 21
5.561934
 31
0.0
  0
LINE
  5
22F
100
AcDbEntity
  8
EBENE_1
 62
     7
100
AcDbLine
 10
-14.347445
 20
5.561934
 30
0.0
 11
-14.093369
 21
5.81601
 31
0.0
  0
LINE
  5
22E
100
AcDbEntity
  8
EBENE_1
 62
     7
100
AcDbLine
 10
-14.093369
 20
5.81601
 30
0.0
 11
-13.754716
 21
5.985337
 31
0.0
  0
LINE
  5
22D
100
AcDbEntity
  8
EBENE_1
 62
     7
100
AcDbLine
 10
-13.754716
 20
5.985337
 30
0.0
 11
-12.992661
 21
5.985337
 31
0.0
  0
LINE
  5
22C
100
AcDbEntity
  8
EBENE_1
 62
     7
100
AcDbLine
 10
-12.992661
 20
5.985337
 30
0.0
 11
-12.569431
 21
5.81601
 31
0.0
  0
LINE
  5
22B
100
AcDbEntity
  8
EBENE_1
 62
     7
100
AcDbLine
 10
-12.569431
 20
5.81601
 30
0.0
 11
-12.400104
 21
5.561934
 31
0.0
  0
LINE
  5
22A
100
AcDbEntity
  8
EBENE_1
 62
     7
100
AcDbLine
 10
-12.400104
 20
5.561934
 30
0.0
 11
-12.230778
 21
5.138704
 31
0.0
  0
LINE
  5
229
100
AcDbEntity
  8
EBENE_1
 62
     7
100
AcDbLine
 10
-12.230778
 20
5.138704
 30
0.0
 11
-12.230778
 21
4.715302
 31
0.0
  0
LINE
  5
228
100
AcDbEntity
  8
EBENE_1
 62
     7
100
AcDbLine
 10
-12.230778
 20
4.715302
 30
0.0
 11
-12.400104
 21
4.2919
 31
0.0
  0
LINE
  5
227
100
AcDbEntity
  8
EBENE_1
 62
     7
100
AcDbLine
 10
-12.400104
 20
4.2919
 30
0.0
 11
-12.738757
 21
3.614594
 31
0.0
  0
LINE
  5
226
100
AcDbEntity
  8
EBENE_1
 62
     7
100
AcDbLine
 10
-12.738757
 20
3.614594
 30
0.0
 11
-14.686098
 21
1.497928
 31
0.0
  0
LINE
  5
225
100
AcDbEntity
  8
EBENE_1
 62
     7
100
AcDbLine
 10
-14.686098
 20
1.497928
 30
0.0
 11
-11.976702
 21
1.497928
 31
0.0
  0
LINE
  5
224
100
AcDbEntity
  8
EBENE_1
 62
     7
100
AcDbLine
 10
-20.782022
 20
-8.492849
 30
0.0
 11
-9.013403
 21
-8.492849
 31
0.0
  0
LINE
  5
223
100
AcDbEntity
  8
EBENE_1
 62
     7
100
AcDbLine
 10
-20.104716
 20
16.314594
 30
0.0
 11
-20.104716
 21
26.136045
 31
0.0
  0
LINE
  5
222
100
AcDbEntity
  8
EBENE_1
 62
     7
100
AcDbLine
 10
-24.338049
 20
16.314594
 30
0.0
 11
-24.338049
 21
26.136045
 31
0.0
  0
LINE
  5
221
100
AcDbEntity
  8
EBENE_1
 62
     7
100
AcDbLine
 10
-15.702056
 20
25.543316
 30
0.0
 11
-11.214819
 21
25.543316
 31
0.0
  0
LINE
  5
220
100
AcDbEntity
  8
EBENE_1
 62
     7
100
AcDbLine
 10
-28.825458
 20
25.543316
 30
0.0
 11
-33.312695
 21
25.543316
 31
0.0
  0
LINE
  5
21F
100
AcDbEntity
  8
EBENE_1
 62
     7
100
AcDbLine
 10
-20.104716
 20
25.543316
 30
0.0
 11
-24.338049
 21
25.543316
 31
0.0
  0
POLYLINE
  5
21A
100
AcDbEntity
  8
EBENE_1
 62
     7
100
AcDb2dPolyline
 66
     1
 10
0.0
 20
0.0
 30
0.0
 70
     1
  0
VERTEX
  5
21B
100
AcDbEntity
  8
EBENE_1
 62
     7
100
AcDbVertex
100
AcDb2dVertex
 10
-15.702056
 20
26.220622
 30
0.0
  0
VERTEX
  5
21C
100
AcDbEntity
  8
EBENE_1
 62
     7
100
AcDbVertex
100
AcDb2dVertex
 10
-15.702056
 20
24.781261
 30
0.0
  0
VERTEX
  5
21D
100
AcDbEntity
  8
EBENE_1
 62
     7
100
AcDbVertex
100
AcDb2dVertex
 10
-20.104716
 20
25.543316
 30
0.0
  0
SEQEND
  5
21E
100
AcDbEntity
  8
EBENE_1
 62
     7
  0
HATCH
  5
219
100
AcDbEntity
  8
EBENE_1
 62
     7
100
AcDbHatch
 10
0.0
 20
0.0
 30
0.0
210
0.0
220
0.0
230
1.0
  2
SOLID
 70
     1
 71
     0
 91
        1
 92
        3
 72
     0
 73
     1
 93
        3
 10
-15.70205620659722
 20
26.220621744791664
 10
-15.70205620659722
 20
24.781260850694441
 10
-20.104715983072914
 20
25.543315972222221
 97
        0
 75
     0
 76
     1
 98
        1
 10
0.0
 20
0.0
  0
POLYLINE
  5
214
100
AcDbEntity
  8
EBENE_1
 62
     7
100
AcDb2dPolyline
 66
     1
 10
0.0
 20
0.0
 30
0.0
 70
     1
  0
VERTEX
  5
215
100
AcDbEntity
  8
EBENE_1
 62
     7
100
AcDbVertex
100
AcDb2dVertex
 10
-28.825458
 20
26.220622
 30
0.0
  0
VERTEX
  5
216
100
AcDbEntity
  8
EBENE_1
 62
     7
100
AcDbVertex
100
AcDb2dVertex
 10
-28.825458
 20
24.781261
 30
0.0
  0
VERTEX
  5
217
100
AcDbEntity
  8
EBENE_1
 62
     7
100
AcDbVertex
100
AcDb2dVertex
 10
-24.338049
 20
25.543316
 30
0.0
  0
SEQEND
  5
218
100
AcDbEntity
  8
EBENE_1
 62
     7
  0
HATCH
  5
213
100
AcDbEntity
  8
EBENE_1
 62
     7
100
AcDbHatch
 10
0.0
 20
0.0
 30
0.0
210
0.0
220
0.0
230
1.0
  2
SOLID
 70
     1
 71
     0
 91
        1
 92
        3
 72
     0
 73
     1
 93
        3
 10
-28.825458441840276
 20
26.220621744791664
 10
-28.825458441840276
 20
24.781260850694441
 10
-24.338049316406249
 20
25.543315972222221
 97
        0
 75
     0
 76
     1
 98
        1
 10
0.0
 20
0.0
  0
LINE
  5
212
100
AcDbEntity
  8
EBENE_1
 62
     7
100
AcDbLine
 10
-27.301348
 20
30.369378
 30
0.0
 11
-27.72475
 21
30.199879
 31
0.0
  0
LINE
  5
211
100
AcDbEntity
  8
EBENE_1
 62
     7
100
AcDbLine
 10
-27.72475
 20
30.199879
 30
0.0
 11
-28.063403
 21
29.776649
 31
0.0
  0
LINE
  5
210
100
AcDbEntity
  8
EBENE_1
 62
     7
100
AcDbLine
 10
-28.063403
 20
29.776649
 30
0.0
 11
-28.317479
 21
29.099344
 31
0.0
  0
LINE
  5
20F
100
AcDbEntity
  8
EBENE_1
 62
     7
100
AcDbLine
 10
-28.317479
 20
29.099344
 30
0.0
 11
-28.317479
 21
28.675941
 31
0.0
  0
LINE
  5
20E
100
AcDbEntity
  8
EBENE_1
 62
     7
100
AcDbLine
 10
-28.317479
 20
28.675941
 30
0.0
 11
-28.063403
 21
28.083213
 31
0.0
  0
LINE
  5
20D
100
AcDbEntity
  8
EBENE_1
 62
     7
100
AcDbLine
 10
-28.063403
 20
28.083213
 30
0.0
 11
-27.72475
 21
27.659983
 31
0.0
  0
LINE
  5
20C
100
AcDbEntity
  8
EBENE_1
 62
     7
100
AcDbLine
 10
-27.72475
 20
27.659983
 30
0.0
 11
-27.301348
 21
27.405907
 31
0.0
  0
LINE
  5
20B
100
AcDbEntity
  8
EBENE_1
 62
     7
100
AcDbLine
 10
-27.301348
 20
27.405907
 30
0.0
 11
-26.793369
 21
27.405907
 31
0.0
  0
LINE
  5
20A
100
AcDbEntity
  8
EBENE_1
 62
     7
100
AcDbLine
 10
-26.793369
 20
27.405907
 30
0.0
 11
-26.370139
 21
27.659983
 31
0.0
  0
LINE
  5
209
100
AcDbEntity
  8
EBENE_1
 62
     7
100
AcDbLine
 10
-26.370139
 20
27.659983
 30
0.0
 11
-26.031486
 21
28.083213
 31
0.0
  0
LINE
  5
208
100
AcDbEntity
  8
EBENE_1
 62
     7
100
AcDbLine
 10
-26.031486
 20
28.083213
 30
0.0
 11
-25.77741
 21
28.675941
 31
0.0
  0
LINE
  5
207
100
AcDbEntity
  8
EBENE_1
 62
     7
100
AcDbLine
 10
-25.77741
 20
28.675941
 30
0.0
 11
-25.77741
 21
29.099344
 31
0.0
  0
LINE
  5
206
100
AcDbEntity
  8
EBENE_1
 62
     7
100
AcDbLine
 10
-25.77741
 20
29.099344
 30
0.0
 11
-26.031486
 21
29.776649
 31
0.0
  0
LINE
  5
205
100
AcDbEntity
  8
EBENE_1
 62
     7
100
AcDbLine
 10
-26.031486
 20
29.776649
 30
0.0
 11
-26.370139
 21
30.199879
 31
0.0
  0
LINE
  5
204
100
AcDbEntity
  8
EBENE_1
 62
     7
100
AcDbLine
 10
-26.370139
 20
30.199879
 30
0.0
 11
-26.793369
 21
30.369378
 31
0.0
  0
LINE
  5
203
100
AcDbEntity
  8
EBENE_1
 62
     7
100
AcDbLine
 10
-26.793369
 20
30.369378
 30
0.0
 11
-27.301348
 21
30.369378
 31
0.0
  0
LINE
  5
202
100
AcDbEntity
  8
EBENE_1
 62
     7
100
AcDbLine
 10
-26.200812
 20
31.046684
 30
0.0
 11
-27.894077
 21
26.81335
 31
0.0
  0
LINE
  5
201
100
AcDbEntity
  8
EBENE_1
 62
     7
100
AcDbLine
 10
-22.729362
 20
31.21601
 30
0.0
 11
-24.676702
 21
28.252711
 31
0.0
  0
LINE
  5
200
100
AcDbEntity
  8
EBENE_1
 62
     7
100
AcDbLine
 10
-24.676702
 20
28.252711
 30
0.0
 11
-21.79798
 21
28.252711
 31
0.0
  0
LINE
  5
1FF
100
AcDbEntity
  8
EBENE_1
 62
     7
100
AcDbLine
 10
-22.729362
 20
31.21601
 30
0.0
 11
-22.729362
 21
26.81335
 31
0.0
  0
LINE
  5
1FE
100
AcDbEntity
  8
EBENE_1
 62
     7
100
AcDbLine
 10
-20.612695
 20
27.23658
 30
0.0
 11
-20.782022
 21
26.982677
 31
0.0
  0
LINE
  5
1FD
100
AcDbEntity
  8
EBENE_1
 62
     7
100
AcDbLine
 10
-20.782022
 20
26.982677
 30
0.0
 11
-20.612695
 21
26.81335
 31
0.0
  0
LINE
  5
1FC
100
AcDbEntity
  8
EBENE_1
 62
     7
100
AcDbLine
 10
-20.612695
 20
26.81335
 30
0.0
 11
-20.443369
 21
26.982677
 31
0.0
  0
LINE
  5
1FB
100
AcDbEntity
  8
EBENE_1
 62
     7
100
AcDbLine
 10
-18.496029
 20
31.21601
 30
0.0
 11
-16.379362
 21
31.21601
 31
0.0
  0
LINE
  5
1FA
100
AcDbEntity
  8
EBENE_1
 62
     7
100
AcDbLine
 10
-16.379362
 20
31.21601
 30
0.0
 11
-17.564819
 21
29.522574
 31
0.0
  0
LINE
  5
1F9
100
AcDbEntity
  8
EBENE_1
 62
     7
100
AcDbLine
 10
-17.564819
 20
29.522574
 30
0.0
 11
-16.972091
 21
29.522574
 31
0.0
  0
LINE
  5
1F8
100
AcDbEntity
  8
EBENE_1
 62
     7
100
AcDbLine
 10
-16.972091
 20
29.522574
 30
0.0
 11
-16.633438
 21
29.353247
 31
0.0
  0
LINE
  5
1F7
100
AcDbEntity
  8
EBENE_1
 62
     7
100
AcDbLine
 10
-16.633438
 20
29.353247
 30
0.0
 11
-16.379362
 21
29.099344
 31
0.0
  0
LINE
  5
1F6
100
AcDbEntity
  8
EBENE_1
 62
     7
100
AcDbLine
 10
-16.379362
 20
29.099344
 30
0.0
 11
-16.210036
 21
28.506615
 31
0.0
  0
LINE
  5
1F5
100
AcDbEntity
  8
EBENE_1
 62
     7
100
AcDbLine
 10
-16.210036
 20
28.506615
 30
0.0
 11
-16.210036
 21
28.083213
 31
0.0
  0
LINE
  5
1F4
100
AcDbEntity
  8
EBENE_1
 62
     7
100
AcDbLine
 10
-16.210036
 20
28.083213
 30
0.0
 11
-16.379362
 21
27.405907
 31
0.0
  0
LINE
  5
1F3
100
AcDbEntity
  8
EBENE_1
 62
     7
100
AcDbLine
 10
-16.379362
 20
27.405907
 30
0.0
 11
-16.802764
 21
26.982677
 31
0.0
  0
LINE
  5
1F2
100
AcDbEntity
  8
EBENE_1
 62
     7
100
AcDbLine
 10
-16.802764
 20
26.982677
 30
0.0
 11
-17.395321
 21
26.81335
 31
0.0
  0
LINE
  5
1F1
100
AcDbEntity
  8
EBENE_1
 62
     7
100
AcDbLine
 10
-17.395321
 20
26.81335
 30
0.0
 11
-17.988049
 21
26.81335
 31
0.0
  0
LINE
  5
1F0
100
AcDbEntity
  8
EBENE_1
 62
     7
100
AcDbLine
 10
-17.988049
 20
26.81335
 30
0.0
 11
-18.496029
 21
26.982677
 31
0.0
  0
LINE
  5
1EF
100
AcDbEntity
  8
EBENE_1
 62
     7
100
AcDbLine
 10
-18.496029
 20
26.982677
 30
0.0
 11
-18.750104
 21
27.23658
 31
0.0
  0
LINE
  5
1EE
100
AcDbEntity
  8
EBENE_1
 62
     7
100
AcDbLine
 10
-18.750104
 20
27.23658
 30
0.0
 11
-18.919431
 21
27.659983
 31
0.0
  0
LINE
  5
1ED
100
AcDbEntity
  8
EBENE_1
 62
     7
100
AcDbLine
 10
-22.221383
 20
15.04456
 30
0.0
 11
-28.148153
 21
15.04456
 31
0.0
  0
LINE
  5
1EC
100
AcDbEntity
  8
EBENE_1
 62
     7
100
AcDbLine
 10
-20.104716
 20
15.04456
 30
0.0
 11
-20.274042
 21
15.891364
 31
0.0
  0
LINE
  5
1EB
100
AcDbEntity
  8
EBENE_1
 62
     7
100
AcDbLine
 10
-20.274042
 20
15.891364
 30
0.0
 11
-20.782022
 21
16.56867
 31
0.0
  0
LINE
  5
1EA
100
AcDbEntity
  8
EBENE_1
 62
     7
100
AcDbLine
 10
-20.782022
 20
16.56867
 30
0.0
 11
-21.459328
 21
16.9919
 31
0.0
  0
LINE
  5
1E9
100
AcDbEntity
  8
EBENE_1
 62
     7
100
AcDbLine
 10
-21.459328
 20
16.9919
 30
0.0
 11
-22.221383
 21
17.161226
 31
0.0
  0
LINE
  5
1E8
100
AcDbEntity
  8
EBENE_1
 62
     7
100
AcDbLine
 10
-22.221383
 20
17.161226
 30
0.0
 11
-23.068015
 21
16.9919
 31
0.0
  0
LINE
  5
1E7
100
AcDbEntity
  8
EBENE_1
 62
     7
100
AcDbLine
 10
-23.068015
 20
16.9919
 30
0.0
 11
-23.745321
 21
16.56867
 31
0.0
  0
LINE
  5
1E6
100
AcDbEntity
  8
EBENE_1
 62
     7
100
AcDbLine
 10
-23.745321
 20
16.56867
 30
0.0
 11
-24.168723
 21
15.891364
 31
0.0
  0
LINE
  5
1E5
100
AcDbEntity
  8
EBENE_1
 62
     7
100
AcDbLine
 10
-24.168723
 20
15.891364
 30
0.0
 11
-24.338049
 21
15.04456
 31
0.0
  0
LINE
  5
1E4
100
AcDbEntity
  8
EBENE_1
 62
     7
100
AcDbLine
 10
-24.338049
 20
15.04456
 30
0.0
 11
-24.168723
 21
14.282677
 31
0.0
  0
LINE
  5
1E3
100
AcDbEntity
  8
EBENE_1
 62
     7
100
AcDbLine
 10
-24.168723
 20
14.282677
 30
0.0
 11
-23.745321
 21
13.605371
 31
0.0
  0
LINE
  5
1E2
100
AcDbEntity
  8
EBENE_1
 62
     7
100
AcDbLine
 10
-23.745321
 20
13.605371
 30
0.0
 11
-23.068015
 21
13.097392
 31
0.0
  0
LINE
  5
1E1
100
AcDbEntity
  8
EBENE_1
 62
     7
100
AcDbLine
 10
-23.068015
 20
13.097392
 30
0.0
 11
-22.221383
 21
12.927893
 31
0.0
  0
LINE
  5
1E0
100
AcDbEntity
  8
EBENE_1
 62
     7
100
AcDbLine
 10
-22.221383
 20
12.927893
 30
0.0
 11
-21.459328
 21
13.097392
 31
0.0
  0
LINE
  5
1DF
100
AcDbEntity
  8
EBENE_1
 62
     7
100
AcDbLine
 10
-21.459328
 20
13.097392
 30
0.0
 11
-20.782022
 21
13.605371
 31
0.0
  0
LINE
  5
1DE
100
AcDbEntity
  8
EBENE_1
 62
     7
100
AcDbLine
 10
-20.782022
 20
13.605371
 30
0.0
 11
-20.274042
 21
14.282677
 31
0.0
  0
LINE
  5
1DD
100
AcDbEntity
  8
EBENE_1
 62
     7
100
AcDbLine
 10
-20.274042
 20
14.282677
 30
0.0
 11
-20.104716
 21
15.04456
 31
0.0
  0
LINE
  5
1DC
100
AcDbEntity
  8
EBENE_1
 62
     7
100
AcDbLine
 10
-18.326702
 20
15.04456
 30
0.0
 11
-18.496029
 21
16.060691
 31
0.0
  0
LINE
  5
1DB
100
AcDbEntity
  8
EBENE_1
 62
     7
100
AcDbLine
 10
-18.496029
 20
16.060691
 30
0.0
 11
-18.834682
 21
16.9919
 31
0.0
  0
LINE
  5
1DA
100
AcDbEntity
  8
EBENE_1
 62
     7
100
AcDbLine
 10
-18.834682
 20
16.9919
 30
0.0
 11
-19.511987
 21
17.838704
 31
0.0
  0
LINE
  5
1D9
100
AcDbEntity
  8
EBENE_1
 62
     7
100
AcDbLine
 10
-19.511987
 20
17.838704
 30
0.0
 11
-20.274042
 21
18.431261
 31
0.0
  0
LINE
  5
1D8
100
AcDbEntity
  8
EBENE_1
 62
     7
100
AcDbLine
 10
-20.274042
 20
18.431261
 30
0.0
 11
-21.205424
 21
18.854663
 31
0.0
  0
LINE
  5
1D7
100
AcDbEntity
  8
EBENE_1
 62
     7
100
AcDbLine
 10
-21.205424
 20
18.854663
 30
0.0
 11
-22.221383
 21
19.02399
 31
0.0
  0
LINE
  5
1D6
100
AcDbEntity
  8
EBENE_1
 62
     7
100
AcDbLine
 10
-22.221383
 20
19.02399
 30
0.0
 11
-23.237341
 21
18.854663
 31
0.0
  0
LINE
  5
1D5
100
AcDbEntity
  8
EBENE_1
 62
     7
100
AcDbLine
 10
-23.237341
 20
18.854663
 30
0.0
 11
-24.253472
 21
18.431261
 31
0.0
  0
LINE
  5
1D4
100
AcDbEntity
  8
EBENE_1
 62
     7
100
AcDbLine
 10
-24.253472
 20
18.431261
 30
0.0
 11
-25.015355
 21
17.838704
 31
0.0
  0
LINE
  5
1D3
100
AcDbEntity
  8
EBENE_1
 62
     7
100
AcDbLine
 10
-25.015355
 20
17.838704
 30
0.0
 11
-25.692661
 21
16.9919
 31
0.0
  0
LINE
  5
1D2
100
AcDbEntity
  8
EBENE_1
 62
     7
100
AcDbLine
 10
-25.692661
 20
16.9919
 30
0.0
 11
-26.031486
 21
16.060691
 31
0.0
  0
LINE
  5
1D1
100
AcDbEntity
  8
EBENE_1
 62
     7
100
AcDbLine
 10
-26.031486
 20
16.060691
 30
0.0
 11
-26.200812
 21
15.04456
 31
0.0
  0
LINE
  5
1D0
100
AcDbEntity
  8
EBENE_1
 62
     7
100
AcDbLine
 10
-26.200812
 20
15.04456
 30
0.0
 11
-26.031486
 21
14.028601
 31
0.0
  0
LINE
  5
1CF
100
AcDbEntity
  8
EBENE_1
 62
     7
100
AcDbLine
 10
-26.031486
 20
14.028601
 30
0.0
 11
-25.692661
 21
13.097392
 31
0.0
  0
LINE
  5
1CE
100
AcDbEntity
  8
EBENE_1
 62
     7
100
AcDbLine
 10
-25.692661
 20
13.097392
 30
0.0
 11
-25.015355
 21
12.250587
 31
0.0
  0
LINE
  5
1CD
100
AcDbEntity
  8
EBENE_1
 62
     7
100
AcDbLine
 10
-25.015355
 20
12.250587
 30
0.0
 11
-24.253472
 21
11.658031
 31
0.0
  0
LINE
  5
1CC
100
AcDbEntity
  8
EBENE_1
 62
     7
100
AcDbLine
 10
-24.253472
 20
11.658031
 30
0.0
 11
-23.237341
 21
11.234629
 31
0.0
  0
LINE
  5
1CB
100
AcDbEntity
  8
EBENE_1
 62
     7
100
AcDbLine
 10
-23.237341
 20
11.234629
 30
0.0
 11
-22.221383
 21
11.149879
 31
0.0
  0
LINE
  5
1CA
100
AcDbEntity
  8
EBENE_1
 62
     7
100
AcDbLine
 10
-22.221383
 20
11.149879
 30
0.0
 11
-21.205424
 21
11.234629
 31
0.0
  0
LINE
  5
1C9
100
AcDbEntity
  8
EBENE_1
 62
     7
100
AcDbLine
 10
-21.205424
 20
11.234629
 30
0.0
 11
-20.274042
 21
11.658031
 31
0.0
  0
LINE
  5
1C8
100
AcDbEntity
  8
EBENE_1
 62
     7
100
AcDbLine
 10
-20.274042
 20
11.658031
 30
0.0
 11
-19.511987
 21
12.250587
 31
0.0
  0
LINE
  5
1C7
100
AcDbEntity
  8
EBENE_1
 62
     7
100
AcDbLine
 10
-19.511987
 20
12.250587
 30
0.0
 11
-18.834682
 21
13.097392
 31
0.0
  0
LINE
  5
1C6
100
AcDbEntity
  8
EBENE_1
 62
     7
100
AcDbLine
 10
-18.834682
 20
13.097392
 30
0.0
 11
-18.496029
 21
14.028601
 31
0.0
  0
LINE
  5
1C5
100
AcDbEntity
  8
EBENE_1
 62
     7
100
AcDbLine
 10
-18.496029
 20
14.028601
 30
0.0
 11
-18.326702
 21
15.04456
 31
0.0
  0
LINE
  5
1C4
100
AcDbEntity
  8
EBENE_1
 62
     7
100
AcDbLine
 10
-22.221383
 20
15.04456
 30
0.0
 11
-22.221383
 21
20.97133
 31
0.0
  0
LINE
  5
1C3
100
AcDbEntity
  8
EBENE_1
 62
     7
100
AcDbLine
 10
-22.221383
 20
15.04456
 30
0.0
 11
-22.221383
 21
9.202711
 31
0.0
  0
LINE
  5
1C2
100
AcDbEntity
  8
EBENE_1
 62
     7
100
AcDbLine
 10
-22.221383
 20
15.04456
 30
0.0
 11
-16.379362
 21
15.04456
 31
0.0
  0
LINE
  5
1C1
100
AcDbEntity
  8
EBENE_1
 62
     7
100
AcDbLine
 10
54.656268
 20
-8.492849
 30
0.0
 11
52.200604
 21
-8.492849
 31
0.0
  0
LINE
  5
1C0
100
AcDbEntity
  8
EBENE_1
 62
     7
100
AcDbLine
 10
57.61905
 20
15.04456
 30
0.0
 11
49.237132
 21
15.04456
 31
0.0
  0
LINE
  5
1BF
100
AcDbEntity
  8
EBENE_1
 62
     7
100
AcDbLine
 10
52.877909
 20
12.927893
 30
0.0
 11
52.877909
 21
17.161226
 31
0.0
  0
LINE
  5
1BE
100
AcDbEntity
  8
EBENE_1
 62
     7
100
AcDbLine
 10
52.877909
 20
12.927893
 30
0.0
 11
52.200604
 21
12.927893
 31
0.0
  0
LINE
  5
1BD
100
AcDbEntity
  8
EBENE_1
 62
     7
100
AcDbLine
 10
52.877909
 20
12.927893
 30
0.0
 11
54.656268
 21
11.149879
 31
0.0
  0
LINE
  5
1BC
100
AcDbEntity
  8
EBENE_1
 62
     7
100
AcDbLine
 10
52.877909
 20
17.161226
 30
0.0
 11
52.200604
 21
17.161226
 31
0.0
  0
LINE
  5
1BB
100
AcDbEntity
  8
EBENE_1
 62
     7
100
AcDbLine
 10
52.877909
 20
17.161226
 30
0.0
 11
54.656268
 21
19.02399
 31
0.0
  0
LINE
  5
1BA
100
AcDbEntity
  8
EBENE_1
 62
     7
100
AcDbLine
 10
-7.743369
 20
54.330017
 30
0.0
 11
11.052383
 21
54.330017
 31
0.0
  0
LINE
  5
1B9
100
AcDbEntity
  8
EBENE_1
 62
     7
100
AcDbLine
 10
-7.743369
 20
99.5419
 30
0.0
 11
11.052383
 21
99.5419
 31
0.0
  0
LINE
  5
1B8
100
AcDbEntity
  8
EBENE_1
 62
     7
100
AcDbLine
 10
10.375077
 20
58.817254
 30
0.0
 11
10.375077
 21
95.13924
 31
0.0
  0
POLYLINE
  5
1B3
100
AcDbEntity
  8
EBENE_1
 62
     7
100
AcDb2dPolyline
 66
     1
 10
0.0
 20
0.0
 30
0.0
 70
     1
  0
VERTEX
  5
1B4
100
AcDbEntity
  8
EBENE_1
 62
     7
100
AcDbVertex
100
AcDb2dVertex
 10
9.613022
 20
58.817254
 30
0.0
  0
VERTEX
  5
1B5
100
AcDbEntity
  8
EBENE_1
 62
     7
100
AcDbVertex
100
AcDb2dVertex
 10
11.137132
 20
58.817254
 30
0.0
  0
VERTEX
  5
1B6
100
AcDbEntity
  8
EBENE_1
 62
     7
100
AcDbVertex
100
AcDb2dVertex
 10
10.375077
 20
54.330017
 30
0.0
  0
SEQEND
  5
1B7
100
AcDbEntity
  8
EBENE_1
 62
     7
  0
HATCH
  5
1B2
100
AcDbEntity
  8
EBENE_1
 62
     7
100
AcDbHatch
 10
0.0
 20
0.0
 30
0.0
210
0.0
220
0.0
230
1.0
  2
SOLID
 70
     1
 71
     0
 91
        1
 92
        3
 72
     0
 73
     1
 93
        3
 10
9.6130221896701382
 20
58.817253960503464
 10
11.137132432725693
 20
58.817253960503464
 10
10.375077311197916
 20
54.330017089843743
 97
        0
 75
     0
 76
     1
 98
        1
 10
0.0
 20
0.0
  0
POLYLINE
  5
1AD
100
AcDbEntity
  8
EBENE_1
 62
     7
100
AcDb2dPolyline
 66
     1
 10
0.0
 20
0.0
 30
0.0
 70
     1
  0
VERTEX
  5
1AE
100
AcDbEntity
  8
EBENE_1
 62
     7
100
AcDbVertex
100
AcDb2dVertex
 10
9.613022
 20
95.13924
 30
0.0
  0
VERTEX
  5
1AF
100
AcDbEntity
  8
EBENE_1
 62
     7
100
AcDbVertex
100
AcDb2dVertex
 10
11.137132
 20
95.13924
 30
0.0
  0
VERTEX
  5
1B0
100
AcDbEntity
  8
EBENE_1
 62
     7
100
AcDbVertex
100
AcDb2dVertex
 10
10.375077
 20
99.5419
 30
0.0
  0
SEQEND
  5
1B1
100
AcDbEntity
  8
EBENE_1
 62
     7
  0
HATCH
  5
1AC
100
AcDbEntity
  8
EBENE_1
 62
     7
100
AcDbHatch
 10
0.0
 20
0.0
 30
0.0
210
0.0
220
0.0
230
1.0
  2
SOLID
 70
     1
 71
     0
 91
        1
 92
        3
 72
     0
 73
     1
 93
        3
 10
9.6130221896701382
 20
95.139240180121519
 10
11.137132432725693
 20
95.139240180121519
 10
10.375077311197916
 20
99.54189995659722
 97
        0
 75
     0
 76
     1
 98
        1
 10
0.0
 20
0.0
  0
LINE
  5
1AB
100
AcDbEntity
  8
EBENE_1
 62
     7
100
AcDbLine
 10
4.617978
 20
75.750587
 30
0.0
 11
7.581105
 21
73.803247
 31
0.0
  0
LINE
  5
1AA
100
AcDbEntity
  8
EBENE_1
 62
     7
100
AcDbLine
 10
7.581105
 20
73.803247
 30
0.0
 11
7.581105
 21
76.681969
 31
0.0
  0
LINE
  5
1A9
100
AcDbEntity
  8
EBENE_1
 62
     7
100
AcDbLine
 10
4.617978
 20
75.750587
 30
0.0
 11
9.105215
 21
75.750587
 31
0.0
  0
LINE
  5
1A8
100
AcDbEntity
  8
EBENE_1
 62
     7
100
AcDbLine
 10
5.295284
 20
79.899344
 30
0.0
 11
4.871882
 21
79.730017
 31
0.0
  0
LINE
  5
1A7
100
AcDbEntity
  8
EBENE_1
 62
     7
100
AcDbLine
 10
4.871882
 20
79.730017
 30
0.0
 11
4.617978
 21
79.137288
 31
0.0
  0
LINE
  5
1A6
100
AcDbEntity
  8
EBENE_1
 62
     7
100
AcDbLine
 10
4.617978
 20
79.137288
 30
0.0
 11
4.617978
 21
78.798636
 31
0.0
  0
LINE
  5
1A5
100
AcDbEntity
  8
EBENE_1
 62
     7
100
AcDbLine
 10
4.617978
 20
78.798636
 30
0.0
 11
4.871882
 21
78.205907
 31
0.0
  0
LINE
  5
1A4
100
AcDbEntity
  8
EBENE_1
 62
     7
100
AcDbLine
 10
4.871882
 20
78.205907
 30
0.0
 11
5.464438
 21
77.867254
 31
0.0
  0
LINE
  5
1A3
100
AcDbEntity
  8
EBENE_1
 62
     7
100
AcDbLine
 10
5.464438
 20
77.867254
 30
0.0
 11
6.565491
 21
77.61335
 31
0.0
  0
LINE
  5
1A2
100
AcDbEntity
  8
EBENE_1
 62
     7
100
AcDbLine
 10
6.565491
 20
77.61335
 30
0.0
 11
7.581105
 21
77.61335
 31
0.0
  0
LINE
  5
1A1
100
AcDbEntity
  8
EBENE_1
 62
     7
100
AcDbLine
 10
7.581105
 20
77.61335
 30
0.0
 11
8.427909
 21
77.867254
 31
0.0
  0
LINE
  5
1A0
100
AcDbEntity
  8
EBENE_1
 62
     7
100
AcDbLine
 10
8.427909
 20
77.867254
 30
0.0
 11
8.851312
 21
78.205907
 31
0.0
  0
LINE
  5
19F
100
AcDbEntity
  8
EBENE_1
 62
     7
100
AcDbLine
 10
8.851312
 20
78.205907
 30
0.0
 11
9.105215
 21
78.798636
 31
0.0
  0
LINE
  5
19E
100
AcDbEntity
  8
EBENE_1
 62
     7
100
AcDbLine
 10
9.105215
 20
78.798636
 30
0.0
 11
9.105215
 21
78.967962
 31
0.0
  0
LINE
  5
19D
100
AcDbEntity
  8
EBENE_1
 62
     7
100
AcDbLine
 10
9.105215
 20
78.967962
 30
0.0
 11
8.851312
 21
79.560691
 31
0.0
  0
LINE
  5
19C
100
AcDbEntity
  8
EBENE_1
 62
     7
100
AcDbLine
 10
8.851312
 20
79.560691
 30
0.0
 11
8.427909
 21
79.899344
 31
0.0
  0
LINE
  5
19B
100
AcDbEntity
  8
EBENE_1
 62
     7
100
AcDbLine
 10
8.427909
 20
79.899344
 30
0.0
 11
7.835353
 21
80.153247
 31
0.0
  0
LINE
  5
19A
100
AcDbEntity
  8
EBENE_1
 62
     7
100
AcDbLine
 10
7.835353
 20
80.153247
 30
0.0
 11
7.581105
 21
80.153247
 31
0.0
  0
LINE
  5
199
100
AcDbEntity
  8
EBENE_1
 62
     7
100
AcDbLine
 10
7.581105
 20
80.153247
 30
0.0
 11
6.988548
 21
79.899344
 31
0.0
  0
LINE
  5
198
100
AcDbEntity
  8
EBENE_1
 62
     7
100
AcDbLine
 10
6.988548
 20
79.899344
 30
0.0
 11
6.565491
 21
79.560691
 31
0.0
  0
LINE
  5
197
100
AcDbEntity
  8
EBENE_1
 62
     7
100
AcDbLine
 10
6.565491
 20
79.560691
 30
0.0
 11
6.311243
 21
78.967962
 31
0.0
  0
LINE
  5
196
100
AcDbEntity
  8
EBENE_1
 62
     7
100
AcDbLine
 10
6.311243
 20
78.967962
 30
0.0
 11
6.311243
 21
78.798636
 31
0.0
  0
LINE
  5
195
100
AcDbEntity
  8
EBENE_1
 62
     7
100
AcDbLine
 10
6.311243
 20
78.798636
 30
0.0
 11
6.565491
 21
78.205907
 31
0.0
  0
LINE
  5
194
100
AcDbEntity
  8
EBENE_1
 62
     7
100
AcDbLine
 10
6.565491
 20
78.205907
 30
0.0
 11
6.988548
 21
77.867254
 31
0.0
  0
LINE
  5
193
100
AcDbEntity
  8
EBENE_1
 62
     7
100
AcDbLine
 10
6.988548
 20
77.867254
 30
0.0
 11
7.581105
 21
77.61335
 31
0.0
  0
LINE
  5
192
100
AcDbEntity
  8
EBENE_1
 62
     7
100
AcDbLine
 10
7.581105
 20
77.61335
 30
0.0
 11
7.581105
 21
77.61335
 31
0.0
  0
LINE
  5
191
100
AcDbEntity
  8
EBENE_1
 62
     7
100
AcDbLine
 10
-26.708792
 20
99.5419
 30
0.0
 11
-26.708792
 21
54.330017
 31
0.0
  0
LINE
  5
190
100
AcDbEntity
  8
EBENE_1
 62
     7
100
AcDbLine
 10
-9.013403
 20
99.5419
 30
0.0
 11
-9.013403
 21
86.757323
 31
0.0
  0
LINE
  5
18F
100
AcDbEntity
  8
EBENE_1
 62
     7
100
AcDbLine
 10
-9.944785
 20
78.205907
 30
0.0
 11
-9.944785
 21
79.137288
 31
0.0
  0
LINE
  5
18E
100
AcDbEntity
  8
EBENE_1
 62
     7
100
AcDbLine
 10
-26.708792
 20
78.205907
 30
0.0
 11
-26.708792
 21
79.137288
 31
0.0
  0
LINE
  5
18D
100
AcDbEntity
  8
EBENE_1
 62
     7
100
AcDbLine
 10
-14.432022
 20
78.54456
 30
0.0
 11
-22.221383
 21
78.54456
 31
0.0
  0
POLYLINE
  5
188
100
AcDbEntity
  8
EBENE_1
 62
     7
100
AcDb2dPolyline
 66
     1
 10
0.0
 20
0.0
 30
0.0
 70
     1
  0
VERTEX
  5
189
100
AcDbEntity
  8
EBENE_1
 62
     7
100
AcDbVertex
100
AcDb2dVertex
 10
-14.432022
 20
79.306615
 30
0.0
  0
VERTEX
  5
18A
100
AcDbEntity
  8
EBENE_1
 62
     7
100
AcDbVertex
100
AcDb2dVertex
 10
-14.432022
 20
77.782677
 30
0.0
  0
VERTEX
  5
18B
100
AcDbEntity
  8
EBENE_1
 62
     7
100
AcDbVertex
100
AcDb2dVertex
 10
-9.944785
 20
78.54456
 30
0.0
  0
SEQEND
  5
18C
100
AcDbEntity
  8
EBENE_1
 62
     7
  0
HATCH
  5
187
100
AcDbEntity
  8
EBENE_1
 62
     7
100
AcDbHatch
 10
0.0
 20
0.0
 30
0.0
210
0.0
220
0.0
230
1.0
  2
SOLID
 70
     1
 71
     0
 91
        1
 92
        3
 72
     0
 73
     1
 93
        3
 10
-14.43202175564236
 20
79.306614854600681
 10
-14.43202175564236
 20
77.782676866319434
 10
-9.9447848849826386
 20
78.544559733072916
 97
        0
 75
     0
 76
     1
 98
        1
 10
0.0
 20
0.0
  0
POLYLINE
  5
182
100
AcDbEntity
  8
EBENE_1
 62
     7
100
AcDb2dPolyline
 66
     1
 10
0.0
 20
0.0
 30
0.0
 70
     1
  0
VERTEX
  5
183
100
AcDbEntity
  8
EBENE_1
 62
     7
100
AcDbVertex
100
AcDb2dVertex
 10
-22.221383
 20
79.306615
 30
0.0
  0
VERTEX
  5
184
100
AcDbEntity
  8
EBENE_1
 62
     7
100
AcDbVertex
100
AcDb2dVertex
 10
-22.221383
 20
77.782677
 30
0.0
  0
VERTEX
  5
185
100
AcDbEntity
  8
EBENE_1
 62
     7
100
AcDbVertex
100
AcDb2dVertex
 10
-26.708792
 20
78.54456
 30
0.0
  0
SEQEND
  5
186
100
AcDbEntity
  8
EBENE_1
 62
     7
  0
HATCH
  5
181
100
AcDbEntity
  8
EBENE_1
 62
     7
100
AcDbHatch
 10
0.0
 20
0.0
 30
0.0
210
0.0
220
0.0
230
1.0
  2
SOLID
 70
     1
 71
     0
 91
        1
 92
        3
 72
     0
 73
     1
 93
        3
 10
-22.221382649739581
 20
79.306614854600681
 10
-22.221382649739581
 20
77.782676866319434
 10
-26.708791775173609
 20
78.544559733072916
 97
        0
 75
     0
 76
     1
 98
        1
 10
0.0
 20
0.0
  0
LINE
  5
180
100
AcDbEntity
  8
EBENE_1
 62
     7
100
AcDbLine
 10
-21.205424
 20
83.455371
 30
0.0
 11
-20.782022
 21
83.624698
 31
0.0
  0
LINE
  5
17F
100
AcDbEntity
  8
EBENE_1
 62
     7
100
AcDbLine
 10
-20.782022
 20
83.624698
 30
0.0
 11
-20.274042
 21
84.302003
 31
0.0
  0
LINE
  5
17E
100
AcDbEntity
  8
EBENE_1
 62
     7
100
AcDbLine
 10
-20.274042
 20
84.302003
 30
0.0
 11
-20.274042
 21
79.814594
 31
0.0
  0
LINE
  5
17D
100
AcDbEntity
  8
EBENE_1
 62
     7
100
AcDbLine
 10
-18.157376
 20
84.302003
 30
0.0
 11
-15.448153
 21
84.302003
 31
0.0
  0
LINE
  5
17C
100
AcDbEntity
  8
EBENE_1
 62
     7
100
AcDbLine
 10
-15.448153
 20
84.302003
 30
0.0
 11
-17.395321
 21
79.814594
 31
0.0
  0
LINE
  5
17B
100
AcDbEntity
  8
EBENE_1
 62
     7
100
AcDbLine
 10
-17.395321
 20
79.814594
 30
0.0
 11
-17.395321
 21
79.814594
 31
0.0
  0
LINE
  5
17A
100
AcDbEntity
  8
EBENE_1
 62
     7
100
AcDbLine
 10
-26.708792
 20
54.330017
 30
0.0
 11
-9.013403
 21
54.330017
 31
0.0
  0
LINE
  5
179
100
AcDbEntity
  8
EBENE_1
 62
     7
100
AcDbLine
 10
-9.013403
 20
86.757323
 30
0.0
 11
-9.606132
 21
82.862642
 31
0.0
  0
LINE
  5
178
100
AcDbEntity
  8
EBENE_1
 62
     7
100
AcDbLine
 10
-9.606132
 20
82.862642
 30
0.0
 11
-9.944785
 21
78.967962
 31
0.0
  0
LINE
  5
177
100
AcDbEntity
  8
EBENE_1
 62
     7
100
AcDbLine
 10
-9.944785
 20
78.967962
 30
0.0
 11
-9.944785
 21
74.988704
 31
0.0
  0
LINE
  5
176
100
AcDbEntity
  8
EBENE_1
 62
     7
100
AcDbLine
 10
-9.944785
 20
74.988704
 30
0.0
 11
-9.606132
 21
71.094024
 31
0.0
  0
LINE
  5
175
100
AcDbEntity
  8
EBENE_1
 62
     7
100
AcDbLine
 10
-9.606132
 20
71.094024
 30
0.0
 11
-9.013403
 21
67.199344
 31
0.0
  0
LINE
  5
174
100
AcDbEntity
  8
EBENE_1
 62
     7
100
AcDbLine
 10
-9.013403
 20
67.199344
 30
0.0
 11
-9.013403
 21
54.330017
 31
0.0
  0
LINE
  5
173
100
AcDbEntity
  8
EBENE_1
 62
     7
100
AcDbLine
 10
-18.326702
 20
111.649344
 30
0.0
 11
-18.326702
 21
129.767962
 31
0.0
  0
LINE
  5
172
100
AcDbEntity
  8
EBENE_1
 62
     7
100
AcDbLine
 10
-26.200812
 20
111.649344
 30
0.0
 11
-26.200812
 21
129.767962
 31
0.0
  0
LINE
  5
171
100
AcDbEntity
  8
EBENE_1
 62
     7
100
AcDbLine
 10
-13.839465
 20
129.175233
 30
0.0
 11
-9.352056
 21
129.175233
 31
0.0
  0
LINE
  5
170
100
AcDbEntity
  8
EBENE_1
 62
     7
100
AcDbLine
 10
-30.688049
 20
129.175233
 30
0.0
 11
-35.090709
 21
129.175233
 31
0.0
  0
LINE
  5
16F
100
AcDbEntity
  8
EBENE_1
 62
     7
100
AcDbLine
 10
-18.326702
 20
129.175233
 30
0.0
 11
-26.200812
 21
129.175233
 31
0.0
  0
POLYLINE
  5
16A
100
AcDbEntity
  8
EBENE_1
 62
     7
100
AcDb2dPolyline
 66
     1
 10
0.0
 20
0.0
 30
0.0
 70
     1
  0
VERTEX
  5
16B
100
AcDbEntity
  8
EBENE_1
 62
     7
100
AcDbVertex
100
AcDb2dVertex
 10
-13.839465
 20
129.852711
 30
0.0
  0
VERTEX
  5
16C
100
AcDbEntity
  8
EBENE_1
 62
     7
100
AcDbVertex
100
AcDb2dVertex
 10
-13.839465
 20
128.41335
 30
0.0
  0
VERTEX
  5
16D
100
AcDbEntity
  8
EBENE_1
 62
     7
100
AcDbVertex
100
AcDb2dVertex
 10
-18.326702
 20
129.175233
 30
0.0
  0
SEQEND
  5
16E
100
AcDbEntity
  8
EBENE_1
 62
     7
  0
HATCH
  5
169
100
AcDbEntity
  8
EBENE_1
 62
     7
100
AcDbHatch
 10
0.0
 20
0.0
 30
0.0
210
0.0
220
0.0
230
1.0
  2
SOLID
 70
     1
 71
     0
 91
        1
 92
        3
 72
     0
 73
     1
 93
        3
 10
-13.839465332031249
 20
129.8527113172743
 10
-13.839465332031249
 20
128.41335042317706
 10
-18.326702202690971
 20
129.17523328993053
 97
        0
 75
     0
 76
     1
 98
        1
 10
0.0
 20
0.0
  0
POLYLINE
  5
164
100
AcDbEntity
  8
EBENE_1
 62
     7
100
AcDb2dPolyline
 66
     1
 10
0.0
 20
0.0
 30
0.0
 70
     1
  0
VERTEX
  5
165
100
AcDbEntity
  8
EBENE_1
 62
     7
100
AcDbVertex
100
AcDb2dVertex
 10
-30.688049
 20
129.852711
 30
0.0
  0
VERTEX
  5
166
100
AcDbEntity
  8
EBENE_1
 62
     7
100
AcDbVertex
100
AcDb2dVertex
 10
-30.688049
 20
128.41335
 30
0.0
  0
VERTEX
  5
167
100
AcDbEntity
  8
EBENE_1
 62
     7
100
AcDbVertex
100
AcDb2dVertex
 10
-26.200812
 20
129.175233
 30
0.0
  0
SEQEND
  5
168
100
AcDbEntity
  8
EBENE_1
 62
     7
  0
HATCH
  5
163
100
AcDbEntity
  8
EBENE_1
 62
     7
100
AcDbHatch
 10
0.0
 20
0.0
 30
0.0
210
0.0
220
0.0
230
1.0
  2
SOLID
 70
     1
 71
     0
 91
        1
 92
        3
 72
     0
 73
     1
 93
        3
 10
-30.688049316406246
 20
129.8527113172743
 10
-30.688049316406246
 20
128.41335042317706
 10
-26.200812445746525
 20
129.17523328993053
 97
        0
 75
     0
 76
     1
 98
        1
 10
0.0
 20
0.0
  0
LINE
  5
162
100
AcDbEntity
  8
EBENE_1
 62
     7
100
AcDbLine
 10
-30.857376
 20
134.001295
 30
0.0
 11
-31.280778
 21
133.831969
 31
0.0
  0
LINE
  5
161
100
AcDbEntity
  8
EBENE_1
 62
     7
100
AcDbLine
 10
-31.280778
 20
133.831969
 30
0.0
 11
-31.619431
 21
133.408567
 31
0.0
  0
LINE
  5
160
100
AcDbEntity
  8
EBENE_1
 62
     7
100
AcDbLine
 10
-31.619431
 20
133.408567
 30
0.0
 11
-31.873334
 21
132.731261
 31
0.0
  0
LINE
  5
15F
100
AcDbEntity
  8
EBENE_1
 62
     7
100
AcDbLine
 10
-31.873334
 20
132.731261
 30
0.0
 11
-31.873334
 21
132.308031
 31
0.0
  0
LINE
  5
15E
100
AcDbEntity
  8
EBENE_1
 62
     7
100
AcDbLine
 10
-31.873334
 20
132.308031
 30
0.0
 11
-31.619431
 21
131.715302
 31
0.0
  0
LINE
  5
15D
100
AcDbEntity
  8
EBENE_1
 62
     7
100
AcDbLine
 10
-31.619431
 20
131.715302
 30
0.0
 11
-31.280778
 21
131.2919
 31
0.0
  0
LINE
  5
15C
100
AcDbEntity
  8
EBENE_1
 62
     7
100
AcDbLine
 10
-31.280778
 20
131.2919
 30
0.0
 11
-30.857376
 21
131.037996
 31
0.0
  0
LINE
  5
15B
100
AcDbEntity
  8
EBENE_1
 62
     7
100
AcDbLine
 10
-30.857376
 20
131.037996
 30
0.0
 11
-30.264819
 21
131.037996
 31
0.0
  0
LINE
  5
15A
100
AcDbEntity
  8
EBENE_1
 62
     7
100
AcDbLine
 10
-30.264819
 20
131.037996
 30
0.0
 11
-29.925994
 21
131.2919
 31
0.0
  0
LINE
  5
159
100
AcDbEntity
  8
EBENE_1
 62
     7
100
AcDbLine
 10
-29.925994
 20
131.2919
 30
0.0
 11
-29.502764
 21
131.715302
 31
0.0
  0
LINE
  5
158
100
AcDbEntity
  8
EBENE_1
 62
     7
100
AcDbLine
 10
-29.502764
 20
131.715302
 30
0.0
 11
-29.333438
 21
132.308031
 31
0.0
  0
LINE
  5
157
100
AcDbEntity
  8
EBENE_1
 62
     7
100
AcDbLine
 10
-29.333438
 20
132.308031
 30
0.0
 11
-29.333438
 21
132.731261
 31
0.0
  0
LINE
  5
156
100
AcDbEntity
  8
EBENE_1
 62
     7
100
AcDbLine
 10
-29.333438
 20
132.731261
 30
0.0
 11
-29.502764
 21
133.408567
 31
0.0
  0
LINE
  5
155
100
AcDbEntity
  8
EBENE_1
 62
     7
100
AcDbLine
 10
-29.502764
 20
133.408567
 30
0.0
 11
-29.925994
 21
133.831969
 31
0.0
  0
LINE
  5
154
100
AcDbEntity
  8
EBENE_1
 62
     7
100
AcDbLine
 10
-29.925994
 20
133.831969
 30
0.0
 11
-30.264819
 21
134.001295
 31
0.0
  0
LINE
  5
153
100
AcDbEntity
  8
EBENE_1
 62
     7
100
AcDbLine
 10
-30.264819
 20
134.001295
 30
0.0
 11
-30.857376
 21
134.001295
 31
0.0
  0
LINE
  5
152
100
AcDbEntity
  8
EBENE_1
 62
     7
100
AcDbLine
 10
-29.756668
 20
134.678601
 30
0.0
 11
-31.450104
 21
130.445268
 31
0.0
  0
LINE
  5
151
100
AcDbEntity
  8
EBENE_1
 62
     7
100
AcDbLine
 10
-27.216771
 20
134.847928
 30
0.0
 11
-27.809328
 21
134.678601
 31
0.0
  0
LINE
  5
150
100
AcDbEntity
  8
EBENE_1
 62
     7
100
AcDbLine
 10
-27.809328
 20
134.678601
 30
0.0
 11
-27.978654
 21
134.255371
 31
0.0
  0
LINE
  5
14F
100
AcDbEntity
  8
EBENE_1
 62
     7
100
AcDbLine
 10
-27.978654
 20
134.255371
 30
0.0
 11
-27.978654
 21
133.831969
 31
0.0
  0
LINE
  5
14E
100
AcDbEntity
  8
EBENE_1
 62
     7
100
AcDbLine
 10
-27.978654
 20
133.831969
 30
0.0
 11
-27.809328
 21
133.408567
 31
0.0
  0
LINE
  5
14D
100
AcDbEntity
  8
EBENE_1
 62
     7
100
AcDbLine
 10
-27.809328
 20
133.408567
 30
0.0
 11
-27.470675
 21
133.154663
 31
0.0
  0
LINE
  5
14C
100
AcDbEntity
  8
EBENE_1
 62
     7
100
AcDbLine
 10
-27.470675
 20
133.154663
 30
0.0
 11
-26.624042
 21
132.985337
 31
0.0
  0
LINE
  5
14B
100
AcDbEntity
  8
EBENE_1
 62
     7
100
AcDbLine
 10
-26.624042
 20
132.985337
 30
0.0
 11
-26.116063
 21
132.731261
 31
0.0
  0
LINE
  5
14A
100
AcDbEntity
  8
EBENE_1
 62
     7
100
AcDbLine
 10
-26.116063
 20
132.731261
 30
0.0
 11
-25.692661
 21
132.308031
 31
0.0
  0
LINE
  5
149
100
AcDbEntity
  8
EBENE_1
 62
     7
100
AcDbLine
 10
-25.692661
 20
132.308031
 30
0.0
 11
-25.523334
 21
131.884629
 31
0.0
  0
LINE
  5
148
100
AcDbEntity
  8
EBENE_1
 62
     7
100
AcDbLine
 10
-25.523334
 20
131.884629
 30
0.0
 11
-25.523334
 21
131.2919
 31
0.0
  0
LINE
  5
147
100
AcDbEntity
  8
EBENE_1
 62
     7
100
AcDbLine
 10
-25.523334
 20
131.2919
 30
0.0
 11
-25.692661
 21
130.86867
 31
0.0
  0
LINE
  5
146
100
AcDbEntity
  8
EBENE_1
 62
     7
100
AcDbLine
 10
-25.692661
 20
130.86867
 30
0.0
 11
-25.861987
 21
130.614594
 31
0.0
  0
LINE
  5
145
100
AcDbEntity
  8
EBENE_1
 62
     7
100
AcDbLine
 10
-25.861987
 20
130.614594
 30
0.0
 11
-26.454716
 21
130.445268
 31
0.0
  0
LINE
  5
144
100
AcDbEntity
  8
EBENE_1
 62
     7
100
AcDbLine
 10
-26.454716
 20
130.445268
 30
0.0
 11
-27.216771
 21
130.445268
 31
0.0
  0
LINE
  5
143
100
AcDbEntity
  8
EBENE_1
 62
     7
100
AcDbLine
 10
-27.216771
 20
130.445268
 30
0.0
 11
-27.809328
 21
130.614594
 31
0.0
  0
LINE
  5
142
100
AcDbEntity
  8
EBENE_1
 62
     7
100
AcDbLine
 10
-27.809328
 20
130.614594
 30
0.0
 11
-27.978654
 21
130.86867
 31
0.0
  0
LINE
  5
141
100
AcDbEntity
  8
EBENE_1
 62
     7
100
AcDbLine
 10
-27.978654
 20
130.86867
 30
0.0
 11
-28.23273
 21
131.2919
 31
0.0
  0
LINE
  5
140
100
AcDbEntity
  8
EBENE_1
 62
     7
100
AcDbLine
 10
-28.23273
 20
131.2919
 30
0.0
 11
-28.23273
 21
131.884629
 31
0.0
  0
LINE
  5
13F
100
AcDbEntity
  8
EBENE_1
 62
     7
100
AcDbLine
 10
-28.23273
 20
131.884629
 30
0.0
 11
-27.978654
 21
132.308031
 31
0.0
  0
LINE
  5
13E
100
AcDbEntity
  8
EBENE_1
 62
     7
100
AcDbLine
 10
-27.978654
 20
132.308031
 30
0.0
 11
-27.640001
 21
132.731261
 31
0.0
  0
LINE
  5
13D
100
AcDbEntity
  8
EBENE_1
 62
     7
100
AcDbLine
 10
-27.640001
 20
132.731261
 30
0.0
 11
-27.047445
 21
132.985337
 31
0.0
  0
LINE
  5
13C
100
AcDbEntity
  8
EBENE_1
 62
     7
100
AcDbLine
 10
-27.047445
 20
132.985337
 30
0.0
 11
-26.28539
 21
133.154663
 31
0.0
  0
LINE
  5
13B
100
AcDbEntity
  8
EBENE_1
 62
     7
100
AcDbLine
 10
-26.28539
 20
133.154663
 30
0.0
 11
-25.861987
 21
133.408567
 31
0.0
  0
LINE
  5
13A
100
AcDbEntity
  8
EBENE_1
 62
     7
100
AcDbLine
 10
-25.861987
 20
133.408567
 30
0.0
 11
-25.692661
 21
133.831969
 31
0.0
  0
LINE
  5
139
100
AcDbEntity
  8
EBENE_1
 62
     7
100
AcDbLine
 10
-25.692661
 20
133.831969
 30
0.0
 11
-25.692661
 21
134.255371
 31
0.0
  0
LINE
  5
138
100
AcDbEntity
  8
EBENE_1
 62
     7
100
AcDbLine
 10
-25.692661
 20
134.255371
 30
0.0
 11
-25.861987
 21
134.678601
 31
0.0
  0
LINE
  5
137
100
AcDbEntity
  8
EBENE_1
 62
     7
100
AcDbLine
 10
-25.861987
 20
134.678601
 30
0.0
 11
-26.454716
 21
134.847928
 31
0.0
  0
LINE
  5
136
100
AcDbEntity
  8
EBENE_1
 62
     7
100
AcDbLine
 10
-26.454716
 20
134.847928
 30
0.0
 11
-27.216771
 21
134.847928
 31
0.0
  0
LINE
  5
135
100
AcDbEntity
  8
EBENE_1
 62
     7
100
AcDbLine
 10
-24.338049
 20
130.445268
 30
0.0
 11
-22.221383
 21
133.408567
 31
0.0
  0
LINE
  5
134
100
AcDbEntity
  8
EBENE_1
 62
     7
100
AcDbLine
 10
-22.221383
 20
130.445268
 30
0.0
 11
-24.338049
 21
133.408567
 31
0.0
  0
LINE
  5
133
100
AcDbEntity
  8
EBENE_1
 62
     7
100
AcDbLine
 10
-18.580778
 20
133.408567
 30
0.0
 11
-18.834682
 21
132.731261
 31
0.0
  0
LINE
  5
132
100
AcDbEntity
  8
EBENE_1
 62
     7
100
AcDbLine
 10
-18.834682
 20
132.731261
 30
0.0
 11
-19.173334
 21
132.308031
 31
0.0
  0
LINE
  5
131
100
AcDbEntity
  8
EBENE_1
 62
     7
100
AcDbLine
 10
-19.173334
 20
132.308031
 30
0.0
 11
-19.766063
 21
132.138704
 31
0.0
  0
LINE
  5
130
100
AcDbEntity
  8
EBENE_1
 62
     7
100
AcDbLine
 10
-19.766063
 20
132.138704
 30
0.0
 11
-19.93539
 21
132.138704
 31
0.0
  0
LINE
  5
12F
100
AcDbEntity
  8
EBENE_1
 62
     7
100
AcDbLine
 10
-19.93539
 20
132.138704
 30
0.0
 11
-20.528118
 21
132.308031
 31
0.0
  0
LINE
  5
12E
100
AcDbEntity
  8
EBENE_1
 62
     7
100
AcDbLine
 10
-20.528118
 20
132.308031
 30
0.0
 11
-20.951348
 21
132.731261
 31
0.0
  0
LINE
  5
12D
100
AcDbEntity
  8
EBENE_1
 62
     7
100
AcDbLine
 10
-20.951348
 20
132.731261
 30
0.0
 11
-21.120675
 21
133.408567
 31
0.0
  0
LINE
  5
12C
100
AcDbEntity
  8
EBENE_1
 62
     7
100
AcDbLine
 10
-21.120675
 20
133.408567
 30
0.0
 11
-21.120675
 21
133.577893
 31
0.0
  0
LINE
  5
12B
100
AcDbEntity
  8
EBENE_1
 62
     7
100
AcDbLine
 10
-21.120675
 20
133.577893
 30
0.0
 11
-20.951348
 21
134.255371
 31
0.0
  0
LINE
  5
12A
100
AcDbEntity
  8
EBENE_1
 62
     7
100
AcDbLine
 10
-20.951348
 20
134.255371
 30
0.0
 11
-20.528118
 21
134.678601
 31
0.0
  0
LINE
  5
129
100
AcDbEntity
  8
EBENE_1
 62
     7
100
AcDbLine
 10
-20.528118
 20
134.678601
 30
0.0
 11
-19.93539
 21
134.847928
 31
0.0
  0
LINE
  5
128
100
AcDbEntity
  8
EBENE_1
 62
     7
100
AcDbLine
 10
-19.93539
 20
134.847928
 30
0.0
 11
-19.766063
 21
134.847928
 31
0.0
  0
LINE
  5
127
100
AcDbEntity
  8
EBENE_1
 62
     7
100
AcDbLine
 10
-19.766063
 20
134.847928
 30
0.0
 11
-19.173334
 21
134.678601
 31
0.0
  0
LINE
  5
126
100
AcDbEntity
  8
EBENE_1
 62
     7
100
AcDbLine
 10
-19.173334
 20
134.678601
 30
0.0
 11
-18.834682
 21
134.255371
 31
0.0
  0
LINE
  5
125
100
AcDbEntity
  8
EBENE_1
 62
     7
100
AcDbLine
 10
-18.834682
 20
134.255371
 30
0.0
 11
-18.580778
 21
133.408567
 31
0.0
  0
LINE
  5
124
100
AcDbEntity
  8
EBENE_1
 62
     7
100
AcDbLine
 10
-18.580778
 20
133.408567
 30
0.0
 11
-18.580778
 21
132.308031
 31
0.0
  0
LINE
  5
123
100
AcDbEntity
  8
EBENE_1
 62
     7
100
AcDbLine
 10
-18.580778
 20
132.308031
 30
0.0
 11
-18.834682
 21
131.2919
 31
0.0
  0
LINE
  5
122
100
AcDbEntity
  8
EBENE_1
 62
     7
100
AcDbLine
 10
-18.834682
 20
131.2919
 30
0.0
 11
-19.173334
 21
130.614594
 31
0.0
  0
LINE
  5
121
100
AcDbEntity
  8
EBENE_1
 62
     7
100
AcDbLine
 10
-19.173334
 20
130.614594
 30
0.0
 11
-19.766063
 21
130.445268
 31
0.0
  0
LINE
  5
120
100
AcDbEntity
  8
EBENE_1
 62
     7
100
AcDbLine
 10
-19.766063
 20
130.445268
 30
0.0
 11
-20.189465
 21
130.445268
 31
0.0
  0
LINE
  5
11F
100
AcDbEntity
  8
EBENE_1
 62
     7
100
AcDbLine
 10
-20.189465
 20
130.445268
 30
0.0
 11
-20.697445
 21
130.614594
 31
0.0
  0
LINE
  5
11E
100
AcDbEntity
  8
EBENE_1
 62
     7
100
AcDbLine
 10
-20.697445
 20
130.614594
 30
0.0
 11
-20.951348
 21
131.037996
 31
0.0
  0
LINE
  5
11D
100
AcDbEntity
  8
EBENE_1
 62
     7
100
AcDbLine
 10
-20.951348
 20
131.037996
 30
0.0
 11
-20.951348
 21
131.037996
 31
0.0
  0
LINE
  5
11C
100
AcDbEntity
  8
EBENE_1
 62
     7
100
AcDbLine
 10
-16.125458
 20
134.847928
 30
0.0
 11
-16.718015
 21
134.678601
 31
0.0
  0
LINE
  5
11B
100
AcDbEntity
  8
EBENE_1
 62
     7
100
AcDbLine
 10
-16.718015
 20
134.678601
 30
0.0
 11
-17.056668
 21
134.001295
 31
0.0
  0
LINE
  5
11A
100
AcDbEntity
  8
EBENE_1
 62
     7
100
AcDbLine
 10
-17.056668
 20
134.001295
 30
0.0
 11
-17.310744
 21
132.985337
 31
0.0
  0
LINE
  5
119
100
AcDbEntity
  8
EBENE_1
 62
     7
100
AcDbLine
 10
-17.310744
 20
132.985337
 30
0.0
 11
-17.310744
 21
132.308031
 31
0.0
  0
LINE
  5
118
100
AcDbEntity
  8
EBENE_1
 62
     7
100
AcDbLine
 10
-17.310744
 20
132.308031
 30
0.0
 11
-17.056668
 21
131.2919
 31
0.0
  0
LINE
  5
117
100
AcDbEntity
  8
EBENE_1
 62
     7
100
AcDbLine
 10
-17.056668
 20
131.2919
 30
0.0
 11
-16.718015
 21
130.614594
 31
0.0
  0
LINE
  5
116
100
AcDbEntity
  8
EBENE_1
 62
     7
100
AcDbLine
 10
-16.718015
 20
130.614594
 30
0.0
 11
-16.125458
 21
130.445268
 31
0.0
  0
LINE
  5
115
100
AcDbEntity
  8
EBENE_1
 62
     7
100
AcDbLine
 10
-16.125458
 20
130.445268
 30
0.0
 11
-15.702056
 21
130.445268
 31
0.0
  0
LINE
  5
114
100
AcDbEntity
  8
EBENE_1
 62
     7
100
AcDbLine
 10
-15.702056
 20
130.445268
 30
0.0
 11
-15.194077
 21
130.614594
 31
0.0
  0
LINE
  5
113
100
AcDbEntity
  8
EBENE_1
 62
     7
100
AcDbLine
 10
-15.194077
 20
130.614594
 30
0.0
 11
-14.770675
 21
131.2919
 31
0.0
  0
LINE
  5
112
100
AcDbEntity
  8
EBENE_1
 62
     7
100
AcDbLine
 10
-14.770675
 20
131.2919
 30
0.0
 11
-14.601348
 21
132.308031
 31
0.0
  0
LINE
  5
111
100
AcDbEntity
  8
EBENE_1
 62
     7
100
AcDbLine
 10
-14.601348
 20
132.308031
 30
0.0
 11
-14.601348
 21
132.985337
 31
0.0
  0
LINE
  5
110
100
AcDbEntity
  8
EBENE_1
 62
     7
100
AcDbLine
 10
-14.601348
 20
132.985337
 30
0.0
 11
-14.770675
 21
134.001295
 31
0.0
  0
LINE
  5
10F
100
AcDbEntity
  8
EBENE_1
 62
     7
100
AcDbLine
 10
-14.770675
 20
134.001295
 30
0.0
 11
-15.194077
 21
134.678601
 31
0.0
  0
LINE
  5
10E
100
AcDbEntity
  8
EBENE_1
 62
     7
100
AcDbLine
 10
-15.194077
 20
134.678601
 30
0.0
 11
-15.702056
 21
134.847928
 31
0.0
  0
LINE
  5
10D
100
AcDbEntity
  8
EBENE_1
 62
     7
100
AcDbLine
 10
-15.702056
 20
134.847928
 30
0.0
 11
-16.125458
 21
134.847928
 31
0.0
  0
LINE
  5
10C
100
AcDbEntity
  8
EBENE_1
 62
     7
100
AcDbLine
 10
-16.125458
 20
134.847928
 30
0.0
 11
-16.125458
 21
134.847928
 31
0.0
  0
LINE
  5
10B
100
AcDbEntity
  8
EBENE_1
 62
     7
100
AcDbLine
 10
-12.654008
 20
134.424698
 30
0.0
 11
-12.823334
 21
134.76335
 31
0.0
  0
LINE
  5
10A
100
AcDbEntity
  8
EBENE_1
 62
     7
100
AcDbLine
 10
-12.823334
 20
134.76335
 30
0.0
 11
-13.07741
 21
134.847928
 31
0.0
  0
LINE
  5
109
100
AcDbEntity
  8
EBENE_1
 62
     7
100
AcDbLine
 10
-13.07741
 20
134.847928
 30
0.0
 11
-13.331486
 21
134.76335
 31
0.0
  0
LINE
  5
108
100
AcDbEntity
  8
EBENE_1
 62
     7
100
AcDbLine
 10
-13.331486
 20
134.76335
 30
0.0
 11
-13.416063
 21
134.424698
 31
0.0
  0
LINE
  5
107
100
AcDbEntity
  8
EBENE_1
 62
     7
100
AcDbLine
 10
-13.416063
 20
134.424698
 30
0.0
 11
-13.331486
 21
134.170622
 31
0.0
  0
LINE
  5
106
100
AcDbEntity
  8
EBENE_1
 62
     7
100
AcDbLine
 10
-13.331486
 20
134.170622
 30
0.0
 11
-13.07741
 21
134.001295
 31
0.0
  0
LINE
  5
105
100
AcDbEntity
  8
EBENE_1
 62
     7
100
AcDbLine
 10
-13.07741
 20
134.001295
 30
0.0
 11
-12.823334
 21
134.170622
 31
0.0
  0
LINE
  5
104
100
AcDbEntity
  8
EBENE_1
 62
     7
100
AcDbLine
 10
-12.823334
 20
134.170622
 30
0.0
 11
-12.654008
 21
134.424698
 31
0.0
  0
LINE
  5
103
100
AcDbEntity
  8
EBENE_1
 62
     7
100
AcDbLine
 10
-22.221383
 20
110.379309
 30
0.0
 11
-28.148153
 21
110.379309
 31
0.0
  0
LINE
  5
102
100
AcDbEntity
  8
EBENE_1
 62
     7
100
AcDbLine
 10
-20.104716
 20
110.379309
 30
0.0
 11
-20.274042
 21
111.225941
 31
0.0
  0
LINE
  5
101
100
AcDbEntity
  8
EBENE_1
 62
     7
100
AcDbLine
 10
-20.274042
 20
111.225941
 30
0.0
 11
-20.782022
 21
111.903247
 31
0.0
  0
LINE
  5
100
100
AcDbEntity
  8
EBENE_1
 62
     7
100
AcDbLine
 10
-20.782022
 20
111.903247
 30
0.0
 11
-21.459328
 21
112.326649
 31
0.0
  0
LINE
  5
FF
100
AcDbEntity
  8
EBENE_1
 62
     7
100
AcDbLine
 10
-21.459328
 20
112.326649
 30
0.0
 11
-22.221383
 21
112.495976
 31
0.0
  0
LINE
  5
FE
100
AcDbEntity
  8
EBENE_1
 62
     7
100
AcDbLine
 10
-22.221383
 20
112.495976
 30
0.0
 11
-23.068015
 21
112.326649
 31
0.0
  0
LINE
  5
FD
100
AcDbEntity
  8
EBENE_1
 62
     7
100
AcDbLine
 10
-23.068015
 20
112.326649
 30
0.0
 11
-23.745321
 21
111.903247
 31
0.0
  0
LINE
  5
FC
100
AcDbEntity
  8
EBENE_1
 62
     7
100
AcDbLine
 10
-23.745321
 20
111.903247
 30
0.0
 11
-24.168723
 21
111.225941
 31
0.0
  0
LINE
  5
FB
100
AcDbEntity
  8
EBENE_1
 62
     7
100
AcDbLine
 10
-24.168723
 20
111.225941
 30
0.0
 11
-24.338049
 21
110.379309
 31
0.0
  0
LINE
  5
FA
100
AcDbEntity
  8
EBENE_1
 62
     7
100
AcDbLine
 10
-24.338049
 20
110.379309
 30
0.0
 11
-24.168723
 21
109.532677
 31
0.0
  0
LINE
  5
F9
100
AcDbEntity
  8
EBENE_1
 62
     7
100
AcDbLine
 10
-24.168723
 20
109.532677
 30
0.0
 11
-23.745321
 21
108.855371
 31
0.0
  0
LINE
  5
F8
100
AcDbEntity
  8
EBENE_1
 62
     7
100
AcDbLine
 10
-23.745321
 20
108.855371
 30
0.0
 11
-23.068015
 21
108.431969
 31
0.0
  0
LINE
  5
F7
100
AcDbEntity
  8
EBENE_1
 62
     7
100
AcDbLine
 10
-23.068015
 20
108.431969
 30
0.0
 11
-22.221383
 21
108.262642
 31
0.0
  0
LINE
  5
F6
100
AcDbEntity
  8
EBENE_1
 62
     7
100
AcDbLine
 10
-22.221383
 20
108.262642
 30
0.0
 11
-21.459328
 21
108.431969
 31
0.0
  0
LINE
  5
F5
100
AcDbEntity
  8
EBENE_1
 62
     7
100
AcDbLine
 10
-21.459328
 20
108.431969
 30
0.0
 11
-20.782022
 21
108.855371
 31
0.0
  0
LINE
  5
F4
100
AcDbEntity
  8
EBENE_1
 62
     7
100
AcDbLine
 10
-20.782022
 20
108.855371
 30
0.0
 11
-20.274042
 21
109.532677
 31
0.0
  0
LINE
  5
F3
100
AcDbEntity
  8
EBENE_1
 62
     7
100
AcDbLine
 10
-20.274042
 20
109.532677
 30
0.0
 11
-20.104716
 21
110.379309
 31
0.0
  0
LINE
  5
F2
100
AcDbEntity
  8
EBENE_1
 62
     7
100
AcDbLine
 10
-26.708792
 20
99.5419
 30
0.0
 11
-9.013403
 21
99.5419
 31
0.0
  0
LINE
  5
F1
100
AcDbEntity
  8
EBENE_1
 62
     7
100
AcDbLine
 10
-18.326702
 20
110.379309
 30
0.0
 11
-18.496029
 21
111.395268
 31
0.0
  0
LINE
  5
F0
100
AcDbEntity
  8
EBENE_1
 62
     7
100
AcDbLine
 10
-18.496029
 20
111.395268
 30
0.0
 11
-18.834682
 21
112.326649
 31
0.0
  0
LINE
  5
EF
100
AcDbEntity
  8
EBENE_1
 62
     7
100
AcDbLine
 10
-18.834682
 20
112.326649
 30
0.0
 11
-19.511987
 21
113.173282
 31
0.0
  0
LINE
  5
EE
100
AcDbEntity
  8
EBENE_1
 62
     7
100
AcDbLine
 10
-19.511987
 20
113.173282
 30
0.0
 11
-20.274042
 21
113.76601
 31
0.0
  0
LINE
  5
ED
100
AcDbEntity
  8
EBENE_1
 62
     7
100
AcDbLine
 10
-20.274042
 20
113.76601
 30
0.0
 11
-21.205424
 21
114.18924
 31
0.0
  0
LINE
  5
EC
100
AcDbEntity
  8
EBENE_1
 62
     7
100
AcDbLine
 10
-21.205424
 20
114.18924
 30
0.0
 11
-22.221383
 21
114.27399
 31
0.0
  0
LINE
  5
EB
100
AcDbEntity
  8
EBENE_1
 62
     7
100
AcDbLine
 10
-22.221383
 20
114.27399
 30
0.0
 11
-23.237341
 21
114.18924
 31
0.0
  0
LINE
  5
EA
100
AcDbEntity
  8
EBENE_1
 62
     7
100
AcDbLine
 10
-23.237341
 20
114.18924
 30
0.0
 11
-24.253472
 21
113.76601
 31
0.0
  0
LINE
  5
E9
100
AcDbEntity
  8
EBENE_1
 62
     7
100
AcDbLine
 10
-24.253472
 20
113.76601
 30
0.0
 11
-25.015355
 21
113.173282
 31
0.0
  0
LINE
  5
E8
100
AcDbEntity
  8
EBENE_1
 62
     7
100
AcDbLine
 10
-25.015355
 20
113.173282
 30
0.0
 11
-25.692661
 21
112.326649
 31
0.0
  0
LINE
  5
E7
100
AcDbEntity
  8
EBENE_1
 62
     7
100
AcDbLine
 10
-25.692661
 20
112.326649
 30
0.0
 11
-26.031486
 21
111.395268
 31
0.0
  0
LINE
  5
E6
100
AcDbEntity
  8
EBENE_1
 62
     7
100
AcDbLine
 10
-26.031486
 20
111.395268
 30
0.0
 11
-26.200812
 21
110.379309
 31
0.0
  0
LINE
  5
E5
100
AcDbEntity
  8
EBENE_1
 62
     7
100
AcDbLine
 10
-26.200812
 20
110.379309
 30
0.0
 11
-26.031486
 21
109.36335
 31
0.0
  0
LINE
  5
E4
100
AcDbEntity
  8
EBENE_1
 62
     7
100
AcDbLine
 10
-26.031486
 20
109.36335
 30
0.0
 11
-25.692661
 21
108.431969
 31
0.0
  0
LINE
  5
E3
100
AcDbEntity
  8
EBENE_1
 62
     7
100
AcDbLine
 10
-25.692661
 20
108.431969
 30
0.0
 11
-25.015355
 21
107.585337
 31
0.0
  0
LINE
  5
E2
100
AcDbEntity
  8
EBENE_1
 62
     7
100
AcDbLine
 10
-25.015355
 20
107.585337
 30
0.0
 11
-24.253472
 21
106.992608
 31
0.0
  0
LINE
  5
E1
100
AcDbEntity
  8
EBENE_1
 62
     7
100
AcDbLine
 10
-24.253472
 20
106.992608
 30
0.0
 11
-23.237341
 21
106.569378
 31
0.0
  0
LINE
  5
E0
100
AcDbEntity
  8
EBENE_1
 62
     7
100
AcDbLine
 10
-23.237341
 20
106.569378
 30
0.0
 11
-22.221383
 21
106.484629
 31
0.0
  0
LINE
  5
DF
100
AcDbEntity
  8
EBENE_1
 62
     7
100
AcDbLine
 10
-22.221383
 20
106.484629
 30
0.0
 11
-21.205424
 21
106.569378
 31
0.0
  0
LINE
  5
DE
100
AcDbEntity
  8
EBENE_1
 62
     7
100
AcDbLine
 10
-21.205424
 20
106.569378
 30
0.0
 11
-20.274042
 21
106.992608
 31
0.0
  0
LINE
  5
DD
100
AcDbEntity
  8
EBENE_1
 62
     7
100
AcDbLine
 10
-20.274042
 20
106.992608
 30
0.0
 11
-19.511987
 21
107.585337
 31
0.0
  0
LINE
  5
DC
100
AcDbEntity
  8
EBENE_1
 62
     7
100
AcDbLine
 10
-19.511987
 20
107.585337
 30
0.0
 11
-18.834682
 21
108.431969
 31
0.0
  0
LINE
  5
DB
100
AcDbEntity
  8
EBENE_1
 62
     7
100
AcDbLine
 10
-18.834682
 20
108.431969
 30
0.0
 11
-18.496029
 21
109.36335
 31
0.0
  0
LINE
  5
DA
100
AcDbEntity
  8
EBENE_1
 62
     7
100
AcDbLine
 10
-18.496029
 20
109.36335
 30
0.0
 11
-18.326702
 21
110.379309
 31
0.0
  0
LINE
  5
D9
100
AcDbEntity
  8
EBENE_1
 62
     7
100
AcDbLine
 10
-30.095321
 20
121.216546
 30
0.0
 11
-6.558084
 21
121.216546
 31
0.0
  0
LINE
  5
D8
100
AcDbEntity
  8
EBENE_1
 62
     7
100
AcDbLine
 10
-29.418015
 20
110.379309
 30
0.0
 11
-41.356132
 21
110.379309
 31
0.0
  0
LINE
  5
D7
100
AcDbEntity
  8
EBENE_1
 62
     7
100
AcDbLine
 10
-31.365355
 20
121.216546
 30
0.0
 11
-41.356132
 21
121.216546
 31
0.0
  0
LINE
  5
D6
100
AcDbEntity
  8
EBENE_1
 62
     7
100
AcDbLine
 10
-40.678654
 20
105.8919
 30
0.0
 11
-40.678654
 21
101.404663
 31
0.0
  0
LINE
  5
D5
100
AcDbEntity
  8
EBENE_1
 62
     7
100
AcDbLine
 10
-40.678654
 20
125.619378
 30
0.0
 11
-40.678654
 21
130.106615
 31
0.0
  0
LINE
  5
D4
100
AcDbEntity
  8
EBENE_1
 62
     7
100
AcDbLine
 10
-40.678654
 20
110.379309
 30
0.0
 11
-40.678654
 21
121.216546
 31
0.0
  0
POLYLINE
  5
CF
100
AcDbEntity
  8
EBENE_1
 62
     7
100
AcDb2dPolyline
 66
     1
 10
0.0
 20
0.0
 30
0.0
 70
     1
  0
VERTEX
  5
D0
100
AcDbEntity
  8
EBENE_1
 62
     7
100
AcDbVertex
100
AcDb2dVertex
 10
-41.440709
 20
105.8919
 30
0.0
  0
VERTEX
  5
D1
100
AcDbEntity
  8
EBENE_1
 62
     7
100
AcDbVertex
100
AcDb2dVertex
 10
-40.001348
 20
105.8919
 30
0.0
  0
VERTEX
  5
D2
100
AcDbEntity
  8
EBENE_1
 62
     7
100
AcDbVertex
100
AcDb2dVertex
 10
-40.678654
 20
110.379309
 30
0.0
  0
SEQEND
  5
D3
100
AcDbEntity
  8
EBENE_1
 62
     7
  0
HATCH
  5
CE
100
AcDbEntity
  8
EBENE_1
 62
     7
100
AcDbHatch
 10
0.0
 20
0.0
 30
0.0
210
0.0
220
0.0
230
1.0
  2
SOLID
 70
     1
 71
     0
 91
        1
 92
        3
 72
     0
 73
     1
 93
        3
 10
-41.440709092881939
 20
105.89189995659721
 10
-40.001348198784719
 20
105.89189995659721
 10
-40.678653971354166
 20
110.37930908203124
 97
        0
 75
     0
 76
     1
 98
        1
 10
0.0
 20
0.0
  0
POLYLINE
  5
C9
100
AcDbEntity
  8
EBENE_1
 62
     7
100
AcDb2dPolyline
 66
     1
 10
0.0
 20
0.0
 30
0.0
 70
     1
  0
VERTEX
  5
CA
100
AcDbEntity
  8
EBENE_1
 62
     7
100
AcDbVertex
100
AcDb2dVertex
 10
-41.440709
 20
125.619378
 30
0.0
  0
VERTEX
  5
CB
100
AcDbEntity
  8
EBENE_1
 62
     7
100
AcDbVertex
100
AcDb2dVertex
 10
-40.001348
 20
125.619378
 30
0.0
  0
VERTEX
  5
CC
100
AcDbEntity
  8
EBENE_1
 62
     7
100
AcDbVertex
100
AcDb2dVertex
 10
-40.678654
 20
121.216546
 30
0.0
  0
SEQEND
  5
CD
100
AcDbEntity
  8
EBENE_1
 62
     7
  0
HATCH
  5
C8
100
AcDbEntity
  8
EBENE_1
 62
     7
100
AcDbHatch
 10
0.0
 20
0.0
 30
0.0
210
0.0
220
0.0
230
1.0
  2
SOLID
 70
     1
 71
     0
 91
        1
 92
        3
 72
     0
 73
     1
 93
        3
 10
-41.440709092881939
 20
125.61937798394096
 10
-40.001348198784719
 20
125.61937798394096
 10
-40.678653971354166
 20
121.21654595269096
 97
        0
 75
     0
 76
     1
 98
        1
 10
0.0
 20
0.0
  0
LINE
  5
C7
100
AcDbEntity
  8
EBENE_1
 62
     7
100
AcDbLine
 10
-45.589465
 20
113.76601
 30
0.0
 11
-45.843369
 21
114.18924
 31
0.0
  0
LINE
  5
C6
100
AcDbEntity
  8
EBENE_1
 62
     7
100
AcDbLine
 10
-45.843369
 20
114.18924
 30
0.0
 11
-46.436098
 21
114.69722
 31
0.0
  0
LINE
  5
C5
100
AcDbEntity
  8
EBENE_1
 62
     7
100
AcDbLine
 10
-46.436098
 20
114.69722
 30
0.0
 11
-42.033438
 21
114.69722
 31
0.0
  0
LINE
  5
C4
100
AcDbEntity
  8
EBENE_1
 62
     7
100
AcDbLine
 10
-45.589465
 20
116.813886
 30
0.0
 11
-45.843369
 21
117.237288
 31
0.0
  0
LINE
  5
C3
100
AcDbEntity
  8
EBENE_1
 62
     7
100
AcDbLine
 10
-45.843369
 20
117.237288
 30
0.0
 11
-46.436098
 21
117.830017
 31
0.0
  0
LINE
  5
C2
100
AcDbEntity
  8
EBENE_1
 62
     7
100
AcDbLine
 10
-46.436098
 20
117.830017
 30
0.0
 11
-42.033438
 21
117.830017
 31
0.0
  0
LINE
  5
C1
100
AcDbEntity
  8
EBENE_1
 62
     7
100
AcDbLine
 10
-7.743369
 20
99.5419
 30
0.0
 11
11.052383
 21
99.5419
 31
0.0
  0
LINE
  5
C0
100
AcDbEntity
  8
EBENE_1
 62
     7
100
AcDbLine
 10
-5.288049
 20
121.216546
 30
0.0
 11
11.052383
 21
121.216546
 31
0.0
  0
LINE
  5
BF
100
AcDbEntity
  8
EBENE_1
 62
     7
100
AcDbLine
 10
10.375077
 20
104.029309
 30
0.0
 11
10.375077
 21
116.729309
 31
0.0
  0
POLYLINE
  5
BA
100
AcDbEntity
  8
EBENE_1
 62
     7
100
AcDb2dPolyline
 66
     1
 10
0.0
 20
0.0
 30
0.0
 70
     1
  0
VERTEX
  5
BB
100
AcDbEntity
  8
EBENE_1
 62
     7
100
AcDbVertex
100
AcDb2dVertex
 10
9.613022
 20
104.029309
 30
0.0
  0
VERTEX
  5
BC
100
AcDbEntity
  8
EBENE_1
 62
     7
100
AcDbVertex
100
AcDb2dVertex
 10
11.137132
 20
104.029309
 30
0.0
  0
VERTEX
  5
BD
100
AcDbEntity
  8
EBENE_1
 62
     7
100
AcDbVertex
100
AcDb2dVertex
 10
10.375077
 20
99.5419
 30
0.0
  0
SEQEND
  5
BE
100
AcDbEntity
  8
EBENE_1
 62
     7
  0
HATCH
  5
B9
100
AcDbEntity
  8
EBENE_1
 62
     7
100
AcDbHatch
 10
0.0
 20
0.0
 30
0.0
210
0.0
220
0.0
230
1.0
  2
SOLID
 70
     1
 71
     0
 91
        1
 92
        3
 72
     0
 73
     1
 93
        3
 10
9.6130221896701382
 20
104.02930908203125
 10
11.137132432725693
 20
104.02930908203125
 10
10.375077311197916
 20
99.54189995659722
 97
        0
 75
     0
 76
     1
 98
        1
 10
0.0
 20
0.0
  0
POLYLINE
  5
B4
100
AcDbEntity
  8
EBENE_1
 62
     7
100
AcDb2dPolyline
 66
     1
 10
0.0
 20
0.0
 30
0.0
 70
     1
  0
VERTEX
  5
B5
100
AcDbEntity
  8
EBENE_1
 62
     7
100
AcDbVertex
100
AcDb2dVertex
 10
9.613022
 20
116.729309
 30
0.0
  0
VERTEX
  5
B6
100
AcDbEntity
  8
EBENE_1
 62
     7
100
AcDbVertex
100
AcDb2dVertex
 10
11.137132
 20
116.729309
 30
0.0
  0
VERTEX
  5
B7
100
AcDbEntity
  8
EBENE_1
 62
     7
100
AcDbVertex
100
AcDb2dVertex
 10
10.375077
 20
121.216546
 30
0.0
  0
SEQEND
  5
B8
100
AcDbEntity
  8
EBENE_1
 62
     7
  0
HATCH
  5
B3
100
AcDbEntity
  8
EBENE_1
 62
     7
100
AcDbHatch
 10
0.0
 20
0.0
 30
0.0
210
0.0
220
0.0
230
1.0
  2
SOLID
 70
     1
 71
     0
 91
        1
 92
        3
 72
     0
 73
     1
 93
        3
 10
9.6130221896701382
 20
116.72930908203124
 10
11.137132432725693
 20
116.72930908203124
 10
10.375077311197916
 20
121.21654595269096
 97
        0
 75
     0
 76
     1
 98
        1
 10
0.0
 20
0.0
  0
LINE
  5
B2
100
AcDbEntity
  8
EBENE_1
 62
     7
100
AcDbLine
 10
5.718686
 20
107.331261
 30
0.0
 11
5.464438
 21
107.331261
 31
0.0
  0
LINE
  5
B1
100
AcDbEntity
  8
EBENE_1
 62
     7
100
AcDbLine
 10
5.464438
 20
107.331261
 30
0.0
 11
5.04138
 21
107.500587
 31
0.0
  0
LINE
  5
B0
100
AcDbEntity
  8
EBENE_1
 62
     7
100
AcDbLine
 10
5.04138
 20
107.500587
 30
0.0
 11
4.871882
 21
107.669914
 31
0.0
  0
LINE
  5
AF
100
AcDbEntity
  8
EBENE_1
 62
     7
100
AcDbLine
 10
4.871882
 20
107.669914
 30
0.0
 11
4.617978
 21
108.093316
 31
0.0
  0
LINE
  5
AE
100
AcDbEntity
  8
EBENE_1
 62
     7
100
AcDbLine
 10
4.617978
 20
108.093316
 30
0.0
 11
4.617978
 21
108.855371
 31
0.0
  0
LINE
  5
AD
100
AcDbEntity
  8
EBENE_1
 62
     7
100
AcDbLine
 10
4.617978
 20
108.855371
 30
0.0
 11
4.871882
 21
109.194024
 31
0.0
  0
LINE
  5
AC
100
AcDbEntity
  8
EBENE_1
 62
     7
100
AcDbLine
 10
4.871882
 20
109.194024
 30
0.0
 11
5.04138
 21
109.447928
 31
0.0
  0
LINE
  5
AB
100
AcDbEntity
  8
EBENE_1
 62
     7
100
AcDbLine
 10
5.04138
 20
109.447928
 30
0.0
 11
5.464438
 21
109.617254
 31
0.0
  0
LINE
  5
AA
100
AcDbEntity
  8
EBENE_1
 62
     7
100
AcDbLine
 10
5.464438
 20
109.617254
 30
0.0
 11
5.888185
 21
109.617254
 31
0.0
  0
LINE
  5
A9
100
AcDbEntity
  8
EBENE_1
 62
     7
100
AcDbLine
 10
5.888185
 20
109.617254
 30
0.0
 11
6.311243
 21
109.447928
 31
0.0
  0
LINE
  5
A8
100
AcDbEntity
  8
EBENE_1
 62
     7
100
AcDbLine
 10
6.311243
 20
109.447928
 30
0.0
 11
6.988548
 21
109.024698
 31
0.0
  0
LINE
  5
A7
100
AcDbEntity
  8
EBENE_1
 62
     7
100
AcDbLine
 10
6.988548
 20
109.024698
 30
0.0
 11
9.105215
 21
107.161934
 31
0.0
  0
LINE
  5
A6
100
AcDbEntity
  8
EBENE_1
 62
     7
100
AcDbLine
 10
9.105215
 20
107.161934
 30
0.0
 11
9.105215
 21
109.78658
 31
0.0
  0
LINE
  5
A5
100
AcDbEntity
  8
EBENE_1
 62
     7
100
AcDbLine
 10
5.718686
 20
111.141364
 30
0.0
 11
5.464438
 21
111.141364
 31
0.0
  0
LINE
  5
A4
100
AcDbEntity
  8
EBENE_1
 62
     7
100
AcDbLine
 10
5.464438
 20
111.141364
 30
0.0
 11
5.04138
 21
111.310691
 31
0.0
  0
LINE
  5
A3
100
AcDbEntity
  8
EBENE_1
 62
     7
100
AcDbLine
 10
5.04138
 20
111.310691
 30
0.0
 11
4.871882
 21
111.564594
 31
0.0
  0
LINE
  5
A2
100
AcDbEntity
  8
EBENE_1
 62
     7
100
AcDbLine
 10
4.871882
 20
111.564594
 30
0.0
 11
4.617978
 21
111.903247
 31
0.0
  0
LINE
  5
A1
100
AcDbEntity
  8
EBENE_1
 62
     7
100
AcDbLine
 10
4.617978
 20
111.903247
 30
0.0
 11
4.617978
 21
112.665302
 31
0.0
  0
LINE
  5
A0
100
AcDbEntity
  8
EBENE_1
 62
     7
100
AcDbLine
 10
4.617978
 20
112.665302
 30
0.0
 11
4.871882
 21
113.088704
 31
0.0
  0
LINE
  5
9F
100
AcDbEntity
  8
EBENE_1
 62
     7
100
AcDbLine
 10
4.871882
 20
113.088704
 30
0.0
 11
5.04138
 21
113.258031
 31
0.0
  0
LINE
  5
9E
100
AcDbEntity
  8
EBENE_1
 62
     7
100
AcDbLine
 10
5.04138
 20
113.258031
 30
0.0
 11
5.464438
 21
113.427357
 31
0.0
  0
LINE
  5
9D
100
AcDbEntity
  8
EBENE_1
 62
     7
100
AcDbLine
 10
5.464438
 20
113.427357
 30
0.0
 11
5.888185
 21
113.427357
 31
0.0
  0
LINE
  5
9C
100
AcDbEntity
  8
EBENE_1
 62
     7
100
AcDbLine
 10
5.888185
 20
113.427357
 30
0.0
 11
6.311243
 21
113.258031
 31
0.0
  0
LINE
  5
9B
100
AcDbEntity
  8
EBENE_1
 62
     7
100
AcDbLine
 10
6.311243
 20
113.258031
 30
0.0
 11
6.988548
 21
112.834629
 31
0.0
  0
LINE
  5
9A
100
AcDbEntity
  8
EBENE_1
 62
     7
100
AcDbLine
 10
6.988548
 20
112.834629
 30
0.0
 11
9.105215
 21
110.972038
 31
0.0
  0
LINE
  5
99
100
AcDbEntity
  8
EBENE_1
 62
     7
100
AcDbLine
 10
9.105215
 20
110.972038
 30
0.0
 11
9.105215
 21
113.596684
 31
0.0
  0
LINE
  5
98
100
AcDbEntity
  8
EBENE_1
 62
     7
100
AcDbLine
 10
-9.013403
 20
121.216546
 30
0.0
 11
-9.013403
 21
116.64456
 31
0.0
  0
LINE
  5
97
100
AcDbEntity
  8
EBENE_1
 62
     7
100
AcDbLine
 10
-9.013403
 20
113.511934
 30
0.0
 11
-9.013403
 21
107.246684
 31
0.0
  0
LINE
  5
96
100
AcDbEntity
  8
EBENE_1
 62
     7
100
AcDbLine
 10
-9.013403
 20
104.113886
 30
0.0
 11
-9.013403
 21
99.5419
 31
0.0
  0
LINE
  5
95
100
AcDbEntity
  8
EBENE_1
 62
     7
100
AcDbLine
 10
-9.013403
 20
99.5419
 30
0.0
 11
-9.013403
 21
99.5419
 31
0.0
  0
LINE
  5
94
100
AcDbEntity
  8
EBENE_1
 62
     7
100
AcDbLine
 10
-3.594785
 20
103.52133
 30
0.0
 11
-11.976702
 21
103.52133
 31
0.0
  0
LINE
  5
93
100
AcDbEntity
  8
EBENE_1
 62
     7
100
AcDbLine
 10
-22.221383
 20
110.379309
 30
0.0
 11
-22.221383
 21
104.452711
 31
0.0
  0
LINE
  5
92
100
AcDbEntity
  8
EBENE_1
 62
     7
100
AcDbLine
 10
-8.336098
 20
105.637996
 30
0.0
 11
-6.558084
 21
107.41601
 31
0.0
  0
LINE
  5
91
100
AcDbEntity
  8
EBENE_1
 62
     7
100
AcDbLine
 10
-8.336098
 20
105.637996
 30
0.0
 11
-9.013403
 21
105.637996
 31
0.0
  0
LINE
  5
90
100
AcDbEntity
  8
EBENE_1
 62
     7
100
AcDbLine
 10
-8.336098
 20
101.404663
 30
0.0
 11
-6.558084
 21
99.5419
 31
0.0
  0
LINE
  5
8F
100
AcDbEntity
  8
EBENE_1
 62
     7
100
AcDbLine
 10
-8.336098
 20
101.404663
 30
0.0
 11
-9.013403
 21
101.404663
 31
0.0
  0
LINE
  5
8E
100
AcDbEntity
  8
EBENE_1
 62
     7
100
AcDbLine
 10
-8.336098
 20
101.404663
 30
0.0
 11
-8.336098
 21
105.637996
 31
0.0
  0
LINE
  5
8D
100
AcDbEntity
  8
EBENE_1
 62
     7
100
AcDbLine
 10
-22.221383
 20
110.379309
 30
0.0
 11
-22.221383
 21
116.305907
 31
0.0
  0
LINE
  5
8C
100
AcDbEntity
  8
EBENE_1
 62
     7
100
AcDbLine
 10
-22.221383
 20
110.379309
 30
0.0
 11
-16.379362
 21
110.379309
 31
0.0
  0
LINE
  5
8B
100
AcDbEntity
  8
EBENE_1
 62
     7
100
AcDbLine
 10
54.656268
 20
54.330017
 30
0.0
 11
52.200604
 21
54.330017
 31
0.0
  0
LINE
  5
8A
100
AcDbEntity
  8
EBENE_1
 62
     7
100
AcDbLine
 10
39.585353
 20
121.216546
 30
0.0
 11
29.679325
 21
121.216546
 31
0.0
  0
LINE
  5
89
100
AcDbEntity
  8
EBENE_1
 62
     7
100
AcDbLine
 10
40.09316
 20
103.52133
 30
0.0
 11
29.679325
 21
103.52133
 31
0.0
  0
LINE
  5
88
100
AcDbEntity
  8
EBENE_1
 62
     7
100
AcDbLine
 10
30.356631
 20
116.729309
 30
0.0
 11
30.356631
 21
108.008567
 31
0.0
  0
POLYLINE
  5
83
100
AcDbEntity
  8
EBENE_1
 62
     7
100
AcDb2dPolyline
 66
     1
 10
0.0
 20
0.0
 30
0.0
 70
     1
  0
VERTEX
  5
84
100
AcDbEntity
  8
EBENE_1
 62
     7
100
AcDbVertex
100
AcDb2dVertex
 10
29.594576
 20
116.729309
 30
0.0
  0
VERTEX
  5
85
100
AcDbEntity
  8
EBENE_1
 62
     7
100
AcDbVertex
100
AcDb2dVertex
 10
31.118686
 20
116.729309
 30
0.0
  0
VERTEX
  5
86
100
AcDbEntity
  8
EBENE_1
 62
     7
100
AcDbVertex
100
AcDb2dVertex
 10
30.356631
 20
121.216546
 30
0.0
  0
SEQEND
  5
87
100
AcDbEntity
  8
EBENE_1
 62
     7
  0
HATCH
  5
82
100
AcDbEntity
  8
EBENE_1
 62
     7
100
AcDbHatch
 10
0.0
 20
0.0
 30
0.0
210
0.0
220
0.0
230
1.0
  2
SOLID
 70
     1
 71
     0
 91
        1
 92
        3
 72
     0
 73
     1
 93
        3
 10
29.594576009114579
 20
116.72930908203124
 10
31.118686252170136
 20
116.72930908203124
 10
30.356631130642359
 20
121.21654595269096
 97
        0
 75
     0
 76
     1
 98
        1
 10
0.0
 20
0.0
  0
POLYLINE
  5
7D
100
AcDbEntity
  8
EBENE_1
 62
     7
100
AcDb2dPolyline
 66
     1
 10
0.0
 20
0.0
 30
0.0
 70
     1
  0
VERTEX
  5
7E
100
AcDbEntity
  8
EBENE_1
 62
     7
100
AcDbVertex
100
AcDb2dVertex
 10
29.594576
 20
108.008567
 30
0.0
  0
VERTEX
  5
7F
100
AcDbEntity
  8
EBENE_1
 62
     7
100
AcDbVertex
100
AcDb2dVertex
 10
31.118686
 20
108.008567
 30
0.0
  0
VERTEX
  5
80
100
AcDbEntity
  8
EBENE_1
 62
     7
100
AcDbVertex
100
AcDb2dVertex
 10
30.356631
 20
103.52133
 30
0.0
  0
SEQEND
  5
81
100
AcDbEntity
  8
EBENE_1
 62
     7
  0
HATCH
  5
7C
100
AcDbEntity
  8
EBENE_1
 62
     7
100
AcDbHatch
 10
0.0
 20
0.0
 30
0.0
210
0.0
220
0.0
230
1.0
  2
SOLID
 70
     1
 71
     0
 91
        1
 92
        3
 72
     0
 73
     1
 93
        3
 10
29.594576009114579
 20
108.00856662326387
 10
31.118686252170136
 20
108.00856662326387
 10
30.356631130642359
 20
103.52132975260416
 97
        0
 75
     0
 76
     1
 98
        1
 10
0.0
 20
0.0
  0
LINE
  5
7B
100
AcDbEntity
  8
EBENE_1
 62
     7
100
AcDbLine
 10
25.445992
 20
109.447928
 30
0.0
 11
25.191744
 21
109.87133
 31
0.0
  0
LINE
  5
7A
100
AcDbEntity
  8
EBENE_1
 62
     7
100
AcDbLine
 10
25.191744
 20
109.87133
 30
0.0
 11
24.599188
 21
110.463886
 31
0.0
  0
LINE
  5
79
100
AcDbEntity
  8
EBENE_1
 62
     7
100
AcDbLine
 10
24.599188
 20
110.463886
 30
0.0
 11
29.086769
 21
110.463886
 31
0.0
  0
LINE
  5
78
100
AcDbEntity
  8
EBENE_1
 62
     7
100
AcDbLine
 10
24.599188
 20
113.511934
 30
0.0
 11
24.768686
 21
112.919378
 31
0.0
  0
LINE
  5
77
100
AcDbEntity
  8
EBENE_1
 62
     7
100
AcDbLine
 10
24.768686
 20
112.919378
 30
0.0
 11
25.191744
 21
112.749879
 31
0.0
  0
LINE
  5
76
100
AcDbEntity
  8
EBENE_1
 62
     7
100
AcDbLine
 10
25.191744
 20
112.749879
 30
0.0
 11
25.699896
 21
112.749879
 31
0.0
  0
LINE
  5
75
100
AcDbEntity
  8
EBENE_1
 62
     7
100
AcDbLine
 10
25.699896
 20
112.749879
 30
0.0
 11
26.123298
 21
112.919378
 31
0.0
  0
LINE
  5
74
100
AcDbEntity
  8
EBENE_1
 62
     7
100
AcDbLine
 10
26.123298
 20
112.919378
 30
0.0
 11
26.292796
 21
113.342608
 31
0.0
  0
LINE
  5
73
100
AcDbEntity
  8
EBENE_1
 62
     7
100
AcDbLine
 10
26.292796
 20
113.342608
 30
0.0
 11
26.546356
 21
114.104663
 31
0.0
  0
LINE
  5
72
100
AcDbEntity
  8
EBENE_1
 62
     7
100
AcDbLine
 10
26.546356
 20
114.104663
 30
0.0
 11
26.715854
 21
114.612642
 31
0.0
  0
LINE
  5
71
100
AcDbEntity
  8
EBENE_1
 62
     7
100
AcDbLine
 10
26.715854
 20
114.612642
 30
0.0
 11
27.139256
 21
115.036045
 31
0.0
  0
LINE
  5
70
100
AcDbEntity
  8
EBENE_1
 62
     7
100
AcDbLine
 10
27.139256
 20
115.036045
 30
0.0
 11
27.562659
 21
115.205371
 31
0.0
  0
LINE
  5
6F
100
AcDbEntity
  8
EBENE_1
 62
     7
100
AcDbLine
 10
27.562659
 20
115.205371
 30
0.0
 11
28.239964
 21
115.205371
 31
0.0
  0
LINE
  5
6E
100
AcDbEntity
  8
EBENE_1
 62
     7
100
AcDbLine
 10
28.239964
 20
115.205371
 30
0.0
 11
28.663022
 21
115.036045
 31
0.0
  0
LINE
  5
6D
100
AcDbEntity
  8
EBENE_1
 62
     7
100
AcDbLine
 10
28.663022
 20
115.036045
 30
0.0
 11
28.832521
 21
114.866546
 31
0.0
  0
LINE
  5
6C
100
AcDbEntity
  8
EBENE_1
 62
     7
100
AcDbLine
 10
28.832521
 20
114.866546
 30
0.0
 11
29.086769
 21
114.27399
 31
0.0
  0
LINE
  5
6B
100
AcDbEntity
  8
EBENE_1
 62
     7
100
AcDbLine
 10
29.086769
 20
114.27399
 30
0.0
 11
29.086769
 21
113.511934
 31
0.0
  0
LINE
  5
6A
100
AcDbEntity
  8
EBENE_1
 62
     7
100
AcDbLine
 10
29.086769
 20
113.511934
 30
0.0
 11
28.832521
 21
112.919378
 31
0.0
  0
LINE
  5
69
100
AcDbEntity
  8
EBENE_1
 62
     7
100
AcDbLine
 10
28.832521
 20
112.919378
 30
0.0
 11
28.663022
 21
112.749879
 31
0.0
  0
LINE
  5
68
100
AcDbEntity
  8
EBENE_1
 62
     7
100
AcDbLine
 10
28.663022
 20
112.749879
 30
0.0
 11
28.239964
 21
112.495976
 31
0.0
  0
LINE
  5
67
100
AcDbEntity
  8
EBENE_1
 62
     7
100
AcDbLine
 10
28.239964
 20
112.495976
 30
0.0
 11
27.562659
 21
112.495976
 31
0.0
  0
LINE
  5
66
100
AcDbEntity
  8
EBENE_1
 62
     7
100
AcDbLine
 10
27.562659
 20
112.495976
 30
0.0
 11
27.139256
 21
112.749879
 31
0.0
  0
LINE
  5
65
100
AcDbEntity
  8
EBENE_1
 62
     7
100
AcDbLine
 10
27.139256
 20
112.749879
 30
0.0
 11
26.715854
 21
113.088704
 31
0.0
  0
LINE
  5
64
100
AcDbEntity
  8
EBENE_1
 62
     7
100
AcDbLine
 10
26.715854
 20
113.088704
 30
0.0
 11
26.546356
 21
113.681261
 31
0.0
  0
LINE
  5
63
100
AcDbEntity
  8
EBENE_1
 62
     7
100
AcDbLine
 10
26.546356
 20
113.681261
 30
0.0
 11
26.292796
 21
114.443316
 31
0.0
  0
LINE
  5
62
100
AcDbEntity
  8
EBENE_1
 62
     7
100
AcDbLine
 10
26.292796
 20
114.443316
 30
0.0
 11
26.123298
 21
114.866546
 31
0.0
  0
LINE
  5
61
100
AcDbEntity
  8
EBENE_1
 62
     7
100
AcDbLine
 10
26.123298
 20
114.866546
 30
0.0
 11
25.699896
 21
115.036045
 31
0.0
  0
LINE
  5
60
100
AcDbEntity
  8
EBENE_1
 62
     7
100
AcDbLine
 10
25.699896
 20
115.036045
 30
0.0
 11
25.191744
 21
115.036045
 31
0.0
  0
LINE
  5
5F
100
AcDbEntity
  8
EBENE_1
 62
     7
100
AcDbLine
 10
25.191744
 20
115.036045
 30
0.0
 11
24.768686
 21
114.866546
 31
0.0
  0
LINE
  5
5E
100
AcDbEntity
  8
EBENE_1
 62
     7
100
AcDbLine
 10
24.768686
 20
114.866546
 30
0.0
 11
24.599188
 21
114.27399
 31
0.0
  0
LINE
  5
5D
100
AcDbEntity
  8
EBENE_1
 62
     7
100
AcDbLine
 10
24.599188
 20
114.27399
 30
0.0
 11
24.599188
 21
113.511934
 31
0.0
  0
LINE
  5
5C
100
AcDbEntity
  8
EBENE_1
 62
     7
100
AcDbLine
 10
57.61905
 20
110.379309
 30
0.0
 11
49.237132
 21
110.379309
 31
0.0
  0
LINE
  5
5B
100
AcDbEntity
  8
EBENE_1
 62
     7
100
AcDbLine
 10
52.877909
 20
108.262642
 30
0.0
 11
54.656268
 21
106.484629
 31
0.0
  0
LINE
  5
5A
100
AcDbEntity
  8
EBENE_1
 62
     7
100
AcDbLine
 10
47.289964
 20
103.52133
 30
0.0
 11
47.289964
 21
109.36335
 31
0.0
  0
LINE
  5
59
100
AcDbEntity
  8
EBENE_1
 62
     7
100
AcDbLine
 10
51.1843
 20
103.52133
 30
0.0
 11
51.10024
 21
104.537288
 31
0.0
  0
LINE
  5
58
100
AcDbEntity
  8
EBENE_1
 62
     7
100
AcDbLine
 10
51.10024
 20
104.537288
 30
0.0
 11
50.676493
 21
105.46867
 31
0.0
  0
LINE
  5
57
100
AcDbEntity
  8
EBENE_1
 62
     7
100
AcDbLine
 10
50.676493
 20
105.46867
 30
0.0
 11
50.083937
 21
106.315302
 31
0.0
  0
LINE
  5
56
100
AcDbEntity
  8
EBENE_1
 62
     7
100
AcDbLine
 10
50.083937
 20
106.315302
 30
0.0
 11
49.237132
 21
106.908031
 31
0.0
  0
LINE
  5
55
100
AcDbEntity
  8
EBENE_1
 62
     7
100
AcDbLine
 10
49.237132
 20
106.908031
 30
0.0
 11
48.306268
 21
107.331261
 31
0.0
  0
LINE
  5
54
100
AcDbEntity
  8
EBENE_1
 62
     7
100
AcDbLine
 10
48.306268
 20
107.331261
 30
0.0
 11
47.96727
 21
107.331261
 31
0.0
  0
LINE
  5
53
100
AcDbEntity
  8
EBENE_1
 62
     7
100
AcDbLine
 10
45.342796
 20
106.908031
 30
0.0
 11
45.342796
 21
106.908031
 31
0.0
  0
LINE
  5
52
100
AcDbEntity
  8
EBENE_1
 62
     7
100
AcDbLine
 10
45.342796
 20
106.908031
 30
0.0
 11
44.495992
 21
106.315302
 31
0.0
  0
LINE
  5
51
100
AcDbEntity
  8
EBENE_1
 62
     7
100
AcDbLine
 10
44.495992
 20
106.315302
 30
0.0
 11
43.903436
 21
105.46867
 31
0.0
  0
LINE
  5
50
100
AcDbEntity
  8
EBENE_1
 62
     7
100
AcDbLine
 10
43.903436
 20
105.46867
 30
0.0
 11
43.479689
 21
104.537288
 31
0.0
  0
LINE
  5
4F
100
AcDbEntity
  8
EBENE_1
 62
     7
100
AcDbLine
 10
43.479689
 20
104.537288
 30
0.0
 11
43.39494
 21
103.52133
 31
0.0
  0
LINE
  5
4E
100
AcDbEntity
  8
EBENE_1
 62
     7
100
AcDbLine
 10
43.39494
 20
103.52133
 30
0.0
 11
43.479689
 21
102.505371
 31
0.0
  0
LINE
  5
4D
100
AcDbEntity
  8
EBENE_1
 62
     7
100
AcDbLine
 10
43.479689
 20
102.505371
 30
0.0
 11
43.649188
 21
102.166546
 31
0.0
  0
LINE
  5
4C
100
AcDbEntity
  8
EBENE_1
 62
     7
100
AcDbLine
 10
45.342796
 20
100.134629
 30
0.0
 11
45.342796
 21
100.134629
 31
0.0
  0
LINE
  5
4B
100
AcDbEntity
  8
EBENE_1
 62
     7
100
AcDbLine
 10
45.342796
 20
100.134629
 30
0.0
 11
46.273661
 21
99.711226
 31
0.0
  0
LINE
  5
4A
100
AcDbEntity
  8
EBENE_1
 62
     7
100
AcDbLine
 10
46.273661
 20
99.711226
 30
0.0
 11
47.289964
 21
99.5419
 31
0.0
  0
LINE
  5
49
100
AcDbEntity
  8
EBENE_1
 62
     7
100
AcDbLine
 10
47.289964
 20
99.5419
 30
0.0
 11
48.306268
 21
99.711226
 31
0.0
  0
LINE
  5
48
100
AcDbEntity
  8
EBENE_1
 62
     7
100
AcDbLine
 10
48.306268
 20
99.711226
 30
0.0
 11
49.237132
 21
100.134629
 31
0.0
  0
LINE
  5
47
100
AcDbEntity
  8
EBENE_1
 62
     7
100
AcDbLine
 10
49.237132
 20
100.134629
 30
0.0
 11
50.083937
 21
100.727357
 31
0.0
  0
LINE
  5
46
100
AcDbEntity
  8
EBENE_1
 62
     7
100
AcDbLine
 10
50.083937
 20
100.727357
 30
0.0
 11
50.253436
 21
100.981261
 31
0.0
  0
LINE
  5
45
100
AcDbEntity
  8
EBENE_1
 62
     7
100
AcDbLine
 10
51.1843
 20
103.52133
 30
0.0
 11
51.1843
 21
103.52133
 31
0.0
  0
LINE
  5
44
100
AcDbEntity
  8
EBENE_1
 62
     7
100
AcDbLine
 10
49.406631
 20
103.52133
 30
0.0
 11
49.237132
 21
104.283213
 31
0.0
  0
LINE
  5
43
100
AcDbEntity
  8
EBENE_1
 62
     7
100
AcDbLine
 10
49.237132
 20
104.283213
 30
0.0
 11
48.814075
 21
104.960691
 31
0.0
  0
LINE
  5
42
100
AcDbEntity
  8
EBENE_1
 62
     7
100
AcDbLine
 10
48.814075
 20
104.960691
 30
0.0
 11
48.136769
 21
105.46867
 31
0.0
  0
LINE
  5
41
100
AcDbEntity
  8
EBENE_1
 62
     7
100
AcDbLine
 10
48.136769
 20
105.46867
 30
0.0
 11
47.289964
 21
105.637996
 31
0.0
  0
LINE
  5
40
100
AcDbEntity
  8
EBENE_1
 62
     7
100
AcDbLine
 10
47.289964
 20
105.637996
 30
0.0
 11
46.44316
 21
105.46867
 31
0.0
  0
LINE
  5
3F
100
AcDbEntity
  8
EBENE_1
 62
     7
100
AcDbLine
 10
46.44316
 20
105.46867
 30
0.0
 11
45.765854
 21
104.960691
 31
0.0
  0
LINE
  5
3E
100
AcDbEntity
  8
EBENE_1
 62
     7
100
AcDbLine
 10
45.765854
 20
104.960691
 30
0.0
 11
45.342796
 21
104.283213
 31
0.0
  0
LINE
  5
3D
100
AcDbEntity
  8
EBENE_1
 62
     7
100
AcDbLine
 10
45.342796
 20
104.283213
 30
0.0
 11
45.173298
 21
103.52133
 31
0.0
  0
LINE
  5
3C
100
AcDbEntity
  8
EBENE_1
 62
     7
100
AcDbLine
 10
45.173298
 20
103.52133
 30
0.0
 11
45.342796
 21
102.674698
 31
0.0
  0
LINE
  5
3B
100
AcDbEntity
  8
EBENE_1
 62
     7
100
AcDbLine
 10
45.342796
 20
102.674698
 30
0.0
 11
45.765854
 21
101.99722
 31
0.0
  0
LINE
  5
3A
100
AcDbEntity
  8
EBENE_1
 62
     7
100
AcDbLine
 10
45.765854
 20
101.99722
 30
0.0
 11
46.44316
 21
101.57399
 31
0.0
  0
LINE
  5
39
100
AcDbEntity
  8
EBENE_1
 62
     7
100
AcDbLine
 10
46.44316
 20
101.57399
 30
0.0
 11
47.289964
 21
101.404663
 31
0.0
  0
LINE
  5
38
100
AcDbEntity
  8
EBENE_1
 62
     7
100
AcDbLine
 10
47.289964
 20
101.404663
 30
0.0
 11
48.136769
 21
101.57399
 31
0.0
  0
LINE
  5
37
100
AcDbEntity
  8
EBENE_1
 62
     7
100
AcDbLine
 10
48.136769
 20
101.57399
 30
0.0
 11
48.814075
 21
101.99722
 31
0.0
  0
LINE
  5
36
100
AcDbEntity
  8
EBENE_1
 62
     7
100
AcDbLine
 10
48.814075
 20
101.99722
 30
0.0
 11
49.237132
 21
102.674698
 31
0.0
  0
LINE
  5
35
100
AcDbEntity
  8
EBENE_1
 62
     7
100
AcDbLine
 10
49.237132
 20
102.674698
 30
0.0
 11
49.406631
 21
103.52133
 31
0.0
  0
LINE
  5
34
100
AcDbEntity
  8
EBENE_1
 62
     7
100
AcDbLine
 10
47.289964
 20
103.52133
 30
0.0
 11
41.363022
 21
103.52133
 31
0.0
  0
LINE
  5
33
100
AcDbEntity
  8
EBENE_1
 62
     7
100
AcDbLine
 10
54.656268
 20
99.5419
 30
0.0
 11
52.200604
 21
99.5419
 31
0.0
  0
LINE
  5
32
100
AcDbEntity
  8
EBENE_1
 62
     7
100
AcDbLine
 10
47.289964
 20
103.52133
 30
0.0
 11
47.289964
 21
97.59456
 31
0.0
  0
LINE
  5
31
100
AcDbEntity
  8
EBENE_1
 62
     7
100
AcDbLine
 10
47.289964
 20
103.52133
 30
0.0
 11
53.216907
 21
103.52133
 31
0.0
  0
LINE
  5
30
100
AcDbEntity
  8
EBENE_1
 62
     7
100
AcDbLine
 10
52.877909
 20
112.495976
 30
0.0
 11
54.656268
 21
114.27399
 31
0.0
  0
LINE
  5
2F
100
AcDbEntity
  8
EBENE_1
 62
     7
100
AcDbLine
 10
52.877909
 20
112.495976
 30
0.0
 11
52.200604
 21
112.495976
 31
0.0
  0
LINE
  5
2E
100
AcDbEntity
  8
EBENE_1
 62
     7
100
AcDbLine
 10
52.877909
 20
108.262642
 30
0.0
 11
52.200604
 21
108.262642
 31
0.0
  0
LINE
  5
2D
100
AcDbEntity
  8
EBENE_1
 62
     7
100
AcDbLine
 10
52.877909
 20
108.262642
 30
0.0
 11
52.877909
 21
112.495976
 31
0.0
  0
LINE
  5
2C
100
AcDbEntity
  8
EBENE_1
 62
     7
100
AcDbLine
 10
40.939964
 20
121.216546
 30
0.0
 11
54.656268
 21
121.216546
 31
0.0
  0
ENDBLK
  5
554
100
AcDbEntity
  8
EBENE_1
100
AcDbBlockEnd
  0
ENDSEC
  0
SECTION
  2
ENTITIES
  0
INSERT
  5
2A
100
AcDbEntity
  8
EBENE_1
 62
     7
100
AcDbBlockReference
  2
AI9-BLK1
 10
104.757258
 20
148.390253
 30
0.0
  0
ENDSEC
  0
SECTION
  2
OBJECTS
  0
DICTIONARY
  5
19
100
AcDbDictionary
280
     0
281
     1
  3
ACAD_GROUP
350
1A
  3
ACAD_MLINESTYLE
350
1B
  3
ACAD_LAYOUT
350
1E
  3
ACAD_PLOTSETTINGS
350
22
  3
ACAD_PLOTSTYLENAME
350
1F
  3
ACAD_WIPEOUT_VARS
350
23
  0
DICTIONARY
  5
1A
102
{ACAD_REACTORS
330
19
102
}
100
AcDbDictionary
280
     0
281
     1
  0
DICTIONARY
  5
1B
102
{ACAD_REACTORS
330
19
102
}
100
AcDbDictionary
280
     0
281
     1
  3
Standard
350
1C
  0
MLINESTYLE
  5
1C
102
{ACAD_REACTORS
330
1B
102
}
100
AcDbMlineStyle
  2
Standard
 70
     0
  3

 62
     0
 51
90.0
 52
90.0
 71
     2
 49
0.5
 62
   256
  6
ByLayer
 49
-0.5
 62
   256
  6
ByLayer
  0
ACDBDICTIONARYWDFLT
  5
1F
102
{ACAD_REACTORS
330
19
102
}
100
AcDbDictionary
281
     1
  3
Normal
350
1D
100
AcDbDictionaryWithDefault
340
1D
  0
ACDBPLACEHOLDER
  5
1D
102
{ACAD_REACTORS
330
1F
102
}
  0
LAYOUT
  5
20
102
{ACAD_REACTORS
330
1E
102
}
100
AcDbPlotSettings
  1

  2

  4

  6

 40
0.0
 41
0.0
 42
0.0
 43
0.0
 44
0.0
 45
0.0
 46
0.0
 47
0.0
 48
0.0
 49
0.0
140
0.0
141
0.0
142
1.0
143
1.0
 70
  1024
 72
     0
 73
     0
 74
     0
  7

 75
     0
147
1.0
148
0.0
149
0.0
100
AcDbLayout
  1
Model
 70
     0
 71
     0
 10
0.0
 20
0.0
 11
0.0
 21
0.0
 12
0.0
 22
0.0
 32
0.0
 14
0.0
 24
0.0
 34
0.0
 15
0.0
 25
0.0
 35
0.0
146
0.0
 13
0.0
 23
0.0
 33
0.0
 16
0.0
 26
0.0
 36
0.0
 17
0.0
 27
0.0
 37
0.0
 76
     0
330
A
331
0
345
0
346
0
  0
LAYOUT
  5
21
102
{ACAD_REACTORS
330
1E
102
}
100
AcDbPlotSettings
  1

  2

  4

  6

 40
0.0
 41
0.0
 42
0.0
 43
0.0
 44
0.0
 45
0.0
 46
0.0
 47
0.0
 48
0.0
 49
0.0
140
0.0
141
0.0
142
1.0
143
1.0
 70
     0
 72
     0
 73
     0
 74
     0
  7

 75
     0
147
1.0
148
0.0
149
0.0
100
AcDbLayout
  1
Layout1
 70
     0
 71
     0
 10
0.0
 20
0.0
 11
0.0
 21
0.0
 12
0.0
 22
0.0
 32
0.0
 14
0.0
 24
0.0
 34
0.0
 15
0.0
 25
0.0
 35
0.0
146
0.0
 13
0.0
 23
0.0
 33
0.0
 16
0.0
 26
0.0
 36
0.0
 17
0.0
 27
0.0
 37
0.0
 76
     0
330
B
331
0
345
0
346
0
  0
DICTIONARY
  5
1E
102
{ACAD_REACTORS
330
19
102
}
100
AcDbDictionary
280
     0
281
     1
  3
Layout1
350
21
  3
Model
350
20
  0
DICTIONARY
  5
22
102
{ACAD_REACTORS
330
19
102
}
100
AcDbDictionary
280
     0
281
     1
  0
WIPEOUTVARIABLES
  5
23
100
AcDbWipeoutVariables
 70
     1
  0
ENDSEC
  0
EOF
